  0
SECTION
  2
HEADER
  9
$ACADVER
  1
AC1015
  9
$ACADMAINTVER
 70
     6
  9
$DWGCODEPAGE
  3
DOS850
  9
$INSBASE
 10
0.0
 20
0.0
 30
0.0
  9
$EXTMIN
 10
-5.9619
 20
-5.30154
 30
1.000000E+20
  9
$EXTMAX
 10
5.9666
 20
5.29564
 30
-1.000000E+20
  9
$LIMMIN
 10
0.0
 20
0.0
  9
$LIMMAX
 10
0.0
 20
0.0
  9
$ORTHOMODE
 70
     0
  9
$REGENMODE
 70
     1
  9
$FILLMODE
 70
     1
  9
$QTEXTMODE
 70
     0
  9
$MIRRTEXT
 70
     1
  9
$LTSCALE
 40
1.0
  9
$ATTMODE
 70
     1
  9
$TEXTSIZE
 40
0.2
  9
$TRACEWID
 40
0.05
  9
$TEXTSTYLE
  7
Standard
  9
$CLAYER
  8
0
  9
$CELTYPE
  6
Continuous
  9
$CECOLOR
 62
   256
  9
$CELTSCALE
 40
1.0
  9
$DISPSILH
 70
     0
  9
$DIMSCALE
 40
1.0
  9
$DIMASZ
 40
0.18
  9
$DIMEXO
 40
0.0625
  9
$DIMDLI
 40
0.38
  9
$DIMRND
 40
0.0
  9
$DIMDLE
 40
0.0
  9
$DIMEXE
 40
0.18
  9
$DIMTP
 40
0.0
  9
$DIMTM
 40
0.0
  9
$DIMTXT
 40
0.18
  9
$DIMCEN
 40
0.09
  9
$DIMTSZ
 40
0.0
  9
$DIMTOL
 70
     0
  9
$DIMLIM
 70
     0
  9
$DIMTIH
 70
     1
  9
$DIMTOH
 70
     1
  9
$DIMSE1
 70
     0
  9
$DIMSE2
 70
     0
  9
$DIMTAD
 70
     0
  9
$DIMZIN
 70
     0
  9
$DIMBLK
  1

  9
$DIMASO
 70
     1
  9
$DIMSHO
 70
     1
  9
$DIMPOST
  1

  9
$DIMAPOST
  1

  9
$DIMALT
 70
     0
  9
$DIMALTD
 70
     2
  9
$DIMALTF
 40
25.4
  9
$DIMLFAC
 40
1.0
  9
$DIMTOFL
 70
     0
  9
$DIMTVP
 40
0.0
  9
$DIMTIX
 70
     0
  9
$DIMSOXD
 70
     0
  9
$DIMSAH
 70
     0
  9
$DIMBLK1
  1

  9
$DIMBLK2
  1

  9
$DIMSTYLE
  2
Standard
  9
$DIMCLRD
 70
     0
  9
$DIMCLRE
 70
     0
  9
$DIMCLRT
 70
     0
  9
$DIMTFAC
 40
1.0
  9
$DIMGAP
 40
0.09
  9
$DIMJUST
 70
     0
  9
$DIMSD1
 70
     0
  9
$DIMSD2
 70
     0
  9
$DIMTOLJ
 70
     1
  9
$DIMTZIN
 70
     0
  9
$DIMALTZ
 70
     0
  9
$DIMALTTZ
 70
     0
  9
$DIMUPT
 70
     0
  9
$DIMDEC
 70
     4
  9
$DIMTDEC
 70
     4
  9
$DIMALTU
 70
     2
  9
$DIMALTTD
 70
     2
  9
$DIMTXSTY
  7
Standard
  9
$DIMAUNIT
 70
     0
  9
$DIMADEC
 70
     0
  9
$DIMALTRND
 40
0.0
  9
$DIMAZIN
 70
     0
  9
$DIMDSEP
 70
     0
  9
$DIMATFIT
 70
     3
  9
$DIMFRAC
 70
     0
  9
$DIMLDRBLK
  1

  9
$DIMLUNIT
 70
     2
  9
$DIMLWD
 70
     0
  9
$DIMLWE
 70
     0
  9
$DIMTMOVE
 70
     0
  9
$LUNITS
 70
     2
  9
$LUPREC
 70
     4
  9
$SKETCHINC
 40
0.1
  9
$FILLETRAD
 40
0.0
  9
$AUNITS
 70
     0
  9
$AUPREC
 70
     0
  9
$MENU
  1
acad
  9
$ELEVATION
 40
0.0
  9
$PELEVATION
 40
0.0
  9
$THICKNESS
 40
0.0
  9
$LIMCHECK
 70
     0
  9
$CHAMFERA
 40
0.0
  9
$CHAMFERB
 40
0.0
  9
$CHAMFERC
 40
0.0
  9
$CHAMFERD
 40
0.0
  9
$SKPOLY
 70
     0
  9
$TDCREATE
 40
0.000000000
  9
$TDUCREATE
 40
0.000000000
  9
$TDUPDATE
 40
0.000000000
  9
$TDUUPDATE
 40
0.000000000
  9
$TDINDWG
 40
0.0000000000
  9
$TDUSRTIMER
 40
0.0000000000
  9
$USRTIMER
 70
     1
  9
$ANGBASE
 50
0.0
  9
$ANGDIR
 70
     0
  9
$PDMODE
 70
     0
  9
$PDSIZE
 40
0.0
  9
$PLINEWID
 40
0.0
  9
$SPLFRAME
 70
     0
  9
$SPLINETYPE
 70
     6
  9
$SPLINESEGS
 70
     8
  9
$HANDSEED
  5
31
  9
$SURFTAB1
 70
     6
  9
$SURFTAB2
 70
     6
  9
$SURFTYPE
 70
     6
  9
$SURFU
 70
     6
  9
$SURFV
 70
     6
  9
$UCSBASE
  2

  9
$UCSNAME
  2

  9
$UCSORG
 10
0.0
 20
0.0
 30
0.0
  9
$UCSXDIR
 10
1.0
 20
0.0
 30
0.0
  9
$UCSYDIR
 10
0.0
 20
1.0
 30
0.0
  9
$UCSORTHOREF
  2

  9
$UCSORTHOVIEW
 70
     0
  9
$UCSORGTOP
 10
0.0
 20
0.0
 30
0.0
  9
$UCSORGBOTTOM
 10
0.0
 20
0.0
 30
0.0
  9
$UCSORGLEFT
 10
0.0
 20
0.0
 30
0.0
  9
$UCSORGRIGHT
 10
0.0
 20
0.0
 30
0.0
  9
$UCSORGFRONT
 10
0.0
 20
0.0
 30
0.0
  9
$UCSORGBACK
 10
0.0
 20
0.0
 30
0.0
  9
$PUCSBASE
  2

  9
$PUCSNAME
  2

  9
$PUCSORG
 10
0.0
 20
0.0
 30
0.0
  9
$PUCSXDIR
 10
1.0
 20
0.0
 30
0.0
  9
$PUCSYDIR
 10
0.0
 20
1.0
 30
0.0
  9
$PUCSORTHOREF
  2

  9
$PUCSORTHOVIEW
 70
     0
  9
$PUCSORGTOP
 10
0.0
 20
0.0
 30
0.0
  9
$PUCSORGBOTTOM
 10
0.0
 20
0.0
 30
0.0
  9
$PUCSORGLEFT
 10
0.0
 20
0.0
 30
0.0
  9
$PUCSORGRIGHT
 10
0.0
 20
0.0
 30
0.0
  9
$PUCSORGFRONT
 10
0.0
 20
0.0
 30
0.0
  9
$PUCSORGBACK
 10
0.0
 20
0.0
 30
0.0
  9
$USERI1
 70
     0
  9
$USERI2
 70
     0
  9
$USERI3
 70
     0
  9
$USERI4
 70
     0
  9
$USERI5
 70
     0
  9
$USERR1
 40
0.0
  9
$USERR2
 40
0.0
  9
$USERR3
 40
0.0
  9
$USERR4
 40
0.0
  9
$USERR5
 40
0.0
  9
$WORLDVIEW
 70
     1
  9
$SHADEDGE
 70
     3
  9
$SHADEDIF
 70
    70
  9
$TILEMODE
 70
     1
  9
$MAXACTVP
 70
    16
  9
$PINSBASE
 10
0.0
 20
0.0
 30
0.0
  9
$PLIMCHECK
 70
     0
  9
$PEXTMIN
 10
1.000000E+20
 20
1.000000E+20
 30
1.000000E+20
  9
$PEXTMAX
 10
-1.000000E+20
 20
-1.000000E+20
 30
-1.000000E+20
  9
$PLIMMIN
 10
0.0
 20
0.0
  9
$PLIMMAX
 10
12.0
 20
9.0
  9
$UNITMODE
 70
     0
  9
$VISRETAIN
 70
     0
  9
$PLINEGEN
 70
     1
  9
$PSLTSCALE
 70
     0
  9
$TREEDEPTH
 70
  3020
  9
$CMLSTYLE
  2
Standard
  9
$CMLJUST
 70
     0
  9
$CMLSCALE
 40
1.0
  9
$PROXYGRAPHICS
 70
     0
  9
$MEASUREMENT
 70
     0
  9
$CELWEIGHT
370
     0
  9
$ENDCAPS
280
     0
  9
$JOINSTYLE
280
     0
  9
$LWDISPLAY
290
     0
  9
$INSUNITS
 70
     5
  9
$HYPERLINKBASE
  1

  9
$XEDIT
290
     1
  9
$CEPSNTYPE
380
     0
  9
$PSTYLEMODE
290
     1
  9
$FINGERPRINTGUID
  2

  9
$VERSIONGUID
  2

  9
$EXTNAMES
290
     1
  9
$PSVPSCALE
 40
0.0
  0
ENDSEC
  0
SECTION
  2
CLASSES
  0
CLASS
  1
LWPOLYLINE
  2
AcDbPolyline
  3
AutoCAD 2000
 90
    32768
280
     0
281
     1
  0
CLASS
  1
IMAGE
  2
AcDbRasterImage
  3
ISM
 90
    32895
280
     0
281
     1
  0
CLASS
  1
OLE2FRAME
  2
AcDbOle2Frame
  3
AutoCAD 2000
 90
    32768
280
     0
281
     1
  0
CLASS
  1
HATCH
  2
AcDbHatch
  3
AutoCAD 2000
 90
    32768
280
     0
281
     1
  0
CLASS
  1
DICTIONARYVAR
  2
AcDbDictionaryVar
  3
AutoCAD 2000
 90
    32768
280
     0
281
     0
  0
CLASS
  1
RASTERVARIABLES
  2
AcDbRasterVariables
  3
ISM
 90
    32768
280
     0
281
     0
  0
CLASS
  1
IMAGEDEF
  2
AcDbRasterImageDef
  3
ISM
 90
    32768
280
     0
281
     0
  0
CLASS
  1
IMAGEDEF_REACTOR
  2
AcDbRasterImageDefReactor
  3
ISM
 90
    32769
280
     0
281
     0
  0
CLASS
  1
IDBUFFER
  2
AcDbIdBuffer
  3
AutoCAD 2000
 90
    32768
280
     0
281
     0
  0
CLASS
  1
SPATIAL_FILTER
  2
AcDbSpatialFilter
  3
AutoCAD 2000
 90
    32768
280
     0
281
     0
  0
CLASS
  1
XRECORD
  2
AcDbXrecord
  3
AutoCAD 2000
 90
    32768
280
     0
281
     0
  0
CLASS
  1
SORTENTSTABLE
  2
AcDbSortentsTable
  3
AutoCAD 2000
 90
    32768
280
     0
281
     0
  0
CLASS
  1
LAYER_INDEX
  2
AcDbLayerIndex
  3
AutoCAD 2000
 90
    32768
280
     0
281
     0
  0
CLASS
  1
SPATIAL_INDEX
  2
AcDbSpatialIndex
  3
AutoCAD 2000
 90
    32768
280
     0
281
     0
  0
CLASS
  1
OBJECT_PTR
  2
CAseDLPNTableRecord
  3
"ASE-LPNTableRecord"
 90
    32769
280
     0
281
     0
  0
CLASS
  1
LAYOUT
  2
AcDbLayout
  3
AutoCAD 2000
 90
        0
280
     0
281
     0
  0
CLASS
  1
PLOTSETTINGS
  2
AcDbPlotSettings
  3
AutoCAD 2000
 90
    32768
280
     0
281
     0
  0
CLASS
  1
ACDBDICTIONARYWDFLT
  2
AcDbDictionaryWithDefault
  3
AutoCAD 2000
 90
        0
280
     0
281
     0
  0
CLASS
  1
ACDBPLACEHOLDER
  2
AcDbPlaceHolder
  3
AutoCAD 2000
 90
        0
280
     0
281
     0
  0
CLASS
  1
VBA_PROJECT
  2
AcDbVbaProject
  3
acadvba
 90
    32768
280
     0
281
     0
  0
CLASS
  1
WIPEOUT
  2
AcDbWipeout
  3
WipeOut|AutoCAD Express Tool|expresstools@autodesk.com
 90
    32895
280
     0
281
     1
  0
CLASS
  1
WIPEOUTVARIABLES
  2
AcDbWipeoutVariables
  3
WipeOut|AutoCAD Express Tool|expresstools@autodesk.com
 90
        0
280
     0
281
     0
  0
CLASS
  1
RTEXT
  2
RText
  3
RText|AutoCAD Express Tool|expresstools@autodesk.com
 90
    32768
280
     0
281
     1
  0
CLASS
  1
ARCALIGNEDTEXT
  2
AcDbArcAlignedText
  3
ATEXT|AutoCAD Express Tool|expresstools@autodesk.com
 90
    32768
280
     0
281
     1
  0
ENDSEC
  0
SECTION
  2
TABLES
  0
TABLE
  2
VPORT
  5
7
100
AcDbSymbolTable
 70
     1
  0
VPORT
  5
15
100
AcDbSymbolTableRecord
100
AcDbViewportTableRecord
  2
*ACTIVE
 70
     0
 10
0.0
 20
0.0
 11
1.0
 21
1.0
 12
6.591288
 22
4.579184
 13
0.0
 23
0.0
 14
1.0
 24
1.0
 15
0.0
 25
0.0
 16
0.0
 26
0.0
 36
1.0
 17
0.0
 27
0.0
 37
0.0
 40
9.158369
 41
0.688564
 42
50.0
 43
0.0
 44
0.0
 50
0.0
 51
0.0
 71
     0
 72
   100
 73
     1
 74
     1
 75
     0
 76
     0
 77
     0
 78
     0
281
     0
 65
     0
110
0.0
120
0.0
130
0.0
111
1.0
121
0.0
131
0.0
112
0.0
122
1.0
132
0.0
345
0
346
0
 79
     0
146
0.0
  0
ENDTAB
  0
TABLE
  2
LTYPE
  5
4
100
AcDbSymbolTable
 70
     3
  0
LTYPE
  5
11
100
AcDbSymbolTableRecord
100
AcDbLinetypeTableRecord
  2
ByBlock
 70
    64
  3

 72
    65
 73
     0
 40
0.0
  0
LTYPE
  5
12
100
AcDbSymbolTableRecord
100
AcDbLinetypeTableRecord
  2
ByLayer
 70
    64
  3

 72
    65
 73
     0
 40
0.0
  0
LTYPE
  5
13
100
AcDbSymbolTableRecord
100
AcDbLinetypeTableRecord
  2
Continuous
 70
    64
  3
Solid line
 72
    65
 73
     0
 40
0.0
  0
ENDTAB
  0
TABLE
  2
LAYER
  5
2
100
AcDbSymbolTable
 70
     2
  0
LAYER
  5
14
100
AcDbSymbolTableRecord
100
AcDbLayerTableRecord
  2
0
 70
     0
 62
     7
  6
Continuous
290
     1
370
    -3
390
1D
  0
LAYER
  5
24
100
AcDbSymbolTableRecord
100
AcDbLayerTableRecord
  2
Ebene 1
 70
     0
 62
     7
  6
Continuous
290
     1
370
    -3
390
1F
  0
ENDTAB
  0
TABLE
  2
STYLE
  5
3
100
AcDbSymbolTable
 70
     1
  0
STYLE
  5
17
100
AcDbSymbolTableRecord
100
AcDbTextStyleTableRecord
  2
Standard
 70
     0
 40
0.0
 41
1.0
 50
0.0
 71
     0
 42
0.0
  3
txt
  4

  0
ENDTAB
  0
TABLE
  2
VIEW
  5
5
100
AcDbSymbolTable
 70
     0
  0
ENDTAB
  0
TABLE
  2
UCS
  5
6
100
AcDbSymbolTable
 70
     0
  0
ENDTAB
  0
TABLE
  2
APPID
  5
8
100
AcDbSymbolTable
 70
     1
  0
APPID
  5
16
100
AcDbSymbolTableRecord
100
AcDbRegAppTableRecord
  2
ACAD
 70
     0
  0
ENDTAB
  0
TABLE
  2
DIMSTYLE
  5
9
100
AcDbSymbolTable
 70
     1
100
AcDbDimStyleTable
 71
     0
  0
DIMSTYLE
105
18
100
AcDbSymbolTableRecord
100
AcDbDimStyleTableRecord
  2
Standard
 70
     0
  3

  4

 40
1.0
 41
0.18
 42
0.0625
 43
0.38
 44
0.18
 45
0.0
 46
0.0
 47
0.0
 48
0.0
 71
     0
 72
     0
 73
     1
 74
     1
 75
     0
 76
     0
 77
     0
 78
     0
 79
     0
140
0.18
141
0.09
142
0.0
143
25.4
144
1.0
145
0.0
146
1.0
147
0.09
148
0.0
170
     0
171
     2
172
     0
173
     0
174
     0
175
     0
176
     0
177
     0
178
     0
179
     0
271
     4
272
     4
273
     2
274
     2
275
     0
276
     0
277
     2
278
    46
279
     0
280
     0
281
     0
282
     0
283
     1
284
     0
285
     0
286
     0
288
     0
340
17
341
0
342
0
343
0
344
0
371
    -2
372
    -2
  0
ENDTAB
  0
TABLE
  2
BLOCK_RECORD
  5
1
100
AcDbSymbolTable
 70
     0
  0
BLOCK_RECORD
  5
A
100
AcDbSymbolTableRecord
100
AcDbBlockTableRecord
  2
*MODEL_SPACE
340
20
  0
BLOCK_RECORD
  5
B
100
AcDbSymbolTableRecord
100
AcDbBlockTableRecord
  2
*PAPER_SPACE
340
21
  0
ENDTAB
  0
ENDSEC
  0
SECTION
  2
BLOCKS
  0
BLOCK
  5
D
100
AcDbEntity
  8
0
100
AcDbBlockBegin
  2
*MODEL_SPACE
 70
     0
 10
0.0
 20
0.0
 30
0.0
  3
*MODEL_SPACE
  1

  0
ENDBLK
  5
E
100
AcDbEntity
  8
0
100
AcDbBlockEnd
  0
BLOCK
  5
F
100
AcDbEntity
 67
     1
  8
0
100
AcDbBlockBegin
  2
*PAPER_SPACE
 70
     0
 10
0.0
 20
0.0
 30
0.0
  3
*PAPER_SPACE
  1

  0
ENDBLK
  5
10
100
AcDbEntity
 67
     1
  8
0
100
AcDbBlockEnd
  0
ENDSEC
  0
SECTION
  2
ENTITIES
  0
SPLINE
  5
25
100
AcDbEntity
  8
Ebene 1
100
AcDbSpline
210
0.0
220
0.0
230
1.0
 70
     1
 71
     3
 72
    60
 73
    56
 74
     0
 42
0.0000000001
 43
0.0000000001
 40
0.0
 40
0.0
 40
0.0
 40
0.0
 40
0.0714285714285714
 40
0.0714285714285714
 40
0.0714285714285714
 40
0.0714285714285714
 40
0.1428571428571429
 40
0.1428571428571429
 40
0.1428571428571429
 40
0.1428571428571429
 40
0.2142857142857143
 40
0.2142857142857143
 40
0.2142857142857143
 40
0.2142857142857143
 40
0.2857142857142857
 40
0.2857142857142857
 40
0.2857142857142857
 40
0.2857142857142857
 40
0.3571428571428571
 40
0.3571428571428571
 40
0.3571428571428571
 40
0.3571428571428571
 40
0.4285714285714285
 40
0.4285714285714285
 40
0.4285714285714285
 40
0.4285714285714285
 40
0.4999999999999999
 40
0.4999999999999999
 40
0.4999999999999999
 40
0.4999999999999999
 40
0.5714285714285713
 40
0.5714285714285713
 40
0.5714285714285713
 40
0.5714285714285713
 40
0.6428571428571427
 40
0.6428571428571427
 40
0.6428571428571427
 40
0.6428571428571427
 40
0.7142857142857141
 40
0.7142857142857141
 40
0.7142857142857141
 40
0.7142857142857141
 40
0.7857142857142855
 40
0.7857142857142855
 40
0.7857142857142855
 40
0.7857142857142855
 40
0.8571428571428569
 40
0.8571428571428569
 40
0.8571428571428569
 40
0.8571428571428569
 40
0.9285714285714283
 40
0.9285714285714283
 40
0.9285714285714283
 40
0.9285714285714283
 40
1.0
 40
1.0
 40
1.0
 40
1.0
 10
4.2241600000000004
 20
5.2953300000000008
 30
0.0
 10
4.8591600000000001
 20
5.31311
 30
0.0
 10
5.3747800000000003
 20
4.8584500000000004
 30
0.0
 10
5.9666000000000006
 20
4.7365300000000001
 30
0.0
 10
5.9666000000000006
 20
4.7365300000000001
 30
0.0
 10
3.9676200000000001
 20
4.3529900000000001
 30
0.0
 10
2.0296000000000003
 20
3.1871300000000002
 30
0.0
 10
0.8866000000000001
 20
1.2694300000000001
 30
0.0
 10
0.8866000000000001
 20
1.2694300000000001
 30
0.0
 10
0.6859400000000001
 20
1.0763900000000002
 30
0.0
 10
0.51068
 20
0.85033
 30
0.0
 10
0.24652
 20
0.7614300000000001
 30
0.0
 10
0.24652
 20
0.7614300000000001
 30
0.0
 10
0.13984
 20
1.0941700000000001
 30
0.0
 10
0.66054
 20
1.3380100000000001
 30
0.0
 10
0.4421000000000001
 20
1.6504300000000001
 30
0.0
 10
0.4421000000000001
 20
1.6504300000000001
 30
0.0
 10
0.08396
 20
1.6174100000000002
 30
0.0
 10
-0.24115
 20
1.4243700000000001
 30
0.0
 10
-0.44689
 20
1.11195
 30
0.0
 10
-0.44689
 20
1.11195
 30
0.0
 10
-1.12253
 20
-0.9784600000000001
 30
0.0
 10
-0.3021100000000001
 20
-3.1933400000000001
 30
0.0
 10
0.37352
 20
-5.1262800000000004
 30
0.0
 10
0.37352
 20
-5.1262800000000004
 30
0.0
 10
0.3887600000000001
 20
-5.2151800000000001
 30
0.0
 10
0.31256
 20
-5.28376
 30
0.0
 10
0.24144
 20
-5.3015400000000001
 30
0.0
 10
0.24144
 20
-5.3015400000000001
 30
0.0
 10
-1.3663700000000001
 20
-4.8824400000000008
 30
0.0
 10
-1.9835900000000002
 20
-2.8961600000000001
 30
0.0
 10
-3.2027900000000002
 20
-1.8674600000000001
 30
0.0
 10
-3.2027900000000002
 20
-1.8674600000000001
 30
0.0
 10
-3.2967700000000004
 20
-1.2756400000000001
 30
0.0
 10
-3.3602700000000003
 20
-0.6635000000000001
 30
0.0
 10
-3.7260300000000002
 20
-0.17582
 30
0.0
 10
-3.7260300000000002
 20
-0.17582
 30
0.0
 10
-3.8454100000000002
 20
-0.07168
 30
0.0
 10
-4.01051
 20
-0.08946
 30
0.0
 10
-4.1527500000000002
 20
-0.03612
 30
0.0
 10
-4.1527500000000002
 20
-0.03612
 30
0.0
 10
-5.2576500000000008
 20
-0.22916
 30
0.0
 10
-6.2304700000000004
 20
0.9900300000000001
 30
0.0
 10
-5.8951900000000004
 20
2.1050900000000001
 30
0.0
 10
-5.8951900000000004
 20
2.1050900000000001
 30
0.0
 10
-5.7885100000000005
 20
2.5064100000000002
 30
0.0
 10
-5.4862500000000001
 20
2.8543900000000004
 30
0.0
 10
-5.1535100000000007
 20
3.09823
 30
0.0
 10
-5.1535100000000007
 20
3.09823
 30
0.0
 10
-4.6328100000000001
 20
5.2597700000000005
 30
0.0
 10
-1.7651500000000002
 20
4.54603
 30
0.0
 10
-0.15479
 20
4.5638100000000001
 30
0.0
 10
-0.15479
 20
4.5638100000000001
 30
0.0
 10
1.1634600000000002
 20
5.31311
 30
0.0
 10
2.8424
 20
4.7365300000000001
 30
0.0
 10
4.2241600000000004
 20
5.2953300000000008
 30
0.0
  0
SPLINE
  5
26
100
AcDbEntity
  8
Ebene 1
100
AcDbSpline
210
0.0
220
0.0
230
1.0
 70
     1
 71
     3
 72
    24
 73
    20
 74
     0
 42
0.0000000001
 43
0.0000000001
 40
0.0
 40
0.0
 40
0.0
 40
0.0
 40
0.2
 40
0.2
 40
0.2
 40
0.2
 40
0.4
 40
0.4
 40
0.4
 40
0.4
 40
0.6000000000000001
 40
0.6000000000000001
 40
0.6000000000000001
 40
0.6000000000000001
 40
0.8
 40
0.8
 40
0.8
 40
0.8
 40
1.0
 40
1.0
 40
1.0
 40
1.0
 10
-1.0183900000000001
 20
1.11195
 30
0.0
 10
-1.0183900000000001
 20
1.11195
 30
0.0
 10
-1.4095500000000001
 20
0.8147700000000001
 30
0.0
 10
-1.4095500000000001
 20
0.8147700000000001
 30
0.0
 10
-1.4095500000000001
 20
0.8147700000000001
 30
0.0
 10
-1.3943100000000002
 20
0.5887100000000001
 30
0.0
 10
-1.50099
 20
0.20517
 30
0.0
 10
-1.2317500000000001
 20
0.09849
 30
0.0
 10
-1.2317500000000001
 20
0.09849
 30
0.0
 10
-1.2317500000000001
 20
0.09849
 30
0.0
 10
-1.1530100000000001
 20
0.13405
 30
0.0
 10
-1.1530100000000001
 20
0.13405
 30
0.0
 10
-1.1530100000000001
 20
0.13405
 30
0.0
 10
-1.1530100000000001
 20
0.13405
 30
0.0
 10
-0.9879100000000001
 20
1.11195
 30
0.0
 10
-0.9879100000000001
 20
1.11195
 30
0.0
 10
-0.9879100000000001
 20
1.11195
 30
0.0
 10
-0.9879100000000001
 20
1.11195
 30
0.0
 10
-1.0183900000000001
 20
1.11195
 30
0.0
 10
-1.0183900000000001
 20
1.11195
 30
0.0
  0
SPLINE
  5
27
100
AcDbEntity
  8
Ebene 1
 62
     7
100
AcDbSpline
210
0.0
220
0.0
230
1.0
 70
     1
 71
     3
 72
   148
 73
   144
 74
     0
 42
0.0000000001
 43
0.0000000001
 40
0.0
 40
0.0
 40
0.0
 40
0.0
 40
0.0277777777777778
 40
0.0277777777777778
 40
0.0277777777777778
 40
0.0277777777777778
 40
0.0555555555555556
 40
0.0555555555555556
 40
0.0555555555555556
 40
0.0555555555555556
 40
0.0833333333333333
 40
0.0833333333333333
 40
0.0833333333333333
 40
0.0833333333333333
 40
0.1111111111111111
 40
0.1111111111111111
 40
0.1111111111111111
 40
0.1111111111111111
 40
0.1388888888888889
 40
0.1388888888888889
 40
0.1388888888888889
 40
0.1388888888888889
 40
0.1666666666666667
 40
0.1666666666666667
 40
0.1666666666666667
 40
0.1666666666666667
 40
0.1944444444444445
 40
0.1944444444444445
 40
0.1944444444444445
 40
0.1944444444444445
 40
0.2222222222222223
 40
0.2222222222222223
 40
0.2222222222222223
 40
0.2222222222222223
 40
0.2500000000000001
 40
0.2500000000000001
 40
0.2500000000000001
 40
0.2500000000000001
 40
0.2777777777777779
 40
0.2777777777777779
 40
0.2777777777777779
 40
0.2777777777777779
 40
0.3055555555555556
 40
0.3055555555555556
 40
0.3055555555555556
 40
0.3055555555555556
 40
0.3333333333333334
 40
0.3333333333333334
 40
0.3333333333333334
 40
0.3333333333333334
 40
0.3611111111111112
 40
0.3611111111111112
 40
0.3611111111111112
 40
0.3611111111111112
 40
0.388888888888889
 40
0.388888888888889
 40
0.388888888888889
 40
0.388888888888889
 40
0.4166666666666668
 40
0.4166666666666668
 40
0.4166666666666668
 40
0.4166666666666668
 40
0.4444444444444446
 40
0.4444444444444446
 40
0.4444444444444446
 40
0.4444444444444446
 40
0.4722222222222224
 40
0.4722222222222224
 40
0.4722222222222224
 40
0.4722222222222224
 40
0.5000000000000001
 40
0.5000000000000001
 40
0.5000000000000001
 40
0.5000000000000001
 40
0.5277777777777779
 40
0.5277777777777779
 40
0.5277777777777779
 40
0.5277777777777779
 40
0.5555555555555557
 40
0.5555555555555557
 40
0.5555555555555557
 40
0.5555555555555557
 40
0.5833333333333335
 40
0.5833333333333335
 40
0.5833333333333335
 40
0.5833333333333335
 40
0.6111111111111113
 40
0.6111111111111113
 40
0.6111111111111113
 40
0.6111111111111113
 40
0.6388888888888891
 40
0.6388888888888891
 40
0.6388888888888891
 40
0.6388888888888891
 40
0.6666666666666669
 40
0.6666666666666669
 40
0.6666666666666669
 40
0.6666666666666669
 40
0.6944444444444446
 40
0.6944444444444446
 40
0.6944444444444446
 40
0.6944444444444446
 40
0.7222222222222224
 40
0.7222222222222224
 40
0.7222222222222224
 40
0.7222222222222224
 40
0.7500000000000002
 40
0.7500000000000002
 40
0.7500000000000002
 40
0.7500000000000002
 40
0.777777777777778
 40
0.777777777777778
 40
0.777777777777778
 40
0.777777777777778
 40
0.8055555555555558
 40
0.8055555555555558
 40
0.8055555555555558
 40
0.8055555555555558
 40
0.8333333333333336
 40
0.8333333333333336
 40
0.8333333333333336
 40
0.8333333333333336
 40
0.8611111111111114
 40
0.8611111111111114
 40
0.8611111111111114
 40
0.8611111111111114
 40
0.8888888888888892
 40
0.8888888888888892
 40
0.8888888888888892
 40
0.8888888888888892
 40
0.916666666666667
 40
0.916666666666667
 40
0.916666666666667
 40
0.916666666666667
 40
0.9444444444444448
 40
0.9444444444444448
 40
0.9444444444444448
 40
0.9444444444444448
 40
0.9722222222222225
 40
0.9722222222222225
 40
0.9722222222222225
 40
0.9722222222222225
 40
1.0
 40
1.0
 40
1.0
 40
1.0
 10
3.2564200000000003
 20
4.9117900000000008
 30
0.0
 10
3.2030800000000004
 20
4.8940100000000006
 30
0.0
 10
3.0684600000000004
 20
4.8076500000000006
 30
0.0
 10
3.0354400000000004
 20
4.7543100000000003
 30
0.0
 10
3.0354400000000004
 20
4.7543100000000003
 30
0.0
 10
3.0913200000000001
 20
4.7543100000000003
 30
0.0
 10
3.1599000000000004
 20
4.7720900000000004
 30
0.0
 10
3.1954600000000002
 20
4.8228900000000001
 30
0.0
 10
3.1954600000000002
 20
4.8228900000000001
 30
0.0
 10
3.8253800000000004
 20
5.10229
 30
0.0
 10
4.6483400000000001
 20
5.3816900000000008
 30
0.0
 10
5.2046000000000001
 20
4.7898700000000005
 30
0.0
 10
5.2046000000000001
 20
4.7898700000000005
 30
0.0
 10
5.0649000000000006
 20
4.6857300000000004
 30
0.0
 10
4.76518
 20
4.6679500000000003
 30
0.0
 10
4.7067600000000001
 20
4.5282500000000008
 30
0.0
 10
4.7067600000000001
 20
4.5282500000000008
 30
0.0
 10
4.7982000000000005
 20
4.5638100000000001
 30
0.0
 10
4.8617000000000008
 20
4.5892100000000005
 30
0.0
 10
4.9404400000000006
 20
4.5892100000000005
 30
0.0
 10
4.9404400000000006
 20
4.5892100000000005
 30
0.0
 10
4.9404400000000006
 20
4.5892100000000005
 30
0.0
 10
5.0344200000000008
 20
4.6273100000000005
 30
0.0
 10
5.0344200000000008
 20
4.6273100000000005
 30
0.0
 10
5.0344200000000008
 20
4.6273100000000005
 30
0.0
 10
5.22492
 20
4.6958900000000003
 30
0.0
 10
5.5805200000000008
 20
4.7619300000000004
 30
0.0
 10
5.5983000000000001
 20
4.7035100000000005
 30
0.0
 10
5.5983000000000001
 20
4.7035100000000005
 30
0.0
 10
4.0514400000000004
 20
4.3707700000000003
 30
0.0
 10
2.6087200000000004
 20
3.5681300000000005
 30
0.0
 10
1.0771000000000002
 20
3.1693500000000001
 30
0.0
 10
1.0771000000000002
 20
3.1693500000000001
 30
0.0
 10
1.02122
 20
3.0296500000000002
 30
0.0
 10
1.2523600000000001
 20
3.1515700000000004
 30
0.0
 10
1.3006200000000001
 20
3.09823
 30
0.0
 10
1.3006200000000001
 20
3.09823
 30
0.0
 10
0.0484
 20
2.0339700000000001
 30
0.0
 10
-1.2698500000000001
 20
0.7969900000000001
 30
0.0
 10
-2.6871700000000001
 20
0.11627
 30
0.0
 10
-2.6871700000000001
 20
0.11627
 30
0.0
 10
-2.5423900000000001
 20
0.5709300000000001
 30
0.0
 10
-1.9200900000000001
 20
0.5887100000000001
 30
0.0
 10
-1.7092700000000001
 20
1.0586100000000001
 30
0.0
 10
-1.7092700000000001
 20
1.0586100000000001
 30
0.0
 10
-1.6203700000000001
 20
1.14751
 30
0.0
 10
-1.7473700000000001
 20
1.23387
 30
0.0
 10
-1.8134100000000002
 20
1.2694300000000001
 30
0.0
 10
-1.8134100000000002
 20
1.2694300000000001
 30
0.0
 10
-2.4357100000000003
 20
1.23387
 30
0.0
 10
-2.9360900000000001
 20
0.6750700000000001
 30
0.0
 10
-3.5660100000000003
 20
0.7792100000000001
 30
0.0
 10
-3.5660100000000003
 20
0.7792100000000001
 30
0.0
 10
-3.5329900000000003
 20
1.1627500000000002
 30
0.0
 10
-3.2434300000000005
 20
1.2973700000000001
 30
0.0
 10
-3.2104100000000004
 20
1.5437500000000002
 30
0.0
 10
-3.2104100000000004
 20
1.5437500000000002
 30
0.0
 10
-3.1494500000000003
 20
1.8561700000000001
 30
0.0
 10
-3.4644100000000004
 20
1.5462900000000002
 30
0.0
 10
-3.6218900000000005
 20
1.5462900000000002
 30
0.0
 10
-3.6218900000000005
 20
1.5462900000000002
 30
0.0
 10
-3.6218900000000005
 20
1.5462900000000002
 30
0.0
 10
-4.23149
 20
1.4929500000000002
 30
0.0
 10
-4.23149
 20
1.4929500000000002
 30
0.0
 10
-4.23149
 20
1.4929500000000002
 30
0.0
 10
-4.1171899999999999
 20
1.5564500000000001
 30
0.0
 10
-3.9190700000000005
 20
1.6732900000000002
 30
0.0
 10
-4.02067
 20
1.8079100000000001
 30
0.0
 10
-4.02067
 20
1.8079100000000001
 30
0.0
 10
-4.3737300000000001
 20
1.0941700000000001
 30
0.0
 10
-5.2246300000000003
 20
1.5462900000000002
 30
0.0
 10
-4.8385500000000006
 20
2.2270100000000004
 30
0.0
 10
-4.8385500000000006
 20
2.2270100000000004
 30
0.0
 10
-4.64297
 20
2.4200500000000003
 30
0.0
 10
-4.3534100000000002
 20
2.4022700000000001
 30
0.0
 10
-4.1375100000000007
 20
2.4886300000000001
 30
0.0
 10
-4.1375100000000007
 20
2.4886300000000001
 30
0.0
 10
-4.1375100000000007
 20
2.4886300000000001
 30
0.0
 10
-4.4854900000000004
 20
2.5241900000000004
 30
0.0
 10
-4.4854900000000004
 20
2.5241900000000004
 30
0.0
 10
-4.4854900000000004
 20
2.5241900000000004
 30
0.0
 10
-5.0138100000000003
 20
2.2092300000000002
 30
0.0
 10
-5.1763700000000004
 20
2.9407500000000004
 30
0.0
 10
-4.9452300000000005
 20
3.3420700000000001
 30
0.0
 10
-4.9452300000000005
 20
3.3420700000000001
 30
0.0
 10
-4.8766500000000006
 20
3.1693500000000001
 30
0.0
 10
-4.6937700000000007
 20
3.0804500000000004
 30
0.0
 10
-4.6175700000000006
 20
2.9407500000000004
 30
0.0
 10
-4.6175700000000006
 20
2.9407500000000004
 30
0.0
 10
-4.6124900000000002
 20
2.7324700000000002
 30
0.0
 10
-4.4753300000000005
 20
2.6638900000000003
 30
0.0
 10
-4.5007300000000008
 20
2.9051900000000002
 30
0.0
 10
-4.5007300000000008
 20
2.9051900000000002
 30
0.0
 10
-4.5312100000000006
 20
2.9940900000000004
 30
0.0
 10
-4.52867
 20
3.0804500000000004
 30
0.0
 10
-4.5058100000000003
 20
3.1693500000000001
 30
0.0
 10
-4.5058100000000003
 20
3.1693500000000001
 30
0.0
 10
-4.6175700000000006
 20
3.2023700000000002
 30
0.0
 10
-4.7140900000000006
 20
3.2912700000000004
 30
0.0
 10
-4.7445700000000004
 20
3.4131900000000002
 30
0.0
 10
-4.7445700000000004
 20
3.4131900000000002
 30
0.0
 10
-4.7445700000000004
 20
3.4131900000000002
 30
0.0
 10
-4.6963100000000004
 20
3.9008700000000003
 30
0.0
 10
-4.6963100000000004
 20
3.9008700000000003
 30
0.0
 10
-4.6963100000000004
 20
3.9008700000000003
 30
0.0
 10
-3.8911300000000004
 20
4.5282500000000008
 30
0.0
 10
-2.7709900000000003
 20
4.6146100000000008
 30
0.0
 10
-1.7905500000000001
 20
4.5104700000000006
 30
0.0
 10
-1.7905500000000001
 20
4.5104700000000006
 30
0.0
 10
-1.4781300000000002
 20
4.45967
 30
0.0
 10
-1.1428500000000001
 20
4.1955100000000005
 30
0.0
 10
-0.8202700000000001
 20
4.3529900000000001
 30
0.0
 10
-0.8202700000000001
 20
4.3529900000000001
 30
0.0
 10
-1.5619500000000002
 20
4.4749100000000004
 30
0.0
 10
-0.65263
 20
4.5815900000000003
 30
0.0
 10
-0.35799
 20
4.4418900000000008
 30
0.0
 10
-0.35799
 20
4.4418900000000008
 30
0.0
 10
-0.46467
 20
4.2844100000000003
 30
0.0
 10
-0.6475500000000001
 20
4.1091500000000005
 30
0.0
 10
-0.5637300000000001
 20
3.8830900000000002
 30
0.0
 10
-0.5637300000000001
 20
3.8830900000000002
 30
0.0
 10
-0.47483
 20
3.7611700000000003
 30
0.0
 10
-0.31735
 20
3.7967300000000002
 30
0.0
 10
-0.18781
 20
3.7967300000000002
 30
0.0
 10
-0.18781
 20
3.7967300000000002
 30
0.0
 10
0.00522
 20
3.9542100000000002
 30
0.0
 10
-0.5637300000000001
 20
3.8145100000000003
 30
0.0
 10
-0.4697500000000001
 20
4.0913700000000004
 30
0.0
 10
-0.4697500000000001
 20
4.0913700000000004
 30
0.0
 10
0.09158
 20
4.8940100000000006
 30
0.0
 10
1.09996
 20
4.8762300000000005
 30
0.0
 10
1.9483200000000001
 20
4.7543100000000003
 30
0.0
 10
1.9483200000000001
 20
4.7543100000000003
 30
0.0
 10
1.9534000000000002
 20
4.7035100000000005
 30
0.0
 10
1.7984600000000002
 20
4.6857300000000004
 30
0.0
 10
1.8518000000000001
 20
4.6146100000000008
 30
0.0
 10
1.8518000000000001
 20
4.6146100000000008
 30
0.0
 10
2.41568
 20
4.8584500000000004
 30
0.0
 10
3.0329000000000002
 20
4.9448100000000004
 30
0.0
 10
3.6247200000000004
 20
5.0870500000000005
 30
0.0
 10
3.6247200000000004
 20
5.0870500000000005
 30
0.0
 10
3.6247200000000004
 20
5.0870500000000005
 30
0.0
 10
3.2564200000000003
 20
4.9117900000000008
 30
0.0
 10
3.2564200000000003
 20
4.9117900000000008
 30
0.0
  0
SPLINE
  5
28
100
AcDbEntity
  8
Ebene 1
100
AcDbSpline
210
0.0
220
0.0
230
1.0
 70
     1
 71
     3
 72
    40
 73
    36
 74
     0
 42
0.0000000001
 43
0.0000000001
 40
0.0
 40
0.0
 40
0.0
 40
0.0
 40
0.1111111111111111
 40
0.1111111111111111
 40
0.1111111111111111
 40
0.1111111111111111
 40
0.2222222222222222
 40
0.2222222222222222
 40
0.2222222222222222
 40
0.2222222222222222
 40
0.3333333333333333
 40
0.3333333333333333
 40
0.3333333333333333
 40
0.3333333333333333
 40
0.4444444444444444
 40
0.4444444444444444
 40
0.4444444444444444
 40
0.4444444444444444
 40
0.5555555555555556
 40
0.5555555555555556
 40
0.5555555555555556
 40
0.5555555555555556
 40
0.6666666666666667
 40
0.6666666666666667
 40
0.6666666666666667
 40
0.6666666666666667
 40
0.7777777777777779
 40
0.7777777777777779
 40
0.7777777777777779
 40
0.7777777777777779
 40
0.8888888888888891
 40
0.8888888888888891
 40
0.8888888888888891
 40
0.8888888888888891
 40
1.0
 40
1.0
 40
1.0
 40
1.0
 10
0.80532
 20
4.4418900000000008
 30
0.0
 10
1.0136000000000001
 20
4.45967
 30
0.0
 10
1.2041000000000002
 20
4.4063300000000005
 30
0.0
 10
1.3920600000000001
 20
4.33521
 30
0.0
 10
1.3920600000000001
 20
4.33521
 30
0.0
 10
1.5419200000000002
 20
4.3021900000000004
 30
0.0
 10
1.6994000000000002
 20
4.3174300000000008
 30
0.0
 10
1.8518000000000001
 20
4.33521
 30
0.0
 10
1.8518000000000001
 20
4.33521
 30
0.0
 10
1.8949800000000001
 20
4.3529900000000001
 30
0.0
 10
1.9889600000000001
 20
4.3707700000000003
 30
0.0
 10
2.0143600000000004
 20
4.3174300000000008
 30
0.0
 10
2.0143600000000004
 20
4.3174300000000008
 30
0.0
 10
2.0143600000000004
 20
4.3174300000000008
 30
0.0
 10
1.7349600000000001
 20
4.2310700000000008
 30
0.0
 10
1.7349600000000001
 20
4.2310700000000008
 30
0.0
 10
1.7349600000000001
 20
4.2310700000000008
 30
0.0
 10
1.19648
 20
4.3174300000000008
 30
0.0
 10
0.80786
 20
3.8830900000000002
 30
0.0
 10
0.29224
 20
3.8653100000000005
 30
0.0
 10
0.29224
 20
3.8653100000000005
 30
0.0
 10
0.22874
 20
3.8830900000000002
 30
0.0
 10
0.19064
 20
3.9364300000000005
 30
0.0
 10
0.14238
 20
3.9694500000000001
 30
0.0
 10
0.14238
 20
3.9694500000000001
 30
0.0
 10
0.14238
 20
3.9694500000000001
 30
0.0
 10
0.03062
 20
3.9186500000000004
 30
0.0
 10
0.03062
 20
3.9186500000000004
 30
0.0
 10
0.03062
 20
3.9186500000000004
 30
0.0
 10
0.1119
 20
4.0405700000000007
 30
0.0
 10
0.23128
 20
4.1091500000000005
 30
0.0
 10
0.33796
 20
4.1955100000000005
 30
0.0
 10
0.33796
 20
4.1955100000000005
 30
0.0
 10
0.47004
 20
4.33521
 30
0.0
 10
0.6529200000000001
 20
4.3885500000000004
 30
0.0
 10
0.80532
 20
4.4418900000000008
 30
0.0
  0
SPLINE
  5
29
100
AcDbEntity
  8
Ebene 1
100
AcDbSpline
210
0.0
220
0.0
230
1.0
 70
     1
 71
     3
 72
    68
 73
    64
 74
     0
 42
0.0000000001
 43
0.0000000001
 40
0.0
 40
0.0
 40
0.0
 40
0.0
 40
0.0625
 40
0.0625
 40
0.0625
 40
0.0625
 40
0.125
 40
0.125
 40
0.125
 40
0.125
 40
0.1875
 40
0.1875
 40
0.1875
 40
0.1875
 40
0.25
 40
0.25
 40
0.25
 40
0.25
 40
0.3125
 40
0.3125
 40
0.3125
 40
0.3125
 40
0.375
 40
0.375
 40
0.375
 40
0.375
 40
0.4375
 40
0.4375
 40
0.4375
 40
0.4375
 40
0.5
 40
0.5
 40
0.5
 40
0.5
 40
0.5625
 40
0.5625
 40
0.5625
 40
0.5625
 40
0.625
 40
0.625
 40
0.625
 40
0.625
 40
0.6875
 40
0.6875
 40
0.6875
 40
0.6875
 40
0.75
 40
0.75
 40
0.75
 40
0.75
 40
0.8125
 40
0.8125
 40
0.8125
 40
0.8125
 40
0.875
 40
0.875
 40
0.875
 40
0.875
 40
0.9375
 40
0.9375
 40
0.9375
 40
0.9375
 40
1.0
 40
1.0
 40
1.0
 40
1.0
 10
-3.0757900000000005
 20
3.7078300000000004
 30
0.0
 10
-3.0224500000000001
 20
3.6900500000000003
 30
0.0
 10
-3.0630900000000003
 20
3.7611700000000003
 30
0.0
 10
-3.0757900000000005
 20
3.7078300000000004
 30
0.0
 10
-3.0757900000000005
 20
3.7078300000000004
 30
0.0
 10
-3.5355300000000005
 20
3.5325700000000002
 30
0.0
 10
-4.1679900000000005
 20
3.1515700000000004
 30
0.0
 10
-4.2365700000000004
 20
2.6791300000000002
 30
0.0
 10
-4.2365700000000004
 20
2.6791300000000002
 30
0.0
 10
-4.5159700000000003
 20
2.6791300000000002
 30
0.0
 10
-4.3127700000000004
 20
3.0626700000000002
 30
0.0
 10
-4.3127700000000004
 20
3.2023700000000002
 30
0.0
 10
-4.3127700000000004
 20
3.2023700000000002
 30
0.0
 10
-4.0232100000000006
 20
3.1871300000000002
 30
0.0
 10
-3.7996900000000005
 20
3.4639900000000003
 30
0.0
 10
-3.5507700000000004
 20
3.6036900000000003
 30
0.0
 10
-3.5507700000000004
 20
3.6036900000000003
 30
0.0
 10
-3.0834100000000002
 20
3.9008700000000003
 30
0.0
 10
-2.4763500000000001
 20
3.9694500000000001
 30
0.0
 10
-1.9912100000000001
 20
3.6748100000000004
 30
0.0
 10
-1.9912100000000001
 20
3.6748100000000004
 30
0.0
 10
-1.7702300000000002
 20
3.5325700000000002
 30
0.0
 10
-1.50099
 20
3.4995500000000002
 30
0.0
 10
-1.24953
 20
3.5681300000000005
 30
0.0
 10
-1.24953
 20
3.5681300000000005
 30
0.0
 10
-1.07681
 20
3.5859100000000002
 30
0.0
 10
-0.86853
 20
3.6392500000000001
 30
0.0
 10
-0.70089
 20
3.5859100000000002
 30
0.0
 10
-0.70089
 20
3.5859100000000002
 30
0.0
 10
-1.4806700000000002
 20
3.3598500000000002
 30
0.0
 10
-2.4661900000000001
 20
3.5173300000000003
 30
0.0
 10
-2.9132300000000004
 20
2.5749900000000001
 30
0.0
 10
-2.9132300000000004
 20
2.5749900000000001
 30
0.0
 10
-2.9132300000000004
 20
2.5749900000000001
 30
0.0
 10
-3.2408900000000003
 20
2.3133700000000004
 30
0.0
 10
-3.2408900000000003
 20
2.3133700000000004
 30
0.0
 10
-3.2408900000000003
 20
2.3133700000000004
 30
0.0
 10
-3.1875500000000003
 20
2.2778100000000001
 30
0.0
 10
-2.7684500000000001
 20
2.3311500000000001
 30
0.0
 10
-2.90307
 20
2.2625700000000002
 30
0.0
 10
-2.90307
 20
2.2625700000000002
 30
0.0
 10
-2.90307
 20
2.2625700000000002
 30
0.0
 10
-3.7666700000000004
 20
2.1050900000000001
 30
0.0
 10
-3.7666700000000004
 20
2.1050900000000001
 30
0.0
 10
-3.7666700000000004
 20
2.1050900000000001
 30
0.0
 10
-3.7666700000000004
 20
2.1050900000000001
 30
0.0
 10
-3.3526500000000001
 20
2.4200500000000003
 30
0.0
 10
-3.3526500000000001
 20
2.4200500000000003
 30
0.0
 10
-3.3526500000000001
 20
2.4200500000000003
 30
0.0
 10
-3.1900900000000001
 20
2.5597500000000002
 30
0.0
 10
-2.9691100000000001
 20
2.6969100000000004
 30
0.0
 10
-2.8954500000000003
 20
2.9229700000000003
 30
0.0
 10
-2.8954500000000003
 20
2.9229700000000003
 30
0.0
 10
-3.1494500000000003
 20
2.80105
 30
0.0
 10
-3.4237700000000002
 20
2.80105
 30
0.0
 10
-3.6828500000000002
 20
2.8899500000000002
 30
0.0
 10
-3.6828500000000002
 20
2.8899500000000002
 30
0.0
 10
-3.8301700000000003
 20
2.9051900000000002
 30
0.0
 10
-3.8555700000000002
 20
2.6461100000000002
 30
0.0
 10
-3.9978100000000003
 20
2.6969100000000004
 30
0.0
 10
-3.9978100000000003
 20
2.6969100000000004
 30
0.0
 10
-3.8479500000000004
 20
3.1160100000000002
 30
0.0
 10
-3.4288500000000002
 20
3.4639900000000003
 30
0.0
 10
-3.0757900000000005
 20
3.7078300000000004
 30
0.0
  0
SPLINE
  5
2A
100
AcDbEntity
  8
Ebene 1
100
AcDbSpline
210
0.0
220
0.0
230
1.0
 70
     1
 71
     3
 72
    32
 73
    28
 74
     0
 42
0.0000000001
 43
0.0000000001
 40
0.0
 40
0.0
 40
0.0
 40
0.0
 40
0.1428571428571429
 40
0.1428571428571429
 40
0.1428571428571429
 40
0.1428571428571429
 40
0.2857142857142857
 40
0.2857142857142857
 40
0.2857142857142857
 40
0.2857142857142857
 40
0.4285714285714286
 40
0.4285714285714286
 40
0.4285714285714286
 40
0.4285714285714286
 40
0.5714285714285714
 40
0.5714285714285714
 40
0.5714285714285714
 40
0.5714285714285714
 40
0.7142857142857142
 40
0.7142857142857142
 40
0.7142857142857142
 40
0.7142857142857142
 40
0.857142857142857
 40
0.857142857142857
 40
0.857142857142857
 40
0.857142857142857
 40
1.0
 40
1.0
 40
1.0
 40
1.0
 10
-1.1834900000000002
 20
3.3598500000000002
 30
0.0
 10
-1.1326900000000002
 20
3.3598500000000002
 30
0.0
 10
-1.12507
 20
3.2912700000000004
 30
0.0
 10
-1.1530100000000001
 20
3.2557100000000001
 30
0.0
 10
-1.1530100000000001
 20
3.2557100000000001
 30
0.0
 10
-1.4882900000000001
 20
3.0626700000000002
 30
0.0
 10
-1.7778500000000002
 20
2.7680300000000004
 30
0.0
 10
-1.7346700000000002
 20
2.3311500000000001
 30
0.0
 10
-1.7346700000000002
 20
2.3311500000000001
 30
0.0
 10
-1.7346700000000002
 20
2.3311500000000001
 30
0.0
 10
-1.9073900000000001
 20
2.1228700000000003
 30
0.0
 10
-1.9073900000000001
 20
2.1228700000000003
 30
0.0
 10
-1.9073900000000001
 20
2.1228700000000003
 30
0.0
 10
-1.8362700000000001
 20
2.2778100000000001
 30
0.0
 10
-1.71435
 20
2.4200500000000003
 30
0.0
 10
-1.8159500000000002
 20
2.5749900000000001
 30
0.0
 10
-1.8159500000000002
 20
2.5749900000000001
 30
0.0
 10
-1.8692900000000001
 20
2.7324700000000002
 30
0.0
 10
-1.7118100000000001
 20
2.9940900000000004
 30
0.0
 10
-1.9912100000000001
 20
2.8543900000000004
 30
0.0
 10
-1.9912100000000001
 20
2.8543900000000004
 30
0.0
 10
-1.9912100000000001
 20
2.8543900000000004
 30
0.0
 10
-2.5550900000000003
 20
2.6461100000000002
 30
0.0
 10
-2.5550900000000003
 20
2.6461100000000002
 30
0.0
 10
-2.5550900000000003
 20
2.6461100000000002
 30
0.0
 10
-2.2020300000000002
 20
3.01187
 30
0.0
 10
-1.6076700000000002
 20
3.09823
 30
0.0
 10
-1.1834900000000002
 20
3.3598500000000002
 30
0.0
  0
SPLINE
  5
2B
100
AcDbEntity
  8
Ebene 1
100
AcDbSpline
210
0.0
220
0.0
230
1.0
 70
     1
 71
     3
 72
    24
 73
    20
 74
     0
 42
0.0000000001
 43
0.0000000001
 40
0.0
 40
0.0
 40
0.0
 40
0.0
 40
0.2
 40
0.2
 40
0.2
 40
0.2
 40
0.4
 40
0.4
 40
0.4
 40
0.4
 40
0.6000000000000001
 40
0.6000000000000001
 40
0.6000000000000001
 40
0.6000000000000001
 40
0.8
 40
0.8
 40
0.8
 40
0.8
 40
1.0
 40
1.0
 40
1.0
 40
1.0
 10
0.7723000000000001
 20
3.1693500000000001
 30
0.0
 10
0.8002400000000001
 20
3.1693500000000001
 30
0.0
 10
0.85104
 20
3.1871300000000002
 30
0.0
 10
0.8383400000000001
 20
3.1337900000000003
 30
0.0
 10
0.8383400000000001
 20
3.1337900000000003
 30
0.0
 10
0.8383400000000001
 20
3.1337900000000003
 30
0.0
 10
0.04078
 20
2.5749900000000001
 30
0.0
 10
0.04078
 20
2.5749900000000001
 30
0.0
 10
0.04078
 20
2.5749900000000001
 30
0.0
 10
-0.03287
 20
2.6969100000000004
 30
0.0
 10
0.20588
 20
2.7502500000000003
 30
0.0
 10
0.22112
 20
2.8721700000000001
 30
0.0
 10
0.22112
 20
2.8721700000000001
 30
0.0
 10
-0.4595900000000001
 20
2.9051900000000002
 30
0.0
 10
-1.0209300000000001
 20
2.4530700000000003
 30
0.0
 10
-1.5924300000000002
 20
2.1558900000000003
 30
0.0
 10
-1.5924300000000002
 20
2.1558900000000003
 30
0.0
 10
-0.9828300000000001
 20
2.7832700000000004
 30
0.0
 10
-0.07097
 20
3.09823
 30
0.0
 10
0.7723000000000001
 20
3.1693500000000001
 30
0.0
  0
SPLINE
  5
2C
100
AcDbEntity
  8
Ebene 1
 62
     7
100
AcDbSpline
210
0.0
220
0.0
230
1.0
 70
     1
 71
     3
 72
    32
 73
    28
 74
     0
 42
0.0000000001
 43
0.0000000001
 40
0.0
 40
0.0
 40
0.0
 40
0.0
 40
0.1428571428571429
 40
0.1428571428571429
 40
0.1428571428571429
 40
0.1428571428571429
 40
0.2857142857142857
 40
0.2857142857142857
 40
0.2857142857142857
 40
0.2857142857142857
 40
0.4285714285714286
 40
0.4285714285714286
 40
0.4285714285714286
 40
0.4285714285714286
 40
0.5714285714285714
 40
0.5714285714285714
 40
0.5714285714285714
 40
0.5714285714285714
 40
0.7142857142857142
 40
0.7142857142857142
 40
0.7142857142857142
 40
0.7142857142857142
 40
0.857142857142857
 40
0.857142857142857
 40
0.857142857142857
 40
0.857142857142857
 40
1.0
 40
1.0
 40
1.0
 40
1.0
 10
-5.19923
 20
2.5927700000000002
 30
0.0
 10
-5.1230300000000009
 20
2.5064100000000002
 30
0.0
 10
-4.9706300000000008
 20
2.4530700000000003
 30
0.0
 10
-4.95031
 20
2.3311500000000001
 30
0.0
 10
-4.95031
 20
2.3311500000000001
 30
0.0
 10
-5.1408100000000001
 20
2.1228700000000003
 30
0.0
 10
-5.16113
 20
1.8612500000000001
 30
0.0
 10
-5.0620700000000003
 20
1.5996300000000001
 30
0.0
 10
-5.0620700000000003
 20
1.5996300000000001
 30
0.0
 10
-5.0620700000000003
 20
1.5996300000000001
 30
0.0
 10
-4.8461700000000008
 20
1.2516500000000002
 30
0.0
 10
-4.8461700000000008
 20
1.2516500000000002
 30
0.0
 10
-4.8461700000000008
 20
1.2516500000000002
 30
0.0
 10
-4.7953700000000001
 20
1.23387
 30
0.0
 10
-4.7445700000000004
 20
1.2160900000000001
 30
0.0
 10
-4.6836100000000007
 20
1.2160900000000001
 30
0.0
 10
-4.6836100000000007
 20
1.2160900000000001
 30
0.0
 10
-3.9546300000000003
 20
1.3557900000000001
 30
0.0
 10
-4.4499300000000002
 20
0.04769
 30
0.0
 10
-5.0011100000000006
 20
0.3270900000000001
 30
0.0
 10
-5.0011100000000006
 20
0.3270900000000001
 30
0.0
 10
-5.0011100000000006
 20
0.3270900000000001
 30
0.0
 10
-5.2093900000000009
 20
0.3804300000000001
 30
0.0
 10
-5.2093900000000009
 20
0.3804300000000001
 30
0.0
 10
-5.2093900000000009
 20
0.3804300000000001
 30
0.0
 10
-5.9053500000000003
 20
0.8833500000000001
 30
0.0
 10
-5.9612300000000005
 20
2.1228700000000003
 30
0.0
 10
-5.19923
 20
2.5927700000000002
 30
0.0
  0
SPLINE
  5
2D
100
AcDbEntity
  8
Ebene 1
 62
     7
100
AcDbSpline
210
0.0
220
0.0
230
1.0
 70
     1
 71
     3
 72
    12
 73
     8
 74
     0
 42
0.0000000001
 43
0.0000000001
 40
0.0
 40
0.0
 40
0.0
 40
0.0
 40
0.5
 40
0.5
 40
0.5
 40
0.5
 40
1.0
 40
1.0
 40
1.0
 40
1.0
 10
1.8848200000000002
 20
2.7934300000000003
 30
0.0
 10
1.3006200000000001
 20
2.1482700000000001
 30
0.0
 10
0.9247000000000001
 20
1.40659
 30
0.0
 10
0.51068
 20
1.0941700000000001
 30
0.0
 10
0.51068
 20
1.0941700000000001
 30
0.0
 10
0.6503800000000001
 20
1.7113900000000002
 30
0.0
 10
1.27014
 20
2.4530700000000003
 30
0.0
 10
1.8848200000000002
 20
2.7934300000000003
 30
0.0
  0
SPLINE
  5
2E
100
AcDbEntity
  8
Ebene 1
 62
     7
100
AcDbSpline
210
0.0
220
0.0
230
1.0
 70
     1
 71
     3
 72
    96
 73
    92
 74
     0
 42
0.0000000001
 43
0.0000000001
 40
0.0
 40
0.0
 40
0.0
 40
0.0
 40
0.0434782608695652
 40
0.0434782608695652
 40
0.0434782608695652
 40
0.0434782608695652
 40
0.0869565217391304
 40
0.0869565217391304
 40
0.0869565217391304
 40
0.0869565217391304
 40
0.1304347826086957
 40
0.1304347826086957
 40
0.1304347826086957
 40
0.1304347826086957
 40
0.1739130434782609
 40
0.1739130434782609
 40
0.1739130434782609
 40
0.1739130434782609
 40
0.2173913043478261
 40
0.2173913043478261
 40
0.2173913043478261
 40
0.2173913043478261
 40
0.2608695652173913
 40
0.2608695652173913
 40
0.2608695652173913
 40
0.2608695652173913
 40
0.3043478260869565
 40
0.3043478260869565
 40
0.3043478260869565
 40
0.3043478260869565
 40
0.3478260869565217
 40
0.3478260869565217
 40
0.3478260869565217
 40
0.3478260869565217
 40
0.3913043478260869
 40
0.3913043478260869
 40
0.3913043478260869
 40
0.3913043478260869
 40
0.4347826086956521
 40
0.4347826086956521
 40
0.4347826086956521
 40
0.4347826086956521
 40
0.4782608695652173
 40
0.4782608695652173
 40
0.4782608695652173
 40
0.4782608695652173
 40
0.5217391304347825
 40
0.5217391304347825
 40
0.5217391304347825
 40
0.5217391304347825
 40
0.5652173913043477
 40
0.5652173913043477
 40
0.5652173913043477
 40
0.5652173913043477
 40
0.6086956521739129
 40
0.6086956521739129
 40
0.6086956521739129
 40
0.6086956521739129
 40
0.6521739130434781
 40
0.6521739130434781
 40
0.6521739130434781
 40
0.6521739130434781
 40
0.6956521739130432
 40
0.6956521739130432
 40
0.6956521739130432
 40
0.6956521739130432
 40
0.7391304347826084
 40
0.7391304347826084
 40
0.7391304347826084
 40
0.7391304347826084
 40
0.7826086956521736
 40
0.7826086956521736
 40
0.7826086956521736
 40
0.7826086956521736
 40
0.8260869565217388
 40
0.8260869565217388
 40
0.8260869565217388
 40
0.8260869565217388
 40
0.869565217391304
 40
0.869565217391304
 40
0.869565217391304
 40
0.869565217391304
 40
0.9130434782608692
 40
0.9130434782608692
 40
0.9130434782608692
 40
0.9130434782608692
 40
0.9565217391304344
 40
0.9565217391304344
 40
0.9565217391304344
 40
0.9565217391304344
 40
1.0
 40
1.0
 40
1.0
 40
1.0
 10
-3.5075900000000004
 20
1.44215
 30
0.0
 10
-3.4390100000000001
 20
1.4599300000000002
 30
0.0
 10
-3.4212300000000004
 20
1.3888100000000001
 30
0.0
 10
-3.4263100000000004
 20
1.3380100000000001
 30
0.0
 10
-3.4263100000000004
 20
1.3380100000000001
 30
0.0
 10
-4.0689299999999999
 20
0.7106300000000001
 30
0.0
 10
-3.1265900000000002
 20
-0.10724
 30
0.0
 10
-3.0275300000000001
 20
-0.82098
 30
0.0
 10
-3.0275300000000001
 20
-0.82098
 30
0.0
 10
-2.8929100000000001
 20
-1.0292600000000001
 30
0.0
 10
-2.5271500000000002
 20
-0.82098
 30
0.0
 10
-2.6617700000000002
 20
-0.5771400000000001
 30
0.0
 10
-2.6617700000000002
 20
-0.5771400000000001
 30
0.0
 10
-3.0453100000000002
 20
-1.0470400000000002
 30
0.0
 10
-2.9208500000000002
 20
-0.01834
 30
0.0
 10
-2.9259300000000001
 20
0.25597
 30
0.0
 10
-2.9259300000000001
 20
0.25597
 30
0.0
 10
-3.0122900000000001
 20
0.74365
 30
0.0
 10
-2.61097
 20
0.95447
 30
0.0
 10
-2.23251
 20
1.0078100000000001
 30
0.0
 10
-2.23251
 20
1.0078100000000001
 30
0.0
 10
-2.31887
 20
0.8325500000000001
 30
0.0
 10
-2.3163300000000002
 20
0.5709300000000001
 30
0.0
 10
-2.5220700000000003
 20
0.5023500000000001
 30
0.0
 10
-2.5220700000000003
 20
0.5023500000000001
 30
0.0
 10
-2.6465300000000003
 20
0.41345
 30
0.0
 10
-2.7709900000000003
 20
0.30931
 30
0.0
 10
-2.7938500000000004
 20
0.15183
 30
0.0
 10
-2.7938500000000004
 20
0.15183
 30
0.0
 10
-2.7582900000000001
 20
0.01213
 30
0.0
 10
-2.5576300000000001
 20
0.01213
 30
0.0
 10
-2.4611100000000001
 20
-0.0031
 30
0.0
 10
-2.4611100000000001
 20
-0.0031
 30
0.0
 10
-2.39507
 20
-0.8032
 30
0.0
 10
-2.48651
 20
-1.7455400000000001
 30
0.0
 10
-2.1817100000000003
 20
-2.4262600000000001
 30
0.0
 10
-2.1817100000000003
 20
-2.4262600000000001
 30
0.0
 10
-2.1817100000000003
 20
-2.4262600000000001
 30
0.0
 10
-2.2604500000000001
 20
-1.9385800000000002
 30
0.0
 10
-2.2604500000000001
 20
-1.9385800000000002
 30
0.0
 10
-2.2604500000000001
 20
-1.9385800000000002
 30
0.0
 10
-2.2604500000000001
 20
-1.9385800000000002
 30
0.0
 10
-2.2731500000000002
 20
-1.5347200000000001
 30
0.0
 10
-2.2731500000000002
 20
-1.5347200000000001
 30
0.0
 10
-2.2731500000000002
 20
-1.5347200000000001
 30
0.0
 10
-2.2731500000000002
 20
-1.5347200000000001
 30
0.0
 10
-2.0318500000000004
 20
-2.05796
 30
0.0
 10
-2.0318500000000004
 20
-2.05796
 30
0.0
 10
-2.0318500000000004
 20
-2.05796
 30
0.0
 10
-2.0318500000000004
 20
-2.05796
 30
0.0
 10
-1.6914900000000002
 20
-3.2441400000000002
 30
0.0
 10
-1.6914900000000002
 20
-3.2441400000000002
 30
0.0
 10
-1.6914900000000002
 20
-3.2441400000000002
 30
0.0
 10
-1.5695700000000001
 20
-3.2619200000000004
 30
0.0
 10
-1.7295900000000002
 20
-3.0180800000000003
 30
0.0
 10
-1.6432300000000002
 20
-2.9647400000000004
 30
0.0
 10
-1.6432300000000002
 20
-2.9647400000000004
 30
0.0
 10
-1.46289
 20
-3.6302200000000004
 30
0.0
 10
-1.0285500000000001
 20
-4.3134800000000002
 30
0.0
 10
-0.27925
 20
-4.7325800000000005
 30
0.0
 10
-0.27925
 20
-4.7325800000000005
 30
0.0
 10
-0.46213
 20
-4.6843200000000005
 30
0.0
 10
-0.71613
 20
-4.6005000000000003
 30
0.0
 10
-0.8786900000000001
 20
-4.4735000000000005
 30
0.0
 10
-0.8786900000000001
 20
-4.4735000000000005
 30
0.0
 10
-1.5238500000000001
 20
-3.9655000000000005
 30
0.0
 10
-2.0293100000000002
 20
-3.2289000000000003
 30
0.0
 10
-2.3468100000000001
 20
-2.4770600000000003
 30
0.0
 10
-2.3468100000000001
 20
-2.4770600000000003
 30
0.0
 10
-2.5474700000000001
 20
-2.35514
 30
0.0
 10
-2.73543
 20
-2.2332200000000002
 30
0.0
 10
-2.90307
 20
-2.05796
 30
0.0
 10
-2.90307
 20
-2.05796
 30
0.0
 10
-3.0529300000000004
 20
-1.9538200000000001
 30
0.0
 10
-3.1646900000000002
 20
-1.7988800000000003
 30
0.0
 10
-3.1240500000000004
 20
-1.6058400000000002
 30
0.0
 10
-3.1240500000000004
 20
-1.6058400000000002
 30
0.0
 10
-3.1418300000000001
 20
-1.3620000000000001
 30
0.0
 10
-3.1646900000000002
 20
-1.0292600000000001
 30
0.0
 10
-2.9945100000000004
 20
-1.3975600000000001
 30
0.0
 10
-2.9945100000000004
 20
-1.3975600000000001
 30
0.0
 10
-2.9360900000000001
 20
-1.4483600000000001
 30
0.0
 10
-2.9411700000000001
 20
-1.6058400000000002
 30
0.0
 10
-2.8446500000000001
 20
-1.6058400000000002
 30
0.0
 10
-2.8446500000000001
 20
-1.6058400000000002
 30
0.0
 10
-3.2129500000000002
 20
-0.8565400000000001
 30
0.0
 10
-3.6320500000000004
 20
-0.10724
 30
0.0
 10
-4.1527500000000002
 20
0.53537
 30
0.0
 10
-4.1527500000000002
 20
0.53537
 30
0.0
 10
-4.2873700000000001
 20
0.9722500000000001
 30
0.0
 10
-3.9241500000000005
 20
1.4243700000000001
 30
0.0
 10
-3.5075900000000004
 20
1.44215
 30
0.0
  0
SPLINE
  5
2F
100
AcDbEntity
  8
Ebene 1
 62
     7
100
AcDbSpline
210
0.0
220
0.0
230
1.0
 70
     1
 71
     3
 72
    28
 73
    24
 74
     0
 42
0.0000000001
 43
0.0000000001
 40
0.0
 40
0.0
 40
0.0
 40
0.0
 40
0.1666666666666667
 40
0.1666666666666667
 40
0.1666666666666667
 40
0.1666666666666667
 40
0.3333333333333333
 40
0.3333333333333333
 40
0.3333333333333333
 40
0.3333333333333333
 40
0.5
 40
0.5
 40
0.5
 40
0.5
 40
0.6666666666666666
 40
0.6666666666666666
 40
0.6666666666666666
 40
0.6666666666666666
 40
0.8333333333333333
 40
0.8333333333333333
 40
0.8333333333333333
 40
0.8333333333333333
 40
1.0
 40
1.0
 40
1.0
 40
1.0
 10
-1.8794500000000001
 20
0.3804300000000001
 30
0.0
 10
-1.6813300000000002
 20
-0.17582
 30
0.0
 10
-1.7473700000000001
 20
-0.8387600000000001
 30
0.0
 10
-1.6076700000000002
 20
-1.4305800000000002
 30
0.0
 10
-1.6076700000000002
 20
-1.4305800000000002
 30
0.0
 10
-1.6076700000000002
 20
-1.4305800000000002
 30
0.0
 10
-1.3689100000000001
 20
-1.6058400000000002
 30
0.0
 10
-1.3689100000000001
 20
-1.6058400000000002
 30
0.0
 10
-1.3689100000000001
 20
-1.6058400000000002
 30
0.0
 10
-0.91171
 20
-2.5837400000000001
 30
0.0
 10
-0.31481
 20
-3.5591000000000004
 30
0.0
 10
-0.27417
 20
-4.6563800000000004
 30
0.0
 10
-0.27417
 20
-4.6563800000000004
 30
0.0
 10
-1.5111500000000002
 20
-3.7140400000000002
 30
0.0
 10
-1.9327900000000002
 20
-2.0427200000000001
 30
0.0
 10
-2.3772900000000003
 20
-0.6127
 30
0.0
 10
-2.3772900000000003
 20
-0.6127
 30
0.0
 10
-2.3722100000000004
 20
-0.40188
 30
0.0
 10
-2.3645900000000002
 20
-0.1936
 30
0.0
 10
-2.3239500000000004
 20
0.01213
 30
0.0
 10
-2.3239500000000004
 20
0.01213
 30
0.0
 10
-2.1588500000000002
 20
0.09849
 30
0.0
 10
-2.0039100000000003
 20
0.23819
 30
0.0
 10
-1.8794500000000001
 20
0.3804300000000001
 30
0.0
  0
SPLINE
  5
30
100
AcDbEntity
  8
Ebene 1
 62
     7
100
AcDbSpline
210
0.0
220
0.0
230
1.0
 70
     1
 71
     3
 72
    12
 73
     8
 74
     0
 42
0.0000000001
 43
0.0000000001
 40
0.0
 40
0.0
 40
0.0
 40
0.0
 40
0.5
 40
0.5
 40
0.5
 40
0.5
 40
1.0
 40
1.0
 40
1.0
 40
1.0
 10
-0.71867
 20
-4.6233600000000008
 30
0.0
 10
-0.71867
 20
-4.6233600000000008
 30
0.0
 10
0.20842
 20
-5.1085000000000003
 30
0.0
 10
0.20842
 20
-5.1085000000000003
 30
0.0
 10
0.20842
 20
-5.1085000000000003
 30
0.0
 10
-0.13193
 20
-5.1440600000000005
 30
0.0
 10
-0.55103
 20
-4.9688000000000008
 30
0.0
 10
-0.71867
 20
-4.6233600000000008
 30
0.0
  0
ENDSEC
  0
SECTION
  2
OBJECTS
  0
DICTIONARY
  5
19
100
AcDbDictionary
280
     0
281
     1
  3
ACAD_GROUP
350
1A
  3
ACAD_MLINESTYLE
350
1B
  3
ACAD_LAYOUT
350
1E
  3
ACAD_PLOTSETTINGS
350
22
  3
ACAD_PLOTSTYLENAME
350
1F
  3
ACAD_WIPEOUT_VARS
350
23
  0
DICTIONARY
  5
1A
102
{ACAD_REACTORS
330
19
102
}
100
AcDbDictionary
280
     0
281
     1
  0
DICTIONARY
  5
1B
102
{ACAD_REACTORS
330
19
102
}
100
AcDbDictionary
280
     0
281
     1
  3
Standard
350
1C
  0
MLINESTYLE
  5
1C
102
{ACAD_REACTORS
330
1B
102
}
100
AcDbMlineStyle
  2
Standard
 70
     0
  3

 62
     0
 51
90.0
 52
90.0
 71
     2
 49
0.5
 62
   256
  6
BYLAYER
 49
-0.5
 62
   256
  6
BYLAYER
  0
ACDBDICTIONARYWDFLT
  5
1F
102
{ACAD_REACTORS
330
19
102
}
100
AcDbDictionary
281
     1
  3
Normal
350
1D
100
AcDbDictionaryWithDefault
340
1D
  0
ACDBPLACEHOLDER
  5
1D
102
{ACAD_REACTORS
330
1F
102
}
  0
LAYOUT
  5
20
102
{ACAD_REACTORS
330
1E
102
}
100
AcDbPlotSettings
  1

  2

  4

  6

 40
0.0
 41
0.0
 42
0.0
 43
0.0
 44
0.0
 45
0.0
 46
0.0
 47
0.0
 48
0.0
 49
0.0
140
0.0
141
0.0
142
1.0
143
1.0
 70
  1024
 72
     0
 73
     0
 74
     0
  7

 75
     0
147
1.0
148
0.0
149
0.0
100
AcDbLayout
  1
Model
 70
     0
 71
     0
 10
0.0
 20
0.0
 11
0.0
 21
0.0
 12
0.0
 22
0.0
 32
0.0
 14
0.0
 24
0.0
 34
0.0
 15
0.0
 25
0.0
 35
0.0
146
0.0
 13
0.0
 23
0.0
 33
0.0
 16
0.0
 26
0.0
 36
0.0
 17
0.0
 27
0.0
 37
0.0
 76
     0
330
A
331
0
345
0
346
0
  0
LAYOUT
  5
21
102
{ACAD_REACTORS
330
1E
102
}
100
AcDbPlotSettings
  1

  2

  4

  6

 40
0.0
 41
0.0
 42
0.0
 43
0.0
 44
0.0
 45
0.0
 46
0.0
 47
0.0
 48
0.0
 49
0.0
140
0.0
141
0.0
142
1.0
143
1.0
 70
     0
 72
     0
 73
     0
 74
     0
  7

 75
     0
147
1.0
148
0.0
149
0.0
100
AcDbLayout
  1
Layout1
 70
     0
 71
     0
 10
0.0
 20
0.0
 11
0.0
 21
0.0
 12
0.0
 22
0.0
 32
0.0
 14
0.0
 24
0.0
 34
0.0
 15
0.0
 25
0.0
 35
0.0
146
0.0
 13
0.0
 23
0.0
 33
0.0
 16
0.0
 26
0.0
 36
0.0
 17
0.0
 27
0.0
 37
0.0
 76
     0
330
B
331
0
345
0
346
0
  0
DICTIONARY
  5
1E
102
{ACAD_REACTORS
330
19
102
}
100
AcDbDictionary
280
     0
281
     1
  3
Layout1
350
21
  3
Model
350
20
  0
DICTIONARY
  5
22
102
{ACAD_REACTORS
330
19
102
}
100
AcDbDictionary
280
     0
281
     1
  0
WIPEOUTVARIABLES
  5
23
100
AcDbWipeoutVariables
 70
     1
  0
ENDSEC
  0
EOF
