  0
SECTION
  2
HEADER
  9
$ACADVER
  1
AC1015
  9
$ACADMAINTVER
 70
     6
  9
$DWGCODEPAGE
  3
DOS850
  9
$INSBASE
 10
0.0
 20
0.0
 30
0.0
  9
$EXTMIN
 10
-4.68202
 20
-6.26928
 30
1.000000E+20
  9
$EXTMAX
 10
4.68698
 20
6.26148
 30
-1.000000E+20
  9
$LIMMIN
 10
0.0
 20
0.0
  9
$LIMMAX
 10
0.0
 20
0.0
  9
$ORTHOMODE
 70
     0
  9
$REGENMODE
 70
     1
  9
$FILLMODE
 70
     1
  9
$QTEXTMODE
 70
     0
  9
$MIRRTEXT
 70
     1
  9
$LTSCALE
 40
1.0
  9
$ATTMODE
 70
     1
  9
$TEXTSIZE
 40
0.2
  9
$TRACEWID
 40
0.05
  9
$TEXTSTYLE
  7
Standard
  9
$CLAYER
  8
0
  9
$CELTYPE
  6
Continuous
  9
$CECOLOR
 62
   256
  9
$CELTSCALE
 40
1.0
  9
$DISPSILH
 70
     0
  9
$DIMSCALE
 40
1.0
  9
$DIMASZ
 40
0.18
  9
$DIMEXO
 40
0.0625
  9
$DIMDLI
 40
0.38
  9
$DIMRND
 40
0.0
  9
$DIMDLE
 40
0.0
  9
$DIMEXE
 40
0.18
  9
$DIMTP
 40
0.0
  9
$DIMTM
 40
0.0
  9
$DIMTXT
 40
0.18
  9
$DIMCEN
 40
0.09
  9
$DIMTSZ
 40
0.0
  9
$DIMTOL
 70
     0
  9
$DIMLIM
 70
     0
  9
$DIMTIH
 70
     1
  9
$DIMTOH
 70
     1
  9
$DIMSE1
 70
     0
  9
$DIMSE2
 70
     0
  9
$DIMTAD
 70
     0
  9
$DIMZIN
 70
     0
  9
$DIMBLK
  1

  9
$DIMASO
 70
     1
  9
$DIMSHO
 70
     1
  9
$DIMPOST
  1

  9
$DIMAPOST
  1

  9
$DIMALT
 70
     0
  9
$DIMALTD
 70
     2
  9
$DIMALTF
 40
25.4
  9
$DIMLFAC
 40
1.0
  9
$DIMTOFL
 70
     0
  9
$DIMTVP
 40
0.0
  9
$DIMTIX
 70
     0
  9
$DIMSOXD
 70
     0
  9
$DIMSAH
 70
     0
  9
$DIMBLK1
  1

  9
$DIMBLK2
  1

  9
$DIMSTYLE
  2
Standard
  9
$DIMCLRD
 70
     0
  9
$DIMCLRE
 70
     0
  9
$DIMCLRT
 70
     0
  9
$DIMTFAC
 40
1.0
  9
$DIMGAP
 40
0.09
  9
$DIMJUST
 70
     0
  9
$DIMSD1
 70
     0
  9
$DIMSD2
 70
     0
  9
$DIMTOLJ
 70
     1
  9
$DIMTZIN
 70
     0
  9
$DIMALTZ
 70
     0
  9
$DIMALTTZ
 70
     0
  9
$DIMUPT
 70
     0
  9
$DIMDEC
 70
     4
  9
$DIMTDEC
 70
     4
  9
$DIMALTU
 70
     2
  9
$DIMALTTD
 70
     2
  9
$DIMTXSTY
  7
Standard
  9
$DIMAUNIT
 70
     0
  9
$DIMADEC
 70
     0
  9
$DIMALTRND
 40
0.0
  9
$DIMAZIN
 70
     0
  9
$DIMDSEP
 70
     0
  9
$DIMATFIT
 70
     3
  9
$DIMFRAC
 70
     0
  9
$DIMLDRBLK
  1

  9
$DIMLUNIT
 70
     2
  9
$DIMLWD
 70
     0
  9
$DIMLWE
 70
     0
  9
$DIMTMOVE
 70
     0
  9
$LUNITS
 70
     2
  9
$LUPREC
 70
     4
  9
$SKETCHINC
 40
0.1
  9
$FILLETRAD
 40
0.0
  9
$AUNITS
 70
     0
  9
$AUPREC
 70
     0
  9
$MENU
  1
acad
  9
$ELEVATION
 40
0.0
  9
$PELEVATION
 40
0.0
  9
$THICKNESS
 40
0.0
  9
$LIMCHECK
 70
     0
  9
$CHAMFERA
 40
0.0
  9
$CHAMFERB
 40
0.0
  9
$CHAMFERC
 40
0.0
  9
$CHAMFERD
 40
0.0
  9
$SKPOLY
 70
     0
  9
$TDCREATE
 40
0.000000000
  9
$TDUCREATE
 40
0.000000000
  9
$TDUPDATE
 40
0.000000000
  9
$TDUUPDATE
 40
0.000000000
  9
$TDINDWG
 40
0.0000000000
  9
$TDUSRTIMER
 40
0.0000000000
  9
$USRTIMER
 70
     1
  9
$ANGBASE
 50
0.0
  9
$ANGDIR
 70
     0
  9
$PDMODE
 70
     0
  9
$PDSIZE
 40
0.0
  9
$PLINEWID
 40
0.0
  9
$SPLFRAME
 70
     0
  9
$SPLINETYPE
 70
     6
  9
$SPLINESEGS
 70
     8
  9
$HANDSEED
  5
35
  9
$SURFTAB1
 70
     6
  9
$SURFTAB2
 70
     6
  9
$SURFTYPE
 70
     6
  9
$SURFU
 70
     6
  9
$SURFV
 70
     6
  9
$UCSBASE
  2

  9
$UCSNAME
  2

  9
$UCSORG
 10
0.0
 20
0.0
 30
0.0
  9
$UCSXDIR
 10
1.0
 20
0.0
 30
0.0
  9
$UCSYDIR
 10
0.0
 20
1.0
 30
0.0
  9
$UCSORTHOREF
  2

  9
$UCSORTHOVIEW
 70
     0
  9
$UCSORGTOP
 10
0.0
 20
0.0
 30
0.0
  9
$UCSORGBOTTOM
 10
0.0
 20
0.0
 30
0.0
  9
$UCSORGLEFT
 10
0.0
 20
0.0
 30
0.0
  9
$UCSORGRIGHT
 10
0.0
 20
0.0
 30
0.0
  9
$UCSORGFRONT
 10
0.0
 20
0.0
 30
0.0
  9
$UCSORGBACK
 10
0.0
 20
0.0
 30
0.0
  9
$PUCSBASE
  2

  9
$PUCSNAME
  2

  9
$PUCSORG
 10
0.0
 20
0.0
 30
0.0
  9
$PUCSXDIR
 10
1.0
 20
0.0
 30
0.0
  9
$PUCSYDIR
 10
0.0
 20
1.0
 30
0.0
  9
$PUCSORTHOREF
  2

  9
$PUCSORTHOVIEW
 70
     0
  9
$PUCSORGTOP
 10
0.0
 20
0.0
 30
0.0
  9
$PUCSORGBOTTOM
 10
0.0
 20
0.0
 30
0.0
  9
$PUCSORGLEFT
 10
0.0
 20
0.0
 30
0.0
  9
$PUCSORGRIGHT
 10
0.0
 20
0.0
 30
0.0
  9
$PUCSORGFRONT
 10
0.0
 20
0.0
 30
0.0
  9
$PUCSORGBACK
 10
0.0
 20
0.0
 30
0.0
  9
$USERI1
 70
     0
  9
$USERI2
 70
     0
  9
$USERI3
 70
     0
  9
$USERI4
 70
     0
  9
$USERI5
 70
     0
  9
$USERR1
 40
0.0
  9
$USERR2
 40
0.0
  9
$USERR3
 40
0.0
  9
$USERR4
 40
0.0
  9
$USERR5
 40
0.0
  9
$WORLDVIEW
 70
     1
  9
$SHADEDGE
 70
     3
  9
$SHADEDIF
 70
    70
  9
$TILEMODE
 70
     1
  9
$MAXACTVP
 70
    16
  9
$PINSBASE
 10
0.0
 20
0.0
 30
0.0
  9
$PLIMCHECK
 70
     0
  9
$PEXTMIN
 10
1.000000E+20
 20
1.000000E+20
 30
1.000000E+20
  9
$PEXTMAX
 10
-1.000000E+20
 20
-1.000000E+20
 30
-1.000000E+20
  9
$PLIMMIN
 10
0.0
 20
0.0
  9
$PLIMMAX
 10
12.0
 20
9.0
  9
$UNITMODE
 70
     0
  9
$VISRETAIN
 70
     0
  9
$PLINEGEN
 70
     1
  9
$PSLTSCALE
 70
     0
  9
$TREEDEPTH
 70
  3020
  9
$CMLSTYLE
  2
Standard
  9
$CMLJUST
 70
     0
  9
$CMLSCALE
 40
1.0
  9
$PROXYGRAPHICS
 70
     0
  9
$MEASUREMENT
 70
     0
  9
$CELWEIGHT
370
     0
  9
$ENDCAPS
280
     0
  9
$JOINSTYLE
280
     0
  9
$LWDISPLAY
290
     0
  9
$INSUNITS
 70
     5
  9
$HYPERLINKBASE
  1

  9
$XEDIT
290
     1
  9
$CEPSNTYPE
380
     0
  9
$PSTYLEMODE
290
     1
  9
$FINGERPRINTGUID
  2

  9
$VERSIONGUID
  2

  9
$EXTNAMES
290
     1
  9
$PSVPSCALE
 40
0.0
  0
ENDSEC
  0
SECTION
  2
CLASSES
  0
CLASS
  1
LWPOLYLINE
  2
AcDbPolyline
  3
AutoCAD 2000
 90
    32768
280
     0
281
     1
  0
CLASS
  1
IMAGE
  2
AcDbRasterImage
  3
ISM
 90
    32895
280
     0
281
     1
  0
CLASS
  1
OLE2FRAME
  2
AcDbOle2Frame
  3
AutoCAD 2000
 90
    32768
280
     0
281
     1
  0
CLASS
  1
HATCH
  2
AcDbHatch
  3
AutoCAD 2000
 90
    32768
280
     0
281
     1
  0
CLASS
  1
DICTIONARYVAR
  2
AcDbDictionaryVar
  3
AutoCAD 2000
 90
    32768
280
     0
281
     0
  0
CLASS
  1
RASTERVARIABLES
  2
AcDbRasterVariables
  3
ISM
 90
    32768
280
     0
281
     0
  0
CLASS
  1
IMAGEDEF
  2
AcDbRasterImageDef
  3
ISM
 90
    32768
280
     0
281
     0
  0
CLASS
  1
IMAGEDEF_REACTOR
  2
AcDbRasterImageDefReactor
  3
ISM
 90
    32769
280
     0
281
     0
  0
CLASS
  1
IDBUFFER
  2
AcDbIdBuffer
  3
AutoCAD 2000
 90
    32768
280
     0
281
     0
  0
CLASS
  1
SPATIAL_FILTER
  2
AcDbSpatialFilter
  3
AutoCAD 2000
 90
    32768
280
     0
281
     0
  0
CLASS
  1
XRECORD
  2
AcDbXrecord
  3
AutoCAD 2000
 90
    32768
280
     0
281
     0
  0
CLASS
  1
SORTENTSTABLE
  2
AcDbSortentsTable
  3
AutoCAD 2000
 90
    32768
280
     0
281
     0
  0
CLASS
  1
LAYER_INDEX
  2
AcDbLayerIndex
  3
AutoCAD 2000
 90
    32768
280
     0
281
     0
  0
CLASS
  1
SPATIAL_INDEX
  2
AcDbSpatialIndex
  3
AutoCAD 2000
 90
    32768
280
     0
281
     0
  0
CLASS
  1
OBJECT_PTR
  2
CAseDLPNTableRecord
  3
"ASE-LPNTableRecord"
 90
    32769
280
     0
281
     0
  0
CLASS
  1
LAYOUT
  2
AcDbLayout
  3
AutoCAD 2000
 90
        0
280
     0
281
     0
  0
CLASS
  1
PLOTSETTINGS
  2
AcDbPlotSettings
  3
AutoCAD 2000
 90
    32768
280
     0
281
     0
  0
CLASS
  1
ACDBDICTIONARYWDFLT
  2
AcDbDictionaryWithDefault
  3
AutoCAD 2000
 90
        0
280
     0
281
     0
  0
CLASS
  1
ACDBPLACEHOLDER
  2
AcDbPlaceHolder
  3
AutoCAD 2000
 90
        0
280
     0
281
     0
  0
CLASS
  1
VBA_PROJECT
  2
AcDbVbaProject
  3
acadvba
 90
    32768
280
     0
281
     0
  0
CLASS
  1
WIPEOUT
  2
AcDbWipeout
  3
WipeOut|AutoCAD Express Tool|expresstools@autodesk.com
 90
    32895
280
     0
281
     1
  0
CLASS
  1
WIPEOUTVARIABLES
  2
AcDbWipeoutVariables
  3
WipeOut|AutoCAD Express Tool|expresstools@autodesk.com
 90
        0
280
     0
281
     0
  0
CLASS
  1
RTEXT
  2
RText
  3
RText|AutoCAD Express Tool|expresstools@autodesk.com
 90
    32768
280
     0
281
     1
  0
CLASS
  1
ARCALIGNEDTEXT
  2
AcDbArcAlignedText
  3
ATEXT|AutoCAD Express Tool|expresstools@autodesk.com
 90
    32768
280
     0
281
     1
  0
ENDSEC
  0
SECTION
  2
TABLES
  0
TABLE
  2
VPORT
  5
7
100
AcDbSymbolTable
 70
     1
  0
VPORT
  5
15
100
AcDbSymbolTableRecord
100
AcDbViewportTableRecord
  2
*ACTIVE
 70
     0
 10
0.0
 20
0.0
 11
1.0
 21
1.0
 12
6.591288
 22
4.579184
 13
0.0
 23
0.0
 14
1.0
 24
1.0
 15
0.0
 25
0.0
 16
0.0
 26
0.0
 36
1.0
 17
0.0
 27
0.0
 37
0.0
 40
9.158369
 41
0.688564
 42
50.0
 43
0.0
 44
0.0
 50
0.0
 51
0.0
 71
     0
 72
   100
 73
     1
 74
     1
 75
     0
 76
     0
 77
     0
 78
     0
281
     0
 65
     0
110
0.0
120
0.0
130
0.0
111
1.0
121
0.0
131
0.0
112
0.0
122
1.0
132
0.0
345
0
346
0
 79
     0
146
0.0
  0
ENDTAB
  0
TABLE
  2
LTYPE
  5
4
100
AcDbSymbolTable
 70
     3
  0
LTYPE
  5
11
100
AcDbSymbolTableRecord
100
AcDbLinetypeTableRecord
  2
ByBlock
 70
    64
  3

 72
    65
 73
     0
 40
0.0
  0
LTYPE
  5
12
100
AcDbSymbolTableRecord
100
AcDbLinetypeTableRecord
  2
ByLayer
 70
    64
  3

 72
    65
 73
     0
 40
0.0
  0
LTYPE
  5
13
100
AcDbSymbolTableRecord
100
AcDbLinetypeTableRecord
  2
Continuous
 70
    64
  3
Solid line
 72
    65
 73
     0
 40
0.0
  0
ENDTAB
  0
TABLE
  2
LAYER
  5
2
100
AcDbSymbolTable
 70
     2
  0
LAYER
  5
14
100
AcDbSymbolTableRecord
100
AcDbLayerTableRecord
  2
0
 70
     0
 62
     7
  6
Continuous
290
     1
370
    -3
390
1D
  0
LAYER
  5
24
100
AcDbSymbolTableRecord
100
AcDbLayerTableRecord
  2
Ebene 1
 70
     0
 62
     7
  6
Continuous
290
     1
370
    -3
390
1F
  0
ENDTAB
  0
TABLE
  2
STYLE
  5
3
100
AcDbSymbolTable
 70
     1
  0
STYLE
  5
17
100
AcDbSymbolTableRecord
100
AcDbTextStyleTableRecord
  2
Standard
 70
     0
 40
0.0
 41
1.0
 50
0.0
 71
     0
 42
0.0
  3
txt
  4

  0
ENDTAB
  0
TABLE
  2
VIEW
  5
5
100
AcDbSymbolTable
 70
     0
  0
ENDTAB
  0
TABLE
  2
UCS
  5
6
100
AcDbSymbolTable
 70
     0
  0
ENDTAB
  0
TABLE
  2
APPID
  5
8
100
AcDbSymbolTable
 70
     1
  0
APPID
  5
16
100
AcDbSymbolTableRecord
100
AcDbRegAppTableRecord
  2
ACAD
 70
     0
  0
ENDTAB
  0
TABLE
  2
DIMSTYLE
  5
9
100
AcDbSymbolTable
 70
     1
100
AcDbDimStyleTable
 71
     0
  0
DIMSTYLE
105
18
100
AcDbSymbolTableRecord
100
AcDbDimStyleTableRecord
  2
Standard
 70
     0
  3

  4

 40
1.0
 41
0.18
 42
0.0625
 43
0.38
 44
0.18
 45
0.0
 46
0.0
 47
0.0
 48
0.0
 71
     0
 72
     0
 73
     1
 74
     1
 75
     0
 76
     0
 77
     0
 78
     0
 79
     0
140
0.18
141
0.09
142
0.0
143
25.4
144
1.0
145
0.0
146
1.0
147
0.09
148
0.0
170
     0
171
     2
172
     0
173
     0
174
     0
175
     0
176
     0
177
     0
178
     0
179
     0
271
     4
272
     4
273
     2
274
     2
275
     0
276
     0
277
     2
278
    46
279
     0
280
     0
281
     0
282
     0
283
     1
284
     0
285
     0
286
     0
288
     0
340
17
341
0
342
0
343
0
344
0
371
    -2
372
    -2
  0
ENDTAB
  0
TABLE
  2
BLOCK_RECORD
  5
1
100
AcDbSymbolTable
 70
     0
  0
BLOCK_RECORD
  5
A
100
AcDbSymbolTableRecord
100
AcDbBlockTableRecord
  2
*MODEL_SPACE
340
20
  0
BLOCK_RECORD
  5
B
100
AcDbSymbolTableRecord
100
AcDbBlockTableRecord
  2
*PAPER_SPACE
340
21
  0
ENDTAB
  0
ENDSEC
  0
SECTION
  2
BLOCKS
  0
BLOCK
  5
D
100
AcDbEntity
  8
0
100
AcDbBlockBegin
  2
*MODEL_SPACE
 70
     0
 10
0.0
 20
0.0
 30
0.0
  3
*MODEL_SPACE
  1

  0
ENDBLK
  5
E
100
AcDbEntity
  8
0
100
AcDbBlockEnd
  0
BLOCK
  5
F
100
AcDbEntity
 67
     1
  8
0
100
AcDbBlockBegin
  2
*PAPER_SPACE
 70
     0
 10
0.0
 20
0.0
 30
0.0
  3
*PAPER_SPACE
  1

  0
ENDBLK
  5
10
100
AcDbEntity
 67
     1
  8
0
100
AcDbBlockEnd
  0
ENDSEC
  0
SECTION
  2
ENTITIES
  0
SPLINE
  5
25
100
AcDbEntity
  8
Ebene 1
100
AcDbSpline
210
0.0
220
0.0
230
1.0
 70
     1
 71
     3
 72
    72
 73
    68
 74
     0
 42
0.0000000001
 43
0.0000000001
 40
0.0
 40
0.0
 40
0.0
 40
0.0
 40
0.0588235294117647
 40
0.0588235294117647
 40
0.0588235294117647
 40
0.0588235294117647
 40
0.1176470588235294
 40
0.1176470588235294
 40
0.1176470588235294
 40
0.1176470588235294
 40
0.1764705882352941
 40
0.1764705882352941
 40
0.1764705882352941
 40
0.1764705882352941
 40
0.2352941176470588
 40
0.2352941176470588
 40
0.2352941176470588
 40
0.2352941176470588
 40
0.2941176470588235
 40
0.2941176470588235
 40
0.2941176470588235
 40
0.2941176470588235
 40
0.3529411764705883
 40
0.3529411764705883
 40
0.3529411764705883
 40
0.3529411764705883
 40
0.411764705882353
 40
0.411764705882353
 40
0.411764705882353
 40
0.411764705882353
 40
0.4705882352941177
 40
0.4705882352941177
 40
0.4705882352941177
 40
0.4705882352941177
 40
0.5294117647058824
 40
0.5294117647058824
 40
0.5294117647058824
 40
0.5294117647058824
 40
0.5882352941176471
 40
0.5882352941176471
 40
0.5882352941176471
 40
0.5882352941176471
 40
0.6470588235294118
 40
0.6470588235294118
 40
0.6470588235294118
 40
0.6470588235294118
 40
0.7058823529411765
 40
0.7058823529411765
 40
0.7058823529411765
 40
0.7058823529411765
 40
0.7647058823529412
 40
0.7647058823529412
 40
0.7647058823529412
 40
0.7647058823529412
 40
0.823529411764706
 40
0.823529411764706
 40
0.823529411764706
 40
0.823529411764706
 40
0.8823529411764707
 40
0.8823529411764707
 40
0.8823529411764707
 40
0.8823529411764707
 40
0.9411764705882354
 40
0.9411764705882354
 40
0.9411764705882354
 40
0.9411764705882354
 40
1.0
 40
1.0
 40
1.0
 40
1.0
 10
1.2904600000000002
 20
6.2529100000000009
 30
0.0
 10
1.7705200000000001
 20
6.2960900000000004
 30
0.0
 10
2.2861400000000001
 20
6.1741700000000002
 30
0.0
 10
2.6544400000000001
 20
5.9455700000000009
 30
0.0
 10
2.6544400000000001
 20
5.9455700000000009
 30
0.0
 10
3.4596200000000001
 20
5.9455700000000009
 30
0.0
 10
4.41974
 20
5.5950500000000005
 30
0.0
 10
4.3867200000000004
 20
4.6349300000000007
 30
0.0
 10
4.3867200000000004
 20
4.6349300000000007
 30
0.0
 10
5.0344200000000008
 20
3.7764100000000003
 30
0.0
 10
4.5772200000000005
 20
2.4987900000000001
 30
0.0
 10
3.5637600000000003
 20
2.1660500000000003
 30
0.0
 10
3.5637600000000003
 20
2.1660500000000003
 30
0.0
 10
3.4240600000000003
 20
2.0796900000000003
 30
0.0
 10
3.3707200000000004
 20
1.9044300000000001
 30
0.0
 10
3.2665800000000003
 20
1.7799700000000001
 30
0.0
 10
3.2665800000000003
 20
1.7799700000000001
 30
0.0
 10
3.6171000000000002
 20
1.5539100000000001
 30
0.0
 10
4.1403400000000001
 20
1.6047100000000001
 30
0.0
 10
4.3689400000000003
 20
1.2033900000000002
 30
0.0
 10
4.3689400000000003
 20
1.2033900000000002
 30
0.0
 10
4.4908600000000005
 20
0.46679
 30
0.0
 10
3.7568000000000001
 20
0.04769
 30
0.0
 10
3.1446600000000005
 20
-0.05644
 30
0.0
 10
3.1446600000000005
 20
-0.05644
 30
0.0
 10
2.9694000000000003
 20
-0.16058
 30
0.0
 10
2.7763600000000004
 20
-0.22916
 30
0.0
 10
2.63666
 20
-0.38918
 30
0.0
 10
2.63666
 20
-0.38918
 30
0.0
 10
2.8627200000000004
 20
-1.1918200000000001
 30
0.0
 10
2.63666
 20
-2.01478
 30
0.0
 10
2.0931000000000002
 20
-2.6269200000000001
 30
0.0
 10
2.0931000000000002
 20
-2.6269200000000001
 30
0.0
 10
1.7070200000000002
 20
-3.8004000000000002
 30
0.0
 10
0.9856600000000001
 20
-5.2355
 30
0.0
 10
0.37352
 20
-6.2692800000000002
 30
0.0
 10
0.37352
 20
-6.2692800000000002
 30
0.0
 10
0.04078
 20
-4.4811200000000007
 30
0.0
 10
0.0611
 20
-2.0859000000000001
 30
0.0
 10
-1.4070100000000001
 20
-0.7549400000000001
 30
0.0
 10
-1.4070100000000001
 20
-0.7549400000000001
 30
0.0
 10
-1.9607300000000001
 20
-0.8616200000000001
 30
0.0
 10
-2.0242300000000002
 20
-1.5245600000000001
 30
0.0
 10
-2.3010900000000003
 20
-1.9106400000000001
 30
0.0
 10
-2.3010900000000003
 20
-1.9106400000000001
 30
0.0
 10
-2.9868900000000003
 20
-2.1367000000000003
 30
0.0
 10
-3.7539700000000003
 20
-2.7336
 30
0.0
 10
-3.8200100000000003
 20
-3.4854400000000001
 30
0.0
 10
-3.8200100000000003
 20
-3.4854400000000001
 30
0.0
 10
-3.8200100000000003
 20
-3.4854400000000001
 30
0.0
 10
-4.2365700000000004
 20
-3.1349200000000002
 30
0.0
 10
-4.2365700000000004
 20
-3.1349200000000002
 30
0.0
 10
-4.2365700000000004
 20
-3.1349200000000002
 30
0.0
 10
-5.32369
 20
-1.5245600000000001
 30
0.0
 10
-4.2264100000000004
 20
0.41599
 30
0.0
 10
-3.0376900000000004
 20
1.5894700000000002
 30
0.0
 10
-3.0376900000000004
 20
1.5894700000000002
 30
0.0
 10
-3.1316700000000002
 20
1.7799700000000001
 30
0.0
 10
-3.2053300000000005
 20
1.9907900000000001
 30
0.0
 10
-3.1723100000000004
 20
2.2193900000000002
 30
0.0
 10
-3.1723100000000004
 20
2.2193900000000002
 30
0.0
 10
-3.1291300000000004
 20
2.63849
 30
0.0
 10
-2.8344900000000002
 20
2.9712300000000003
 30
0.0
 10
-2.5830300000000004
 20
3.2861900000000004
 30
0.0
 10
-2.5830300000000004
 20
3.2861900000000004
 30
0.0
 10
-2.2045700000000004
 20
5.0718100000000002
 30
0.0
 10
-0.33513
 20
6.0446300000000006
 30
0.0
 10
1.2904600000000002
 20
6.2529100000000009
 30
0.0
  0
SPLINE
  5
26
100
AcDbEntity
  8
Ebene 1
100
AcDbSpline
210
0.0
220
0.0
230
1.0
 70
     1
 71
     3
 72
    20
 73
    16
 74
     0
 42
0.0000000001
 43
0.0000000001
 40
0.0
 40
0.0
 40
0.0
 40
0.0
 40
0.25
 40
0.25
 40
0.25
 40
0.25
 40
0.5
 40
0.5
 40
0.5
 40
0.5
 40
0.75
 40
0.75
 40
0.75
 40
0.75
 40
1.0
 40
1.0
 40
1.0
 40
1.0
 10
0.9374000000000001
 20
-0.5111
 30
0.0
 10
0.9374000000000001
 20
-0.6863600000000001
 30
0.0
 10
0.74436
 20
-0.7727200000000001
 30
0.0
 10
0.6935600000000001
 20
-0.9124200000000001
 30
0.0
 10
0.6935600000000001
 20
-0.9124200000000001
 30
0.0
 10
0.6757800000000001
 20
-1.0191000000000001
 30
0.0
 10
0.6757800000000001
 20
-1.1054600000000001
 30
0.0
 10
0.6757800000000001
 20
-1.2096
 30
0.0
 10
0.6757800000000001
 20
-1.2096
 30
0.0
 10
0.9374000000000001
 20
-2.2256
 30
0.0
 10
0.41162
 20
-3.2746200000000001
 30
0.0
 10
0.7088000000000001
 20
-4.2550600000000003
 30
0.0
 10
0.7088000000000001
 20
-4.2550600000000003
 30
0.0
 10
1.0415400000000001
 20
-3.0663400000000003
 30
0.0
 10
1.5851000000000002
 20
-1.6820400000000002
 30
0.0
 10
0.9374000000000001
 20
-0.5111
 30
0.0
  0
SPLINE
  5
27
100
AcDbEntity
  8
Ebene 1
 62
     7
100
AcDbSpline
210
0.0
220
0.0
230
1.0
 70
     1
 71
     3
 72
   208
 73
   204
 74
     0
 42
0.0000000001
 43
0.0000000001
 40
0.0
 40
0.0
 40
0.0
 40
0.0
 40
0.0196078431372549
 40
0.0196078431372549
 40
0.0196078431372549
 40
0.0196078431372549
 40
0.0392156862745098
 40
0.0392156862745098
 40
0.0392156862745098
 40
0.0392156862745098
 40
0.0588235294117647
 40
0.0588235294117647
 40
0.0588235294117647
 40
0.0588235294117647
 40
0.0784313725490196
 40
0.0784313725490196
 40
0.0784313725490196
 40
0.0784313725490196
 40
0.0980392156862745
 40
0.0980392156862745
 40
0.0980392156862745
 40
0.0980392156862745
 40
0.1176470588235294
 40
0.1176470588235294
 40
0.1176470588235294
 40
0.1176470588235294
 40
0.1372549019607843
 40
0.1372549019607843
 40
0.1372549019607843
 40
0.1372549019607843
 40
0.1568627450980392
 40
0.1568627450980392
 40
0.1568627450980392
 40
0.1568627450980392
 40
0.1764705882352941
 40
0.1764705882352941
 40
0.1764705882352941
 40
0.1764705882352941
 40
0.196078431372549
 40
0.196078431372549
 40
0.196078431372549
 40
0.196078431372549
 40
0.2156862745098039
 40
0.2156862745098039
 40
0.2156862745098039
 40
0.2156862745098039
 40
0.2352941176470588
 40
0.2352941176470588
 40
0.2352941176470588
 40
0.2352941176470588
 40
0.2549019607843137
 40
0.2549019607843137
 40
0.2549019607843137
 40
0.2549019607843137
 40
0.2745098039215685
 40
0.2745098039215685
 40
0.2745098039215685
 40
0.2745098039215685
 40
0.2941176470588234
 40
0.2941176470588234
 40
0.2941176470588234
 40
0.2941176470588234
 40
0.3137254901960783
 40
0.3137254901960783
 40
0.3137254901960783
 40
0.3137254901960783
 40
0.3333333333333332
 40
0.3333333333333332
 40
0.3333333333333332
 40
0.3333333333333332
 40
0.3529411764705881
 40
0.3529411764705881
 40
0.3529411764705881
 40
0.3529411764705881
 40
0.372549019607843
 40
0.372549019607843
 40
0.372549019607843
 40
0.372549019607843
 40
0.3921568627450979
 40
0.3921568627450979
 40
0.3921568627450979
 40
0.3921568627450979
 40
0.4117647058823528
 40
0.4117647058823528
 40
0.4117647058823528
 40
0.4117647058823528
 40
0.4313725490196076
 40
0.4313725490196076
 40
0.4313725490196076
 40
0.4313725490196076
 40
0.4509803921568625
 40
0.4509803921568625
 40
0.4509803921568625
 40
0.4509803921568625
 40
0.4705882352941174
 40
0.4705882352941174
 40
0.4705882352941174
 40
0.4705882352941174
 40
0.4901960784313723
 40
0.4901960784313723
 40
0.4901960784313723
 40
0.4901960784313723
 40
0.5098039215686272
 40
0.5098039215686272
 40
0.5098039215686272
 40
0.5098039215686272
 40
0.5294117647058821
 40
0.5294117647058821
 40
0.5294117647058821
 40
0.5294117647058821
 40
0.5490196078431371
 40
0.5490196078431371
 40
0.5490196078431371
 40
0.5490196078431371
 40
0.568627450980392
 40
0.568627450980392
 40
0.568627450980392
 40
0.568627450980392
 40
0.588235294117647
 40
0.588235294117647
 40
0.588235294117647
 40
0.588235294117647
 40
0.6078431372549019
 40
0.6078431372549019
 40
0.6078431372549019
 40
0.6078431372549019
 40
0.6274509803921569
 40
0.6274509803921569
 40
0.6274509803921569
 40
0.6274509803921569
 40
0.6470588235294118
 40
0.6470588235294118
 40
0.6470588235294118
 40
0.6470588235294118
 40
0.6666666666666667
 40
0.6666666666666667
 40
0.6666666666666667
 40
0.6666666666666667
 40
0.6862745098039217
 40
0.6862745098039217
 40
0.6862745098039217
 40
0.6862745098039217
 40
0.7058823529411766
 40
0.7058823529411766
 40
0.7058823529411766
 40
0.7058823529411766
 40
0.7254901960784316
 40
0.7254901960784316
 40
0.7254901960784316
 40
0.7254901960784316
 40
0.7450980392156865
 40
0.7450980392156865
 40
0.7450980392156865
 40
0.7450980392156865
 40
0.7647058823529415
 40
0.7647058823529415
 40
0.7647058823529415
 40
0.7647058823529415
 40
0.7843137254901964
 40
0.7843137254901964
 40
0.7843137254901964
 40
0.7843137254901964
 40
0.8039215686274513
 40
0.8039215686274513
 40
0.8039215686274513
 40
0.8039215686274513
 40
0.8235294117647063
 40
0.8235294117647063
 40
0.8235294117647063
 40
0.8235294117647063
 40
0.8431372549019612
 40
0.8431372549019612
 40
0.8431372549019612
 40
0.8431372549019612
 40
0.8627450980392162
 40
0.8627450980392162
 40
0.8627450980392162
 40
0.8627450980392162
 40
0.8823529411764711
 40
0.8823529411764711
 40
0.8823529411764711
 40
0.8823529411764711
 40
0.9019607843137261
 40
0.9019607843137261
 40
0.9019607843137261
 40
0.9019607843137261
 40
0.921568627450981
 40
0.921568627450981
 40
0.921568627450981
 40
0.921568627450981
 40
0.941176470588236
 40
0.941176470588236
 40
0.941176470588236
 40
0.941176470588236
 40
0.9607843137254909
 40
0.9607843137254909
 40
0.9607843137254909
 40
0.9607843137254909
 40
0.9803921568627458
 40
0.9803921568627458
 40
0.9803921568627458
 40
0.9803921568627458
 40
1.0
 40
1.0
 40
1.0
 40
1.0
 10
0.25414
 20
0.44901
 30
0.0
 10
0.23636
 20
0.41599
 30
0.0
 10
0.21858
 20
0.3804300000000001
 30
0.0
 10
0.18556
 20
0.34487
 30
0.0
 10
0.18556
 20
0.34487
 30
0.0
 10
-0.23353
 20
0.10103
 30
0.0
 10
-0.25385
 20
-0.4780800000000001
 30
0.0
 10
-0.6272300000000001
 20
-0.7752600000000001
 30
0.0
 10
-0.6272300000000001
 20
-0.7752600000000001
 30
0.0
 10
-0.76439
 20
-0.8286000000000001
 30
0.0
 10
-0.8939300000000001
 20
-0.7346200000000001
 30
0.0
 10
-1.03871
 20
-0.7701800000000001
 30
0.0
 10
-1.03871
 20
-0.7701800000000001
 30
0.0
 10
-1.03871
 20
-0.7701800000000001
 30
0.0
 10
-1.4755900000000002
 20
-0.6863600000000001
 30
0.0
 10
-1.4755900000000002
 20
-0.6863600000000001
 30
0.0
 10
-1.4755900000000002
 20
-0.6863600000000001
 30
0.0
 10
-1.0488700000000002
 20
-0.67366
 30
0.0
 10
-0.5789700000000001
 20
-0.78288
 30
0.0
 10
-0.41133
 20
-0.19614
 30
0.0
 10
-0.41133
 20
-0.19614
 30
0.0
 10
-0.5789700000000001
 20
-0.5111
 30
0.0
 10
-1.2800100000000001
 20
-0.6685800000000001
 30
0.0
 10
-1.0209300000000001
 20
-0.21392
 30
0.0
 10
-1.0209300000000001
 20
-0.21392
 30
0.0
 10
-1.3562100000000001
 20
-0.4044200000000001
 30
0.0
 10
-1.6508500000000002
 20
-0.6508000000000001
 30
0.0
 10
-1.9175500000000001
 20
-0.94798
 30
0.0
 10
-1.9175500000000001
 20
-0.94798
 30
0.0
 10
-1.9175500000000001
 20
-0.94798
 30
0.0
 10
-1.9658100000000001
 20
-0.71938
 30
0.0
 10
-1.9658100000000001
 20
-0.71938
 30
0.0
 10
-1.9658100000000001
 20
-0.71938
 30
0.0
 10
-1.9785100000000002
 20
-0.49332
 30
0.0
 10
-1.8540500000000002
 20
-0.31806
 30
0.0
 10
-1.7930900000000001
 20
-0.10724
 30
0.0
 10
-1.7930900000000001
 20
-0.10724
 30
0.0
 10
-2.2629900000000003
 20
-0.3714
 30
0.0
 10
-2.06487
 20
-1.03434
 30
0.0
 10
-2.19441
 20
-1.4559800000000001
 30
0.0
 10
-2.19441
 20
-1.4559800000000001
 30
0.0
 10
-2.39507
 20
-2.1367000000000003
 30
0.0
 10
-2.4204700000000003
 20
-0.84384
 30
0.0
 10
-2.4915900000000004
 20
-1.0521200000000002
 30
0.0
 10
-2.4915900000000004
 20
-1.0521200000000002
 30
0.0
 10
-2.4941300000000002
 20
-1.1410200000000001
 30
0.0
 10
-2.4915900000000004
 20
-1.2273800000000001
 30
0.0
 10
-2.4738100000000003
 20
-1.2985000000000002
 30
0.0
 10
-2.4738100000000003
 20
-1.2985000000000002
 30
0.0
 10
-2.4738100000000003
 20
-1.2985000000000002
 30
0.0
 10
-2.4915900000000004
 20
-1.5779000000000001
 30
0.0
 10
-2.4915900000000004
 20
-1.5779000000000001
 30
0.0
 10
-2.4915900000000004
 20
-1.5779000000000001
 30
0.0
 10
-2.4484100000000004
 20
-1.8065000000000002
 30
0.0
 10
-2.6871700000000001
 20
-1.8750800000000001
 30
0.0
 10
-2.8344900000000002
 20
-1.9792200000000002
 30
0.0
 10
-2.8344900000000002
 20
-1.9792200000000002
 30
0.0
 10
-3.0783300000000002
 20
-2.2078200000000003
 30
0.0
 10
-3.3932900000000004
 20
-2.4008600000000002
 30
0.0
 10
-3.2256500000000004
 20
-1.9106400000000001
 30
0.0
 10
-3.2256500000000004
 20
-1.9106400000000001
 30
0.0
 10
-3.2256500000000004
 20
-1.9106400000000001
 30
0.0
 10
-3.1596100000000003
 20
-1.1410200000000001
 30
0.0
 10
-3.1596100000000003
 20
-1.1410200000000001
 30
0.0
 10
-3.1596100000000003
 20
-1.1410200000000001
 30
0.0
 10
-3.2993100000000002
 20
-1.2807200000000001
 30
0.0
 10
-3.3424900000000002
 20
-1.5956800000000002
 30
0.0
 10
-3.4009100000000001
 20
-1.8065000000000002
 30
0.0
 10
-3.4009100000000001
 20
-1.8065000000000002
 30
0.0
 10
-3.4669500000000002
 20
-2.2256
 30
0.0
 10
-3.6980900000000001
 20
-2.5939000000000001
 30
0.0
 10
-3.8911300000000004
 20
-2.9596600000000004
 30
0.0
 10
-3.8911300000000004
 20
-2.9596600000000004
 30
0.0
 10
-4.90205
 20
-2.2611600000000003
 30
0.0
 10
-4.56677
 20
-0.71938
 30
0.0
 10
-3.7387300000000003
 20
0.01213
 30
0.0
 10
-3.7387300000000003
 20
0.01213
 30
0.0
 10
-3.6345900000000002
 20
0.2737500000000001
 30
0.0
 10
-4.0790900000000008
 20
-0.26472
 30
0.0
 10
-4.1654500000000008
 20
-0.38664
 30
0.0
 10
-4.1654500000000008
 20
-0.38664
 30
0.0
 10
-4.2873700000000001
 20
-0.5796800000000001
 30
0.0
 10
-4.3915100000000002
 20
-0.7727200000000001
 30
0.0
 10
-4.48041
 20
-0.9657600000000001
 30
0.0
 10
-4.48041
 20
-0.9657600000000001
 30
0.0
 10
-4.3889700000000005
 20
-0.08946
 30
0.0
 10
-3.7082500000000005
 20
0.6776100000000001
 30
0.0
 10
-2.9513300000000005
 20
1.11449
 30
0.0
 10
-2.9513300000000005
 20
1.11449
 30
0.0
 10
-2.9513300000000005
 20
1.15005
 30
0.0
 10
-2.98943
 20
1.1856100000000001
 30
0.0
 10
-3.0199100000000003
 20
1.15005
 30
0.0
 10
-3.0199100000000003
 20
1.15005
 30
0.0
 10
-3.0199100000000003
 20
1.15005
 30
0.0
 10
-3.3958300000000001
 20
0.9747900000000001
 30
0.0
 10
-3.3958300000000001
 20
0.9747900000000001
 30
0.0
 10
-3.3958300000000001
 20
0.9747900000000001
 30
0.0
 10
-3.0834100000000002
 20
1.4142100000000002
 30
0.0
 10
-2.9005300000000003
 20
1.5894700000000002
 30
0.0
 10
-2.3493500000000003
 20
1.5564500000000001
 30
0.0
 10
-2.3493500000000003
 20
1.5564500000000001
 30
0.0
 10
-2.01661
 20
2.2701900000000004
 30
0.0
 10
-2.5601700000000003
 20
1.7240900000000001
 30
0.0
 10
-1.7930900000000001
 20
2.9534500000000001
 30
0.0
 10
-1.7930900000000001
 20
2.9534500000000001
 30
0.0
 10
-1.8591300000000002
 20
2.9178900000000003
 30
0.0
 10
-1.9200900000000001
 20
2.8670900000000001
 30
0.0
 10
-1.9531100000000001
 20
2.7959700000000001
 30
0.0
 10
-1.9531100000000001
 20
2.7959700000000001
 30
0.0
 10
-2.2680700000000003
 20
2.4810100000000004
 30
0.0
 10
-2.2807700000000004
 20
1.8688700000000003
 30
0.0
 10
-2.6998700000000002
 20
1.7113900000000002
 30
0.0
 10
-2.6998700000000002
 20
1.7113900000000002
 30
0.0
 10
-3.3069300000000004
 20
1.9044300000000001
 30
0.0
 10
-2.9106900000000002
 20
2.7451700000000003
 30
0.0
 10
-2.5423900000000001
 20
3.0245700000000002
 30
0.0
 10
-2.5423900000000001
 20
3.0245700000000002
 30
0.0
 10
-2.5423900000000001
 20
3.0245700000000002
 30
0.0
 10
-2.5601700000000003
 20
2.7604100000000003
 30
0.0
 10
-2.5601700000000003
 20
2.7604100000000003
 30
0.0
 10
-2.5601700000000003
 20
2.7604100000000003
 30
0.0
 10
-2.6262100000000004
 20
2.5343500000000003
 30
0.0
 10
-2.5474700000000001
 20
2.5343500000000003
 30
0.0
 10
-2.5017500000000004
 20
2.7604100000000003
 30
0.0
 10
-2.5017500000000004
 20
2.7604100000000003
 30
0.0
 10
-2.4560300000000002
 20
2.9026500000000004
 30
0.0
 10
-2.4255500000000003
 20
3.0423500000000003
 30
0.0
 10
-2.4026900000000002
 20
3.1820500000000003
 30
0.0
 10
-2.4026900000000002
 20
3.1820500000000003
 30
0.0
 10
-2.2680700000000003
 20
3.6900500000000003
 30
0.0
 10
-2.2452100000000002
 20
4.3707700000000003
 30
0.0
 10
-1.6889500000000002
 20
4.6171500000000005
 30
0.0
 10
-1.6889500000000002
 20
4.6171500000000005
 30
0.0
 10
-1.6533900000000001
 20
4.5104700000000006
 30
0.0
 10
-1.8235700000000001
 20
4.3021900000000004
 30
0.0
 10
-1.67117
 20
4.2666300000000001
 30
0.0
 10
-1.67117
 20
4.2666300000000001
 30
0.0
 10
-0.9980700000000001
 20
5.9455700000000009
 30
0.0
 10
1.7070200000000002
 20
6.8396500000000007
 30
0.0
 10
3.0379800000000001
 20
5.4553500000000001
 30
0.0
 10
3.0379800000000001
 20
5.4553500000000001
 30
0.0
 10
3.2488000000000001
 20
5.3689900000000002
 30
0.0
 10
3.0202000000000004
 20
5.5950500000000005
 30
0.0
 10
3.0202000000000004
 20
5.6839500000000003
 30
0.0
 10
3.0202000000000004
 20
5.6839500000000003
 30
0.0
 10
4.1047800000000008
 20
5.8236500000000007
 30
0.0
 10
4.4553000000000003
 20
4.6171500000000005
 30
0.0
 10
4.0539800000000001
 20
3.8119700000000005
 30
0.0
 10
4.0539800000000001
 20
3.8119700000000005
 30
0.0
 10
4.1403400000000001
 20
3.5655900000000003
 30
0.0
 10
4.1759000000000004
 20
4.1447100000000008
 30
0.0
 10
4.33338
 20
4.2132900000000006
 30
0.0
 10
4.33338
 20
4.2132900000000006
 30
0.0
 10
4.6839000000000004
 20
3.7941900000000004
 30
0.0
 10
4.5772200000000005
 20
3.0601300000000005
 30
0.0
 10
4.1047800000000008
 20
2.7604100000000003
 30
0.0
 10
4.1047800000000008
 20
2.7604100000000003
 30
0.0
 10
4.1047800000000008
 20
2.7604100000000003
 30
0.0
 10
4.1403400000000001
 20
3.0067900000000001
 30
0.0
 10
4.1403400000000001
 20
3.0067900000000001
 30
0.0
 10
4.1403400000000001
 20
3.0067900000000001
 30
0.0
 10
4.1936800000000005
 20
3.0931500000000001
 30
0.0
 10
4.2292400000000008
 20
3.4258900000000003
 30
0.0
 10
4.0895400000000004
 20
3.2176100000000001
 30
0.0
 10
4.0895400000000004
 20
3.2176100000000001
 30
0.0
 10
3.8076000000000003
 20
2.63849
 30
0.0
 10
3.2665800000000003
 20
1.7977500000000002
 30
0.0
 10
2.5477600000000002
 20
1.8688700000000003
 30
0.0
 10
2.5477600000000002
 20
1.8688700000000003
 30
0.0
 10
2.0397600000000002
 20
2.1482700000000001
 30
0.0
 10
2.6874600000000002
 20
2.9534500000000001
 30
0.0
 10
2.0219800000000001
 20
3.1109300000000002
 30
0.0
 10
2.0219800000000001
 20
3.1109300000000002
 30
0.0
 10
2.5147400000000002
 20
2.7781900000000004
 30
0.0
 10
2.0067400000000002
 20
2.4632300000000003
 30
0.0
 10
1.6206600000000002
 20
2.3590900000000001
 30
0.0
 10
1.6206600000000002
 20
2.3590900000000001
 30
0.0
 10
1.4987400000000002
 20
2.2879700000000001
 30
0.0
 10
1.3057000000000001
 20
2.2371700000000003
 30
0.0
 10
1.2523600000000001
 20
2.0796900000000003
 30
0.0
 10
1.2523600000000001
 20
2.0796900000000003
 30
0.0
 10
1.3742800000000002
 20
1.7799700000000001
 30
0.0
 10
1.6384400000000001
 20
1.6047100000000001
 30
0.0
 10
1.6740000000000002
 20
1.57169
 30
0.0
 10
1.6740000000000002
 20
1.57169
 30
0.0
 10
1.7603600000000001
 20
1.8155300000000001
 30
0.0
 10
2.3547200000000004
 20
2.0619100000000001
 30
0.0
 10
2.3217000000000003
 20
1.6580500000000002
 30
0.0
 10
2.3217000000000003
 20
1.6580500000000002
 30
0.0
 10
2.2505800000000002
 20
1.4142100000000002
 30
0.0
 10
2.6874600000000002
 20
1.27197
 30
0.0
 10
2.4080600000000003
 20
0.8884300000000001
 30
0.0
 10
2.4080600000000003
 20
0.8884300000000001
 30
0.0
 10
1.35904
 20
0.8884300000000001
 30
0.0
 10
0.11444
 20
0.85287
 30
0.0
 10
-0.5789700000000001
 20
-0.05644
 30
0.0
 10
-0.5789700000000001
 20
-0.05644
 30
0.0
 10
-0.5789700000000001
 20
-0.05644
 30
0.0
 10
-0.31989
 20
0.11627
 30
0.0
 10
-0.31989
 20
0.11627
 30
0.0
 10
-0.31989
 20
0.11627
 30
0.0
 10
-0.14463
 20
0.25851
 30
0.0
 10
0.04332
 20
0.3804300000000001
 30
0.0
 10
0.25414
 20
0.44901
 30
0.0
  0
SPLINE
  5
28
100
AcDbEntity
  8
Ebene 1
100
AcDbSpline
210
0.0
220
0.0
230
1.0
 70
     1
 71
     3
 72
    20
 73
    16
 74
     0
 42
0.0000000001
 43
0.0000000001
 40
0.0
 40
0.0
 40
0.0
 40
0.0
 40
0.25
 40
0.25
 40
0.25
 40
0.25
 40
0.5
 40
0.5
 40
0.5
 40
0.5
 40
0.75
 40
0.75
 40
0.75
 40
0.75
 40
1.0
 40
1.0
 40
1.0
 40
1.0
 10
1.8822800000000002
 20
5.0718100000000002
 30
0.0
 10
1.9534000000000002
 20
5.0895900000000003
 30
0.0
 10
2.0397600000000002
 20
5.0718100000000002
 30
0.0
 10
2.0397600000000002
 20
4.9829100000000004
 30
0.0
 10
2.0397600000000002
 20
4.9829100000000004
 30
0.0
 10
2.0397600000000002
 20
4.9829100000000004
 30
0.0
 10
1.7959200000000002
 20
4.8076500000000006
 30
0.0
 10
1.7959200000000002
 20
4.8076500000000006
 30
0.0
 10
1.7959200000000002
 20
4.8076500000000006
 30
0.0
 10
0.6046600000000001
 20
4.7390700000000008
 30
0.0
 10
-0.31989
 20
3.7941900000000004
 30
0.0
 10
-1.33081
 20
3.2506300000000001
 30
0.0
 10
-1.33081
 20
3.2506300000000001
 30
0.0
 10
-0.37323
 20
4.0050100000000004
 30
0.0
 10
0.6224400000000001
 20
4.9321100000000007
 30
0.0
 10
1.8822800000000002
 20
5.0718100000000002
 30
0.0
  0
SPLINE
  5
29
100
AcDbEntity
  8
Ebene 1
100
AcDbSpline
210
0.0
220
0.0
230
1.0
 70
     1
 71
     3
 72
    20
 73
    16
 74
     0
 42
0.0000000001
 43
0.0000000001
 40
0.0
 40
0.0
 40
0.0
 40
0.0
 40
0.25
 40
0.25
 40
0.25
 40
0.25
 40
0.5
 40
0.5
 40
0.5
 40
0.5
 40
0.75
 40
0.75
 40
0.75
 40
0.75
 40
1.0
 40
1.0
 40
1.0
 40
1.0
 10
1.9889600000000001
 20
4.5815900000000003
 30
0.0
 10
2.0575400000000004
 20
4.5993700000000004
 30
0.0
 10
2.0397600000000002
 20
4.54603
 30
0.0
 10
2.0067400000000002
 20
4.5104700000000006
 30
0.0
 10
2.0067400000000002
 20
4.5104700000000006
 30
0.0
 10
1.4631800000000001
 20
4.1955100000000005
 30
0.0
 10
1.5851000000000002
 20
3.5325700000000002
 30
0.0
 10
1.9711800000000002
 20
3.1464900000000005
 30
0.0
 10
1.9711800000000002
 20
3.1464900000000005
 30
0.0
 10
1.7425800000000002
 20
3.2506300000000001
 30
0.0
 10
1.4276200000000001
 20
3.4258900000000003
 30
0.0
 10
1.3234800000000002
 20
3.7052900000000002
 30
0.0
 10
1.3234800000000002
 20
3.7052900000000002
 30
0.0
 10
1.3234800000000002
 20
4.1091500000000005
 30
0.0
 10
1.6740000000000002
 20
4.4063300000000005
 30
0.0
 10
1.9889600000000001
 20
4.5815900000000003
 30
0.0
  0
SPLINE
  5
2A
100
AcDbEntity
  8
Ebene 1
100
AcDbSpline
210
0.0
220
0.0
230
1.0
 70
     1
 71
     3
 72
    20
 73
    16
 74
     0
 42
0.0000000001
 43
0.0000000001
 40
0.0
 40
0.0
 40
0.0
 40
0.0
 40
0.25
 40
0.25
 40
0.25
 40
0.25
 40
0.5
 40
0.5
 40
0.5
 40
0.5
 40
0.75
 40
0.75
 40
0.75
 40
0.75
 40
1.0
 40
1.0
 40
1.0
 40
1.0
 10
-1.8794500000000001
 20
3.9161100000000002
 30
0.0
 10
-1.6660900000000001
 20
3.7941900000000004
 30
0.0
 10
-1.9480300000000002
 20
3.1998300000000004
 30
0.0
 10
-1.5111500000000002
 20
3.3039700000000001
 30
0.0
 10
-1.5111500000000002
 20
3.3039700000000001
 30
0.0
 10
-1.4755900000000002
 20
3.3039700000000001
 30
0.0
 10
-1.41717
 20
3.3217500000000002
 30
0.0
 10
-1.4095500000000001
 20
3.2684100000000003
 30
0.0
 10
-1.4095500000000001
 20
3.2684100000000003
 30
0.0
 10
-1.5238500000000001
 20
3.1998300000000004
 30
0.0
 10
-1.6965700000000001
 20
3.0931500000000001
 30
0.0
 10
-1.8210300000000001
 20
3.1642700000000001
 30
0.0
 10
-1.8210300000000001
 20
3.1642700000000001
 30
0.0
 10
-1.8210300000000001
 20
3.1642700000000001
 30
0.0
 10
-1.8794500000000001
 20
3.9161100000000002
 30
0.0
 10
-1.8794500000000001
 20
3.9161100000000002
 30
0.0
  0
SPLINE
  5
2B
100
AcDbEntity
  8
Ebene 1
100
AcDbSpline
210
0.0
220
0.0
230
1.0
 70
     1
 71
     3
 72
    60
 73
    56
 74
     0
 42
0.0000000001
 43
0.0000000001
 40
0.0
 40
0.0
 40
0.0
 40
0.0
 40
0.0714285714285714
 40
0.0714285714285714
 40
0.0714285714285714
 40
0.0714285714285714
 40
0.1428571428571429
 40
0.1428571428571429
 40
0.1428571428571429
 40
0.1428571428571429
 40
0.2142857142857143
 40
0.2142857142857143
 40
0.2142857142857143
 40
0.2142857142857143
 40
0.2857142857142857
 40
0.2857142857142857
 40
0.2857142857142857
 40
0.2857142857142857
 40
0.3571428571428571
 40
0.3571428571428571
 40
0.3571428571428571
 40
0.3571428571428571
 40
0.4285714285714285
 40
0.4285714285714285
 40
0.4285714285714285
 40
0.4285714285714285
 40
0.4999999999999999
 40
0.4999999999999999
 40
0.4999999999999999
 40
0.4999999999999999
 40
0.5714285714285713
 40
0.5714285714285713
 40
0.5714285714285713
 40
0.5714285714285713
 40
0.6428571428571427
 40
0.6428571428571427
 40
0.6428571428571427
 40
0.6428571428571427
 40
0.7142857142857141
 40
0.7142857142857141
 40
0.7142857142857141
 40
0.7142857142857141
 40
0.7857142857142855
 40
0.7857142857142855
 40
0.7857142857142855
 40
0.7857142857142855
 40
0.8571428571428569
 40
0.8571428571428569
 40
0.8571428571428569
 40
0.8571428571428569
 40
0.9285714285714283
 40
0.9285714285714283
 40
0.9285714285714283
 40
0.9285714285714283
 40
1.0
 40
1.0
 40
1.0
 40
1.0
 10
0.44718
 20
2.1660500000000003
 30
0.0
 10
0.6224400000000001
 20
2.4124300000000001
 30
0.0
 10
0.85104
 20
2.63849
 30
0.0
 10
0.9374000000000001
 20
2.9356700000000004
 30
0.0
 10
0.9374000000000001
 20
2.9356700000000004
 30
0.0
 10
0.9374000000000001
 20
3.0931500000000001
 30
0.0
 10
0.8662800000000001
 20
3.3039700000000001
 30
0.0
 10
0.7088000000000001
 20
3.3573100000000005
 30
0.0
 10
0.7088000000000001
 20
3.3573100000000005
 30
0.0
 10
0.7088000000000001
 20
3.3573100000000005
 30
0.0
 10
0.55132
 20
3.2684100000000003
 30
0.0
 10
0.55132
 20
3.2684100000000003
 30
0.0
 10
0.55132
 20
3.2684100000000003
 30
0.0
 10
0.55132
 20
3.2684100000000003
 30
0.0
 10
0.64022
 20
3.2328500000000004
 30
0.0
 10
0.64022
 20
3.2328500000000004
 30
0.0
 10
0.64022
 20
3.2328500000000004
 30
0.0
 10
0.46496
 20
2.5343500000000003
 30
0.0
 10
-0.12939
 20
1.7113900000000002
 30
0.0
 10
-0.7948700000000001
 20
1.57169
 30
0.0
 10
-0.7948700000000001
 20
1.57169
 30
0.0
 10
-0.5180100000000001
 20
1.27197
 30
0.0
 10
-0.23353
 20
1.0814700000000002
 30
0.0
 10
0.2008
 20
1.1678300000000001
 30
0.0
 10
0.2008
 20
1.1678300000000001
 30
0.0
 10
-0.07859
 20
0.84779
 30
0.0
 10
-0.38847
 20
0.31947
 30
0.0
 10
-0.6653300000000001
 20
0.5201300000000001
 30
0.0
 10
-0.6653300000000001
 20
0.5201300000000001
 30
0.0
 10
-0.40879
 20
0.9392300000000001
 30
0.0
 10
-0.66025
 20
1.5539100000000001
 30
0.0
 10
-1.21397
 20
1.5539100000000001
 30
0.0
 10
-1.21397
 20
1.5539100000000001
 30
0.0
 10
-1.4476500000000001
 20
1.5005700000000002
 30
0.0
 10
-1.9023100000000002
 20
0.9062100000000001
 30
0.0
 10
-1.67117
 20
1.4319900000000001
 30
0.0
 10
-1.67117
 20
1.4319900000000001
 30
0.0
 10
-1.75753
 20
1.3964300000000001
 30
0.0
 10
-1.8845300000000003
 20
1.4142100000000002
 30
0.0
 10
-1.9302500000000002
 20
1.5005700000000002
 30
0.0
 10
-1.9302500000000002
 20
1.5005700000000002
 30
0.0
 10
-1.9302500000000002
 20
1.5005700000000002
 30
0.0
 10
-1.2342900000000001
 20
1.7113900000000002
 30
0.0
 10
-1.2342900000000001
 20
1.7113900000000002
 30
0.0
 10
-1.2342900000000001
 20
1.7113900000000002
 30
0.0
 10
-0.6221500000000001
 20
2.4454500000000001
 30
0.0
 10
-0.04049
 20
3.4081100000000002
 30
0.0
 10
0.9729600000000001
 20
3.5478100000000001
 30
0.0
 10
0.9729600000000001
 20
3.5478100000000001
 30
0.0
 10
0.9907400000000001
 20
3.4792300000000003
 30
0.0
 10
0.8662800000000001
 20
3.4970100000000004
 30
0.0
 10
0.8840600000000001
 20
3.4436700000000005
 30
0.0
 10
0.8840600000000001
 20
3.4436700000000005
 30
0.0
 10
1.3412600000000001
 20
3.0245700000000002
 30
0.0
 10
0.8332600000000001
 20
2.4454500000000001
 30
0.0
 10
0.44718
 20
2.1660500000000003
 30
0.0
  0
SPLINE
  5
2C
100
AcDbEntity
  8
Ebene 1
 62
     7
100
AcDbSpline
210
0.0
220
0.0
230
1.0
 70
     1
 71
     3
 72
    12
 73
     8
 74
     0
 42
0.0000000001
 43
0.0000000001
 40
0.0
 40
0.0
 40
0.0
 40
0.0
 40
0.5
 40
0.5
 40
0.5
 40
0.5
 40
1.0
 40
1.0
 40
1.0
 40
1.0
 10
-0.09383
 20
2.6029300000000002
 30
0.0
 10
-0.09383
 20
2.25495
 30
0.0
 10
-0.41387
 20
1.7799700000000001
 30
0.0
 10
-0.82281
 20
1.7977500000000002
 30
0.0
 10
-0.82281
 20
1.7977500000000002
 30
0.0
 10
-0.6932700000000001
 20
2.1482700000000001
 30
0.0
 10
-0.37323
 20
2.3946500000000004
 30
0.0
 10
-0.09383
 20
2.6029300000000002
 30
0.0
  0
SPLINE
  5
2D
100
AcDbEntity
  8
Ebene 1
 62
     7
100
AcDbSpline
210
0.0
220
0.0
230
1.0
 70
     1
 71
     3
 72
    68
 73
    64
 74
     0
 42
0.0000000001
 43
0.0000000001
 40
0.0
 40
0.0
 40
0.0
 40
0.0
 40
0.0625
 40
0.0625
 40
0.0625
 40
0.0625
 40
0.125
 40
0.125
 40
0.125
 40
0.125
 40
0.1875
 40
0.1875
 40
0.1875
 40
0.1875
 40
0.25
 40
0.25
 40
0.25
 40
0.25
 40
0.3125
 40
0.3125
 40
0.3125
 40
0.3125
 40
0.375
 40
0.375
 40
0.375
 40
0.375
 40
0.4375
 40
0.4375
 40
0.4375
 40
0.4375
 40
0.5
 40
0.5
 40
0.5
 40
0.5
 40
0.5625
 40
0.5625
 40
0.5625
 40
0.5625
 40
0.625
 40
0.625
 40
0.625
 40
0.625
 40
0.6875
 40
0.6875
 40
0.6875
 40
0.6875
 40
0.75
 40
0.75
 40
0.75
 40
0.75
 40
0.8125
 40
0.8125
 40
0.8125
 40
0.8125
 40
0.875
 40
0.875
 40
0.875
 40
0.875
 40
0.9375
 40
0.9375
 40
0.9375
 40
0.9375
 40
1.0
 40
1.0
 40
1.0
 40
1.0
 10
2.5477600000000002
 20
1.6758300000000002
 30
0.0
 10
3.0913200000000001
 20
1.57169
 30
0.0
 10
3.9828600000000005
 20
1.5539100000000001
 30
0.0
 10
4.1759000000000004
 20
0.9239900000000001
 30
0.0
 10
4.1759000000000004
 20
0.9239900000000001
 30
0.0
 10
4.12256
 20
0.65983
 30
0.0
 10
3.9473000000000003
 20
0.43377
 30
0.0
 10
3.7390200000000005
 20
0.29153
 30
0.0
 10
3.7390200000000005
 20
0.29153
 30
0.0
 10
3.3885000000000001
 20
0.10103
 30
0.0
 10
2.9871800000000004
 20
0.06547
 30
0.0
 10
2.6011000000000002
 20
-0.03866
 30
0.0
 10
2.6011000000000002
 20
-0.03866
 30
0.0
 10
2.5299800000000001
 20
0.16961
 30
0.0
 10
2.9160600000000003
 20
0.5201300000000001
 30
0.0
 10
2.8119200000000002
 20
0.55569
 30
0.0
 10
2.8119200000000002
 20
0.55569
 30
0.0
 10
2.63666
 20
0.3804300000000001
 30
0.0
 10
2.4969600000000001
 20
0.18739
 30
0.0
 10
2.4080600000000003
 20
-0.03866
 30
0.0
 10
2.4080600000000003
 20
-0.03866
 30
0.0
 10
2.33948
 20
-0.47554
 30
0.0
 10
2.6722200000000003
 20
-0.84384
 30
0.0
 10
2.5833200000000001
 20
-1.2985000000000002
 30
0.0
 10
2.5833200000000001
 20
-1.2985000000000002
 30
0.0
 10
2.3725000000000001
 20
-2.2078200000000003
 30
0.0
 10
1.8137000000000001
 20
-3.0130000000000003
 30
0.0
 10
1.2168000000000001
 20
-3.7292800000000002
 30
0.0
 10
1.2168000000000001
 20
-3.7292800000000002
 30
0.0
 10
1.3057000000000001
 20
-3.8359600000000005
 30
0.0
 10
1.4987400000000002
 20
-3.4676600000000004
 30
0.0
 10
1.65622
 20
-3.4143200000000005
 30
0.0
 10
1.65622
 20
-3.4143200000000005
 30
0.0
 10
1.4098400000000002
 20
-4.0975800000000007
 30
0.0
 10
1.11266
 20
-4.8164000000000007
 30
0.0
 10
0.6046600000000001
 20
-5.3421800000000008
 30
0.0
 10
0.6046600000000001
 20
-5.3421800000000008
 30
0.0
 10
0.7977000000000001
 20
-3.5387800000000005
 30
0.0
 10
1.6206600000000002
 20
-1.9284200000000002
 30
0.0
 10
1.7248000000000001
 20
-0.10724
 30
0.0
 10
1.7248000000000001
 20
-0.10724
 30
0.0
 10
1.6384400000000001
 20
-0.07168
 30
0.0
 10
1.6892400000000001
 20
-0.26472
 30
0.0
 10
1.65622
 20
-0.31806
 30
0.0
 10
1.65622
 20
-0.31806
 30
0.0
 10
1.6206600000000002
 20
-0.6685800000000001
 30
0.0
 10
1.5165200000000001
 20
-1.0191000000000001
 30
0.0
 10
1.35904
 20
-1.33406
 30
0.0
 10
1.35904
 20
-1.33406
 30
0.0
 10
1.27014
 20
-1.0191000000000001
 30
0.0
 10
1.1990200000000002
 20
-0.71938
 30
0.0
 10
1.0771000000000002
 20
-0.4222
 30
0.0
 10
1.0771000000000002
 20
-0.4222
 30
0.0
 10
0.9907400000000001
 20
-0.02088
 30
0.0
 10
0.658
 20
0.16961
 30
0.0
 10
0.34304
 20
0.36265
 30
0.0
 10
0.34304
 20
0.36265
 30
0.0
 10
0.85104
 20
0.7817500000000001
 30
0.0
 10
1.6384400000000001
 20
0.7309500000000001
 30
0.0
 10
2.2683600000000004
 20
0.6064900000000001
 30
0.0
 10
2.2683600000000004
 20
0.6064900000000001
 30
0.0
 10
2.8119200000000002
 20
0.6776100000000001
 30
0.0
 10
2.6874600000000002
 20
1.3075300000000001
 30
0.0
 10
2.5477600000000002
 20
1.6758300000000002
 30
0.0
  0
SPLINE
  5
2E
100
AcDbEntity
  8
Ebene 1
100
AcDbSpline
210
0.0
220
0.0
230
1.0
 70
     1
 71
     3
 72
    24
 73
    20
 74
     0
 42
0.0000000001
 43
0.0000000001
 40
0.0
 40
0.0
 40
0.0
 40
0.0
 40
0.2
 40
0.2
 40
0.2
 40
0.2
 40
0.4
 40
0.4
 40
0.4
 40
0.4
 40
0.6000000000000001
 40
0.6000000000000001
 40
0.6000000000000001
 40
0.6000000000000001
 40
0.8
 40
0.8
 40
0.8
 40
0.8
 40
1.0
 40
1.0
 40
1.0
 40
1.0
 10
1.1660000000000001
 20
1.4142100000000002
 30
0.0
 10
1.3234800000000002
 20
1.4142100000000002
 30
0.0
 10
1.5165200000000001
 20
1.4319900000000001
 30
0.0
 10
1.6384400000000001
 20
1.3430900000000001
 30
0.0
 10
1.6384400000000001
 20
1.3430900000000001
 30
0.0
 10
1.0085200000000001
 20
1.3786500000000002
 30
0.0
 10
0.44718
 20
1.1678300000000001
 30
0.0
 10
0.02808
 20
0.7131700000000001
 30
0.0
 10
0.02808
 20
0.7131700000000001
 30
0.0
 10
0.02808
 20
0.7131700000000001
 30
0.0
 10
0.2008
 20
0.9747900000000001
 30
0.0
 10
0.2008
 20
0.9747900000000001
 30
0.0
 10
0.2008
 20
0.9747900000000001
 30
0.0
 10
0.30748
 20
1.0814700000000002
 30
0.0
 10
0.41162
 20
1.2211700000000001
 30
0.0
 10
0.53354
 20
1.3075300000000001
 30
0.0
 10
0.53354
 20
1.3075300000000001
 30
0.0
 10
0.7265800000000001
 20
1.3964300000000001
 30
0.0
 10
0.9729600000000001
 20
1.3786500000000002
 30
0.0
 10
1.1660000000000001
 20
1.4142100000000002
 30
0.0
  0
SPLINE
  5
2F
100
AcDbEntity
  8
Ebene 1
100
AcDbSpline
210
0.0
220
0.0
230
1.0
 70
     1
 71
     3
 72
    20
 73
    16
 74
     0
 42
0.0000000001
 43
0.0000000001
 40
0.0
 40
0.0
 40
0.0
 40
0.0
 40
0.25
 40
0.25
 40
0.25
 40
0.25
 40
0.5
 40
0.5
 40
0.5
 40
0.5
 40
0.75
 40
0.75
 40
0.75
 40
0.75
 40
1.0
 40
1.0
 40
1.0
 40
1.0
 10
-1.9658100000000001
 20
1.0459100000000001
 30
0.0
 10
-1.9658100000000001
 20
1.0459100000000001
 30
0.0
 10
-1.8946900000000002
 20
1.02813
 30
0.0
 10
-1.8946900000000002
 20
1.02813
 30
0.0
 10
-1.8946900000000002
 20
1.02813
 30
0.0
 10
-2.09789
 20
0.7817500000000001
 30
0.0
 10
-2.30871
 20
0.41599
 30
0.0
 10
-2.1105900000000002
 20
0.10103
 30
0.0
 10
-2.1105900000000002
 20
0.10103
 30
0.0
 10
-2.3112500000000002
 20
0.16961
 30
0.0
 10
-2.3442700000000003
 20
0.43377
 30
0.0
 10
-2.3671300000000004
 20
0.6242700000000001
 30
0.0
 10
-2.3671300000000004
 20
0.6242700000000001
 30
0.0
 10
-2.3671300000000004
 20
0.6242700000000001
 30
0.0
 10
-1.9658100000000001
 20
1.0459100000000001
 30
0.0
 10
-1.9658100000000001
 20
1.0459100000000001
 30
0.0
  0
SPLINE
  5
30
100
AcDbEntity
  8
Ebene 1
100
AcDbSpline
210
0.0
220
0.0
230
1.0
 70
     1
 71
     3
 72
    16
 73
    12
 74
     0
 42
0.0000000001
 43
0.0000000001
 40
0.0
 40
0.0
 40
0.0
 40
0.0
 40
0.3333333333333333
 40
0.3333333333333333
 40
0.3333333333333333
 40
0.3333333333333333
 40
0.6666666666666666
 40
0.6666666666666666
 40
0.6666666666666666
 40
0.6666666666666666
 40
1.0
 40
1.0
 40
1.0
 40
1.0
 10
-1.3714500000000001
 20
1.02813
 30
0.0
 10
-1.0717300000000001
 20
1.0814700000000002
 30
0.0
 10
-0.7948700000000001
 20
0.7995300000000001
 30
0.0
 10
-0.9701300000000001
 20
0.5201300000000001
 30
0.0
 10
-0.9701300000000001
 20
0.5201300000000001
 30
0.0
 10
-1.1606300000000001
 20
0.3804300000000001
 30
0.0
 10
-1.3866900000000002
 20
0.30931
 30
0.0
 10
-1.6152900000000001
 20
0.29153
 30
0.0
 10
-1.6152900000000001
 20
0.29153
 30
0.0
 10
-2.05979
 20
0.46679
 30
0.0
 10
-1.6559300000000001
 20
0.9392300000000001
 30
0.0
 10
-1.3714500000000001
 20
1.02813
 30
0.0
  0
SPLINE
  5
31
100
AcDbEntity
  8
Ebene 1
 62
     7
100
AcDbSpline
210
0.0
220
0.0
230
1.0
 70
     1
 71
     3
 72
     8
 73
     4
 74
     0
 42
0.0000000001
 43
0.0000000001
 40
0.0
 40
0.0
 40
0.0
 40
0.0
 40
1.0
 40
1.0
 40
1.0
 40
1.0
 10
0.27192
 20
0.46679
 30
0.0
 10
0.27192
 20
0.5023500000000001
 30
0.0
 10
0.30748
 20
0.46679
 30
0.0
 10
0.27192
 20
0.46679
 30
0.0
  0
SPLINE
  5
32
100
AcDbEntity
  8
Ebene 1
 62
     7
100
AcDbSpline
210
0.0
220
0.0
230
1.0
 70
     1
 71
     3
 72
    12
 73
     8
 74
     0
 42
0.0000000001
 43
0.0000000001
 40
0.0
 40
0.0
 40
0.0
 40
0.0
 40
0.5
 40
0.5
 40
0.5
 40
0.5
 40
1.0
 40
1.0
 40
1.0
 40
1.0
 10
0.27192
 20
0.46679
 30
0.0
 10
0.27192
 20
0.46679
 30
0.0
 10
0.25414
 20
0.44901
 30
0.0
 10
0.25414
 20
0.44901
 30
0.0
 10
0.25414
 20
0.44901
 30
0.0
 10
0.25414
 20
0.44901
 30
0.0
 10
0.27192
 20
0.46679
 30
0.0
 10
0.27192
 20
0.46679
 30
0.0
  0
SPLINE
  5
33
100
AcDbEntity
  8
Ebene 1
 62
     7
100
AcDbSpline
210
0.0
220
0.0
230
1.0
 70
     1
 71
     3
 72
    12
 73
     8
 74
     0
 42
0.0000000001
 43
0.0000000001
 40
0.0
 40
0.0
 40
0.0
 40
0.0
 40
0.5
 40
0.5
 40
0.5
 40
0.5
 40
1.0
 40
1.0
 40
1.0
 40
1.0
 10
-0.8101100000000001
 20
-1.12324
 30
0.0
 10
-0.41387
 20
-1.6134600000000001
 30
0.0
 10
0.02808
 20
-2.1900400000000002
 30
0.0
 10
0.0103
 20
-2.8733000000000004
 30
0.0
 10
0.0103
 20
-2.8733000000000004
 30
0.0
 10
-0.25131
 20
-2.2941800000000003
 30
0.0
 10
-0.5154700000000001
 20
-1.6998200000000001
 30
0.0
 10
-0.8101100000000001
 20
-1.12324
 30
0.0
  0
SPLINE
  5
34
100
AcDbEntity
  8
Ebene 1
 62
     7
100
AcDbSpline
210
0.0
220
0.0
230
1.0
 70
     1
 71
     3
 72
    28
 73
    24
 74
     0
 42
0.0000000001
 43
0.0000000001
 40
0.0
 40
0.0
 40
0.0
 40
0.0
 40
0.1666666666666667
 40
0.1666666666666667
 40
0.1666666666666667
 40
0.1666666666666667
 40
0.3333333333333333
 40
0.3333333333333333
 40
0.3333333333333333
 40
0.3333333333333333
 40
0.5
 40
0.5
 40
0.5
 40
0.5
 40
0.6666666666666666
 40
0.6666666666666666
 40
0.6666666666666666
 40
0.6666666666666666
 40
0.8333333333333333
 40
0.8333333333333333
 40
0.8333333333333333
 40
0.8333333333333333
 40
1.0
 40
1.0
 40
1.0
 40
1.0
 10
0.6224400000000001
 20
-5.4285400000000008
 30
0.0
 10
0.6046600000000001
 20
-5.5860200000000004
 30
0.0
 10
0.5183000000000001
 20
-5.7435
 30
0.0
 10
0.4294000000000001
 20
-5.8654200000000003
 30
0.0
 10
0.4294000000000001
 20
-5.8654200000000003
 30
0.0
 10
0.2897
 20
-5.3066200000000006
 30
0.0
 10
0.30748
 20
-4.6767000000000003
 30
0.0
 10
0.25414
 20
-4.0798000000000005
 30
0.0
 10
0.25414
 20
-4.0798000000000005
 30
0.0
 10
0.34304
 20
-4.2550600000000003
 30
0.0
 10
0.34304
 20
-4.4836600000000004
 30
0.0
 10
0.34304
 20
-4.6944800000000004
 30
0.0
 10
0.34304
 20
-4.6944800000000004
 30
0.0
 10
0.36082
 20
-4.8519600000000001
 30
0.0
 10
0.37606
 20
-5.0272200000000007
 30
0.0
 10
0.37606
 20
-5.1999400000000007
 30
0.0
 10
0.37606
 20
-5.1999400000000007
 30
0.0
 10
0.37606
 20
-5.1999400000000007
 30
0.0
 10
0.41162
 20
-5.5682400000000003
 30
0.0
 10
0.41162
 20
-5.5682400000000003
 30
0.0
 10
0.41162
 20
-5.5682400000000003
 30
0.0
 10
0.53354
 20
-5.6393600000000008
 30
0.0
 10
0.55132
 20
-5.4818800000000003
 30
0.0
 10
0.6224400000000001
 20
-5.4285400000000008
 30
0.0
  0
ENDSEC
  0
SECTION
  2
OBJECTS
  0
DICTIONARY
  5
19
100
AcDbDictionary
280
     0
281
     1
  3
ACAD_GROUP
350
1A
  3
ACAD_MLINESTYLE
350
1B
  3
ACAD_LAYOUT
350
1E
  3
ACAD_PLOTSETTINGS
350
22
  3
ACAD_PLOTSTYLENAME
350
1F
  3
ACAD_WIPEOUT_VARS
350
23
  0
DICTIONARY
  5
1A
102
{ACAD_REACTORS
330
19
102
}
100
AcDbDictionary
280
     0
281
     1
  0
DICTIONARY
  5
1B
102
{ACAD_REACTORS
330
19
102
}
100
AcDbDictionary
280
     0
281
     1
  3
Standard
350
1C
  0
MLINESTYLE
  5
1C
102
{ACAD_REACTORS
330
1B
102
}
100
AcDbMlineStyle
  2
Standard
 70
     0
  3

 62
     0
 51
90.0
 52
90.0
 71
     2
 49
0.5
 62
   256
  6
BYLAYER
 49
-0.5
 62
   256
  6
BYLAYER
  0
ACDBDICTIONARYWDFLT
  5
1F
102
{ACAD_REACTORS
330
19
102
}
100
AcDbDictionary
281
     1
  3
Normal
350
1D
100
AcDbDictionaryWithDefault
340
1D
  0
ACDBPLACEHOLDER
  5
1D
102
{ACAD_REACTORS
330
1F
102
}
  0
LAYOUT
  5
20
102
{ACAD_REACTORS
330
1E
102
}
100
AcDbPlotSettings
  1

  2

  4

  6

 40
0.0
 41
0.0
 42
0.0
 43
0.0
 44
0.0
 45
0.0
 46
0.0
 47
0.0
 48
0.0
 49
0.0
140
0.0
141
0.0
142
1.0
143
1.0
 70
  1024
 72
     0
 73
     0
 74
     0
  7

 75
     0
147
1.0
148
0.0
149
0.0
100
AcDbLayout
  1
Model
 70
     0
 71
     0
 10
0.0
 20
0.0
 11
0.0
 21
0.0
 12
0.0
 22
0.0
 32
0.0
 14
0.0
 24
0.0
 34
0.0
 15
0.0
 25
0.0
 35
0.0
146
0.0
 13
0.0
 23
0.0
 33
0.0
 16
0.0
 26
0.0
 36
0.0
 17
0.0
 27
0.0
 37
0.0
 76
     0
330
A
331
0
345
0
346
0
  0
LAYOUT
  5
21
102
{ACAD_REACTORS
330
1E
102
}
100
AcDbPlotSettings
  1

  2

  4

  6

 40
0.0
 41
0.0
 42
0.0
 43
0.0
 44
0.0
 45
0.0
 46
0.0
 47
0.0
 48
0.0
 49
0.0
140
0.0
141
0.0
142
1.0
143
1.0
 70
     0
 72
     0
 73
     0
 74
     0
  7

 75
     0
147
1.0
148
0.0
149
0.0
100
AcDbLayout
  1
Layout1
 70
     0
 71
     0
 10
0.0
 20
0.0
 11
0.0
 21
0.0
 12
0.0
 22
0.0
 32
0.0
 14
0.0
 24
0.0
 34
0.0
 15
0.0
 25
0.0
 35
0.0
146
0.0
 13
0.0
 23
0.0
 33
0.0
 16
0.0
 26
0.0
 36
0.0
 17
0.0
 27
0.0
 37
0.0
 76
     0
330
B
331
0
345
0
346
0
  0
DICTIONARY
  5
1E
102
{ACAD_REACTORS
330
19
102
}
100
AcDbDictionary
280
     0
281
     1
  3
Layout1
350
21
  3
Model
350
20
  0
DICTIONARY
  5
22
102
{ACAD_REACTORS
330
19
102
}
100
AcDbDictionary
280
     0
281
     1
  0
WIPEOUTVARIABLES
  5
23
100
AcDbWipeoutVariables
 70
     1
  0
ENDSEC
  0
EOF
