  0
SECTION
  2
HEADER
  9
$ACADVER
  1
AC1015
  9
$ACADMAINTVER
 70
     6
  9
$DWGCODEPAGE
  3
DOS850
  9
$INSBASE
 10
0.0
 20
0.0
 30
0.0
  9
$EXTMIN
 10
-6.16189
 20
-5.0506
 30
1.000000E+20
  9
$EXTMAX
 10
6.16832
 20
5.04404
 30
-1.000000E+20
  9
$LIMMIN
 10
0.0
 20
0.0
  9
$LIMMAX
 10
0.0
 20
0.0
  9
$ORTHOMODE
 70
     0
  9
$REGENMODE
 70
     1
  9
$FILLMODE
 70
     1
  9
$QTEXTMODE
 70
     0
  9
$MIRRTEXT
 70
     1
  9
$LTSCALE
 40
1.0
  9
$ATTMODE
 70
     1
  9
$TEXTSIZE
 40
0.2
  9
$TRACEWID
 40
0.05
  9
$TEXTSTYLE
  7
Standard
  9
$CLAYER
  8
0
  9
$CELTYPE
  6
Continuous
  9
$CECOLOR
 62
   256
  9
$CELTSCALE
 40
1.0
  9
$DISPSILH
 70
     0
  9
$DIMSCALE
 40
1.0
  9
$DIMASZ
 40
0.18
  9
$DIMEXO
 40
0.0625
  9
$DIMDLI
 40
0.38
  9
$DIMRND
 40
0.0
  9
$DIMDLE
 40
0.0
  9
$DIMEXE
 40
0.18
  9
$DIMTP
 40
0.0
  9
$DIMTM
 40
0.0
  9
$DIMTXT
 40
0.18
  9
$DIMCEN
 40
0.09
  9
$DIMTSZ
 40
0.0
  9
$DIMTOL
 70
     0
  9
$DIMLIM
 70
     0
  9
$DIMTIH
 70
     1
  9
$DIMTOH
 70
     1
  9
$DIMSE1
 70
     0
  9
$DIMSE2
 70
     0
  9
$DIMTAD
 70
     0
  9
$DIMZIN
 70
     0
  9
$DIMBLK
  1

  9
$DIMASO
 70
     1
  9
$DIMSHO
 70
     1
  9
$DIMPOST
  1

  9
$DIMAPOST
  1

  9
$DIMALT
 70
     0
  9
$DIMALTD
 70
     2
  9
$DIMALTF
 40
25.4
  9
$DIMLFAC
 40
1.0
  9
$DIMTOFL
 70
     0
  9
$DIMTVP
 40
0.0
  9
$DIMTIX
 70
     0
  9
$DIMSOXD
 70
     0
  9
$DIMSAH
 70
     0
  9
$DIMBLK1
  1

  9
$DIMBLK2
  1

  9
$DIMSTYLE
  2
Standard
  9
$DIMCLRD
 70
     0
  9
$DIMCLRE
 70
     0
  9
$DIMCLRT
 70
     0
  9
$DIMTFAC
 40
1.0
  9
$DIMGAP
 40
0.09
  9
$DIMJUST
 70
     0
  9
$DIMSD1
 70
     0
  9
$DIMSD2
 70
     0
  9
$DIMTOLJ
 70
     1
  9
$DIMTZIN
 70
     0
  9
$DIMALTZ
 70
     0
  9
$DIMALTTZ
 70
     0
  9
$DIMUPT
 70
     0
  9
$DIMDEC
 70
     4
  9
$DIMTDEC
 70
     4
  9
$DIMALTU
 70
     2
  9
$DIMALTTD
 70
     2
  9
$DIMTXSTY
  7
Standard
  9
$DIMAUNIT
 70
     0
  9
$DIMADEC
 70
     0
  9
$DIMALTRND
 40
0.0
  9
$DIMAZIN
 70
     0
  9
$DIMDSEP
 70
     0
  9
$DIMATFIT
 70
     3
  9
$DIMFRAC
 70
     0
  9
$DIMLDRBLK
  1

  9
$DIMLUNIT
 70
     2
  9
$DIMLWD
 70
     0
  9
$DIMLWE
 70
     0
  9
$DIMTMOVE
 70
     0
  9
$LUNITS
 70
     2
  9
$LUPREC
 70
     4
  9
$SKETCHINC
 40
0.1
  9
$FILLETRAD
 40
0.0
  9
$AUNITS
 70
     0
  9
$AUPREC
 70
     0
  9
$MENU
  1
acad
  9
$ELEVATION
 40
0.0
  9
$PELEVATION
 40
0.0
  9
$THICKNESS
 40
0.0
  9
$LIMCHECK
 70
     0
  9
$CHAMFERA
 40
0.0
  9
$CHAMFERB
 40
0.0
  9
$CHAMFERC
 40
0.0
  9
$CHAMFERD
 40
0.0
  9
$SKPOLY
 70
     0
  9
$TDCREATE
 40
0.000000000
  9
$TDUCREATE
 40
0.000000000
  9
$TDUPDATE
 40
0.000000000
  9
$TDUUPDATE
 40
0.000000000
  9
$TDINDWG
 40
0.0000000000
  9
$TDUSRTIMER
 40
0.0000000000
  9
$USRTIMER
 70
     1
  9
$ANGBASE
 50
0.0
  9
$ANGDIR
 70
     0
  9
$PDMODE
 70
     0
  9
$PDSIZE
 40
0.0
  9
$PLINEWID
 40
0.0
  9
$SPLFRAME
 70
     0
  9
$SPLINETYPE
 70
     6
  9
$SPLINESEGS
 70
     8
  9
$HANDSEED
  5
33
  9
$SURFTAB1
 70
     6
  9
$SURFTAB2
 70
     6
  9
$SURFTYPE
 70
     6
  9
$SURFU
 70
     6
  9
$SURFV
 70
     6
  9
$UCSBASE
  2

  9
$UCSNAME
  2

  9
$UCSORG
 10
0.0
 20
0.0
 30
0.0
  9
$UCSXDIR
 10
1.0
 20
0.0
 30
0.0
  9
$UCSYDIR
 10
0.0
 20
1.0
 30
0.0
  9
$UCSORTHOREF
  2

  9
$UCSORTHOVIEW
 70
     0
  9
$UCSORGTOP
 10
0.0
 20
0.0
 30
0.0
  9
$UCSORGBOTTOM
 10
0.0
 20
0.0
 30
0.0
  9
$UCSORGLEFT
 10
0.0
 20
0.0
 30
0.0
  9
$UCSORGRIGHT
 10
0.0
 20
0.0
 30
0.0
  9
$UCSORGFRONT
 10
0.0
 20
0.0
 30
0.0
  9
$UCSORGBACK
 10
0.0
 20
0.0
 30
0.0
  9
$PUCSBASE
  2

  9
$PUCSNAME
  2

  9
$PUCSORG
 10
0.0
 20
0.0
 30
0.0
  9
$PUCSXDIR
 10
1.0
 20
0.0
 30
0.0
  9
$PUCSYDIR
 10
0.0
 20
1.0
 30
0.0
  9
$PUCSORTHOREF
  2

  9
$PUCSORTHOVIEW
 70
     0
  9
$PUCSORGTOP
 10
0.0
 20
0.0
 30
0.0
  9
$PUCSORGBOTTOM
 10
0.0
 20
0.0
 30
0.0
  9
$PUCSORGLEFT
 10
0.0
 20
0.0
 30
0.0
  9
$PUCSORGRIGHT
 10
0.0
 20
0.0
 30
0.0
  9
$PUCSORGFRONT
 10
0.0
 20
0.0
 30
0.0
  9
$PUCSORGBACK
 10
0.0
 20
0.0
 30
0.0
  9
$USERI1
 70
     0
  9
$USERI2
 70
     0
  9
$USERI3
 70
     0
  9
$USERI4
 70
     0
  9
$USERI5
 70
     0
  9
$USERR1
 40
0.0
  9
$USERR2
 40
0.0
  9
$USERR3
 40
0.0
  9
$USERR4
 40
0.0
  9
$USERR5
 40
0.0
  9
$WORLDVIEW
 70
     1
  9
$SHADEDGE
 70
     3
  9
$SHADEDIF
 70
    70
  9
$TILEMODE
 70
     1
  9
$MAXACTVP
 70
    16
  9
$PINSBASE
 10
0.0
 20
0.0
 30
0.0
  9
$PLIMCHECK
 70
     0
  9
$PEXTMIN
 10
1.000000E+20
 20
1.000000E+20
 30
1.000000E+20
  9
$PEXTMAX
 10
-1.000000E+20
 20
-1.000000E+20
 30
-1.000000E+20
  9
$PLIMMIN
 10
0.0
 20
0.0
  9
$PLIMMAX
 10
12.0
 20
9.0
  9
$UNITMODE
 70
     0
  9
$VISRETAIN
 70
     0
  9
$PLINEGEN
 70
     1
  9
$PSLTSCALE
 70
     0
  9
$TREEDEPTH
 70
  3020
  9
$CMLSTYLE
  2
Standard
  9
$CMLJUST
 70
     0
  9
$CMLSCALE
 40
1.0
  9
$PROXYGRAPHICS
 70
     0
  9
$MEASUREMENT
 70
     0
  9
$CELWEIGHT
370
     0
  9
$ENDCAPS
280
     0
  9
$JOINSTYLE
280
     0
  9
$LWDISPLAY
290
     0
  9
$INSUNITS
 70
     5
  9
$HYPERLINKBASE
  1

  9
$XEDIT
290
     1
  9
$CEPSNTYPE
380
     0
  9
$PSTYLEMODE
290
     1
  9
$FINGERPRINTGUID
  2

  9
$VERSIONGUID
  2

  9
$EXTNAMES
290
     1
  9
$PSVPSCALE
 40
0.0
  0
ENDSEC
  0
SECTION
  2
CLASSES
  0
CLASS
  1
LWPOLYLINE
  2
AcDbPolyline
  3
AutoCAD 2000
 90
    32768
280
     0
281
     1
  0
CLASS
  1
IMAGE
  2
AcDbRasterImage
  3
ISM
 90
    32895
280
     0
281
     1
  0
CLASS
  1
OLE2FRAME
  2
AcDbOle2Frame
  3
AutoCAD 2000
 90
    32768
280
     0
281
     1
  0
CLASS
  1
HATCH
  2
AcDbHatch
  3
AutoCAD 2000
 90
    32768
280
     0
281
     1
  0
CLASS
  1
DICTIONARYVAR
  2
AcDbDictionaryVar
  3
AutoCAD 2000
 90
    32768
280
     0
281
     0
  0
CLASS
  1
RASTERVARIABLES
  2
AcDbRasterVariables
  3
ISM
 90
    32768
280
     0
281
     0
  0
CLASS
  1
IMAGEDEF
  2
AcDbRasterImageDef
  3
ISM
 90
    32768
280
     0
281
     0
  0
CLASS
  1
IMAGEDEF_REACTOR
  2
AcDbRasterImageDefReactor
  3
ISM
 90
    32769
280
     0
281
     0
  0
CLASS
  1
IDBUFFER
  2
AcDbIdBuffer
  3
AutoCAD 2000
 90
    32768
280
     0
281
     0
  0
CLASS
  1
SPATIAL_FILTER
  2
AcDbSpatialFilter
  3
AutoCAD 2000
 90
    32768
280
     0
281
     0
  0
CLASS
  1
XRECORD
  2
AcDbXrecord
  3
AutoCAD 2000
 90
    32768
280
     0
281
     0
  0
CLASS
  1
SORTENTSTABLE
  2
AcDbSortentsTable
  3
AutoCAD 2000
 90
    32768
280
     0
281
     0
  0
CLASS
  1
LAYER_INDEX
  2
AcDbLayerIndex
  3
AutoCAD 2000
 90
    32768
280
     0
281
     0
  0
CLASS
  1
SPATIAL_INDEX
  2
AcDbSpatialIndex
  3
AutoCAD 2000
 90
    32768
280
     0
281
     0
  0
CLASS
  1
OBJECT_PTR
  2
CAseDLPNTableRecord
  3
"ASE-LPNTableRecord"
 90
    32769
280
     0
281
     0
  0
CLASS
  1
LAYOUT
  2
AcDbLayout
  3
AutoCAD 2000
 90
        0
280
     0
281
     0
  0
CLASS
  1
PLOTSETTINGS
  2
AcDbPlotSettings
  3
AutoCAD 2000
 90
    32768
280
     0
281
     0
  0
CLASS
  1
ACDBDICTIONARYWDFLT
  2
AcDbDictionaryWithDefault
  3
AutoCAD 2000
 90
        0
280
     0
281
     0
  0
CLASS
  1
ACDBPLACEHOLDER
  2
AcDbPlaceHolder
  3
AutoCAD 2000
 90
        0
280
     0
281
     0
  0
CLASS
  1
VBA_PROJECT
  2
AcDbVbaProject
  3
acadvba
 90
    32768
280
     0
281
     0
  0
CLASS
  1
WIPEOUT
  2
AcDbWipeout
  3
WipeOut|AutoCAD Express Tool|expresstools@autodesk.com
 90
    32895
280
     0
281
     1
  0
CLASS
  1
WIPEOUTVARIABLES
  2
AcDbWipeoutVariables
  3
WipeOut|AutoCAD Express Tool|expresstools@autodesk.com
 90
        0
280
     0
281
     0
  0
CLASS
  1
RTEXT
  2
RText
  3
RText|AutoCAD Express Tool|expresstools@autodesk.com
 90
    32768
280
     0
281
     1
  0
CLASS
  1
ARCALIGNEDTEXT
  2
AcDbArcAlignedText
  3
ATEXT|AutoCAD Express Tool|expresstools@autodesk.com
 90
    32768
280
     0
281
     1
  0
ENDSEC
  0
SECTION
  2
TABLES
  0
TABLE
  2
VPORT
  5
7
100
AcDbSymbolTable
 70
     1
  0
VPORT
  5
15
100
AcDbSymbolTableRecord
100
AcDbViewportTableRecord
  2
*ACTIVE
 70
     0
 10
0.0
 20
0.0
 11
1.0
 21
1.0
 12
6.591288
 22
4.579184
 13
0.0
 23
0.0
 14
1.0
 24
1.0
 15
0.0
 25
0.0
 16
0.0
 26
0.0
 36
1.0
 17
0.0
 27
0.0
 37
0.0
 40
9.158369
 41
0.688564
 42
50.0
 43
0.0
 44
0.0
 50
0.0
 51
0.0
 71
     0
 72
   100
 73
     1
 74
     1
 75
     0
 76
     0
 77
     0
 78
     0
281
     0
 65
     0
110
0.0
120
0.0
130
0.0
111
1.0
121
0.0
131
0.0
112
0.0
122
1.0
132
0.0
345
0
346
0
 79
     0
146
0.0
  0
ENDTAB
  0
TABLE
  2
LTYPE
  5
4
100
AcDbSymbolTable
 70
     3
  0
LTYPE
  5
11
100
AcDbSymbolTableRecord
100
AcDbLinetypeTableRecord
  2
ByBlock
 70
    64
  3

 72
    65
 73
     0
 40
0.0
  0
LTYPE
  5
12
100
AcDbSymbolTableRecord
100
AcDbLinetypeTableRecord
  2
ByLayer
 70
    64
  3

 72
    65
 73
     0
 40
0.0
  0
LTYPE
  5
13
100
AcDbSymbolTableRecord
100
AcDbLinetypeTableRecord
  2
Continuous
 70
    64
  3
Solid line
 72
    65
 73
     0
 40
0.0
  0
ENDTAB
  0
TABLE
  2
LAYER
  5
2
100
AcDbSymbolTable
 70
     2
  0
LAYER
  5
14
100
AcDbSymbolTableRecord
100
AcDbLayerTableRecord
  2
0
 70
     0
 62
     7
  6
Continuous
290
     1
370
    -3
390
1D
  0
LAYER
  5
24
100
AcDbSymbolTableRecord
100
AcDbLayerTableRecord
  2
Ebene 1
 70
     0
 62
     7
  6
Continuous
290
     1
370
    -3
390
1F
  0
ENDTAB
  0
TABLE
  2
STYLE
  5
3
100
AcDbSymbolTable
 70
     1
  0
STYLE
  5
17
100
AcDbSymbolTableRecord
100
AcDbTextStyleTableRecord
  2
Standard
 70
     0
 40
0.0
 41
1.0
 50
0.0
 71
     0
 42
0.0
  3
txt
  4

  0
ENDTAB
  0
TABLE
  2
VIEW
  5
5
100
AcDbSymbolTable
 70
     0
  0
ENDTAB
  0
TABLE
  2
UCS
  5
6
100
AcDbSymbolTable
 70
     0
  0
ENDTAB
  0
TABLE
  2
APPID
  5
8
100
AcDbSymbolTable
 70
     1
  0
APPID
  5
16
100
AcDbSymbolTableRecord
100
AcDbRegAppTableRecord
  2
ACAD
 70
     0
  0
ENDTAB
  0
TABLE
  2
DIMSTYLE
  5
9
100
AcDbSymbolTable
 70
     1
100
AcDbDimStyleTable
 71
     0
  0
DIMSTYLE
105
18
100
AcDbSymbolTableRecord
100
AcDbDimStyleTableRecord
  2
Standard
 70
     0
  3

  4

 40
1.0
 41
0.18
 42
0.0625
 43
0.38
 44
0.18
 45
0.0
 46
0.0
 47
0.0
 48
0.0
 71
     0
 72
     0
 73
     1
 74
     1
 75
     0
 76
     0
 77
     0
 78
     0
 79
     0
140
0.18
141
0.09
142
0.0
143
25.4
144
1.0
145
0.0
146
1.0
147
0.09
148
0.0
170
     0
171
     2
172
     0
173
     0
174
     0
175
     0
176
     0
177
     0
178
     0
179
     0
271
     4
272
     4
273
     2
274
     2
275
     0
276
     0
277
     2
278
    46
279
     0
280
     0
281
     0
282
     0
283
     1
284
     0
285
     0
286
     0
288
     0
340
17
341
0
342
0
343
0
344
0
371
    -2
372
    -2
  0
ENDTAB
  0
TABLE
  2
BLOCK_RECORD
  5
1
100
AcDbSymbolTable
 70
     0
  0
BLOCK_RECORD
  5
A
100
AcDbSymbolTableRecord
100
AcDbBlockTableRecord
  2
*MODEL_SPACE
340
20
  0
BLOCK_RECORD
  5
B
100
AcDbSymbolTableRecord
100
AcDbBlockTableRecord
  2
*PAPER_SPACE
340
21
  0
ENDTAB
  0
ENDSEC
  0
SECTION
  2
BLOCKS
  0
BLOCK
  5
D
100
AcDbEntity
  8
0
100
AcDbBlockBegin
  2
*MODEL_SPACE
 70
     0
 10
0.0
 20
0.0
 30
0.0
  3
*MODEL_SPACE
  1

  0
ENDBLK
  5
E
100
AcDbEntity
  8
0
100
AcDbBlockEnd
  0
BLOCK
  5
F
100
AcDbEntity
 67
     1
  8
0
100
AcDbBlockBegin
  2
*PAPER_SPACE
 70
     0
 10
0.0
 20
0.0
 30
0.0
  3
*PAPER_SPACE
  1

  0
ENDBLK
  5
10
100
AcDbEntity
 67
     1
  8
0
100
AcDbBlockEnd
  0
ENDSEC
  0
SECTION
  2
ENTITIES
  0
SPLINE
  5
25
100
AcDbEntity
  8
Ebene 1
100
AcDbSpline
210
0.0
220
0.0
230
1.0
 70
     1
 71
     3
 72
    96
 73
    92
 74
     0
 42
0.0000000001
 43
0.0000000001
 40
0.0
 40
0.0
 40
0.0
 40
0.0
 40
0.0434782608695652
 40
0.0434782608695652
 40
0.0434782608695652
 40
0.0434782608695652
 40
0.0869565217391304
 40
0.0869565217391304
 40
0.0869565217391304
 40
0.0869565217391304
 40
0.1304347826086957
 40
0.1304347826086957
 40
0.1304347826086957
 40
0.1304347826086957
 40
0.1739130434782609
 40
0.1739130434782609
 40
0.1739130434782609
 40
0.1739130434782609
 40
0.2173913043478261
 40
0.2173913043478261
 40
0.2173913043478261
 40
0.2173913043478261
 40
0.2608695652173913
 40
0.2608695652173913
 40
0.2608695652173913
 40
0.2608695652173913
 40
0.3043478260869565
 40
0.3043478260869565
 40
0.3043478260869565
 40
0.3043478260869565
 40
0.3478260869565217
 40
0.3478260869565217
 40
0.3478260869565217
 40
0.3478260869565217
 40
0.3913043478260869
 40
0.3913043478260869
 40
0.3913043478260869
 40
0.3913043478260869
 40
0.4347826086956521
 40
0.4347826086956521
 40
0.4347826086956521
 40
0.4347826086956521
 40
0.4782608695652173
 40
0.4782608695652173
 40
0.4782608695652173
 40
0.4782608695652173
 40
0.5217391304347825
 40
0.5217391304347825
 40
0.5217391304347825
 40
0.5217391304347825
 40
0.5652173913043477
 40
0.5652173913043477
 40
0.5652173913043477
 40
0.5652173913043477
 40
0.6086956521739129
 40
0.6086956521739129
 40
0.6086956521739129
 40
0.6086956521739129
 40
0.6521739130434781
 40
0.6521739130434781
 40
0.6521739130434781
 40
0.6521739130434781
 40
0.6956521739130432
 40
0.6956521739130432
 40
0.6956521739130432
 40
0.6956521739130432
 40
0.7391304347826084
 40
0.7391304347826084
 40
0.7391304347826084
 40
0.7391304347826084
 40
0.7826086956521736
 40
0.7826086956521736
 40
0.7826086956521736
 40
0.7826086956521736
 40
0.8260869565217388
 40
0.8260869565217388
 40
0.8260869565217388
 40
0.8260869565217388
 40
0.869565217391304
 40
0.869565217391304
 40
0.869565217391304
 40
0.869565217391304
 40
0.9130434782608692
 40
0.9130434782608692
 40
0.9130434782608692
 40
0.9130434782608692
 40
0.9565217391304344
 40
0.9565217391304344
 40
0.9565217391304344
 40
0.9565217391304344
 40
1.0
 40
1.0
 40
1.0
 40
1.0
 10
1.6181200000000002
 20
4.6552500000000006
 30
0.0
 10
2.6671400000000003
 20
5.01593
 30
0.0
 10
3.7593400000000003
 20
5.1962700000000002
 30
0.0
 10
4.7982000000000005
 20
4.8838500000000007
 30
0.0
 10
4.7982000000000005
 20
4.8838500000000007
 30
0.0
 10
6.7336800000000006
 20
4.0837500000000002
 30
0.0
 10
6.5762000000000009
 20
0.7538100000000001
 30
0.0
 10
4.5975400000000004
 20
0.19501
 30
0.0
 10
4.5975400000000004
 20
0.19501
 30
0.0
 10
4.5975400000000004
 20
0.19501
 30
0.0
 10
4.1073200000000005
 20
-0.07168
 30
0.0
 10
4.1073200000000005
 20
-0.07168
 30
0.0
 10
4.1073200000000005
 20
-0.07168
 30
0.0
 10
4.1403400000000001
 20
-0.43998
 30
0.0
 10
4.0184200000000008
 20
-0.80066
 30
0.0
 10
3.7974400000000004
 20
-1.12324
 30
0.0
 10
3.7974400000000004
 20
-1.12324
 30
0.0
 10
3.6552000000000002
 20
-1.29342
 30
0.0
 10
3.4774000000000003
 20
-1.4356600000000002
 30
0.0
 10
3.2919800000000001
 20
-1.5652000000000001
 30
0.0
 10
3.2919800000000001
 20
-1.5652000000000001
 30
0.0
 10
0.82818
 20
-2.6447000000000003
 30
0.0
 10
-1.8921500000000002
 20
-3.3863800000000004
 30
0.0
 10
-4.01051
 20
-5.0272200000000007
 30
0.0
 10
-4.01051
 20
-5.0272200000000007
 30
0.0
 10
-4.35595
 20
-5.0272200000000007
 30
0.0
 10
-4.7140900000000006
 20
-5.0831000000000008
 30
0.0
 10
-5.0493700000000006
 20
-5.0221400000000003
 30
0.0
 10
-5.0493700000000006
 20
-5.0221400000000003
 30
0.0
 10
-4.2543500000000005
 20
-4.7275
 30
0.0
 10
-3.6828500000000002
 20
-3.9832800000000002
 30
0.0
 10
-2.9792700000000001
 20
-3.5083000000000002
 30
0.0
 10
-2.9792700000000001
 20
-3.5083000000000002
 30
0.0
 10
-2.1436100000000002
 20
-2.8479000000000001
 30
0.0
 10
-1.3028700000000002
 20
-2.2027400000000004
 30
0.0
 10
-0.34021
 20
-1.7277600000000002
 30
0.0
 10
-0.34021
 20
-1.7277600000000002
 30
0.0
 10
-0.32751
 20
-1.5829800000000001
 30
0.0
 10
-0.36815
 20
-1.4280400000000002
 30
0.0
 10
-0.23607
 20
-1.33152
 30
0.0
 10
-0.23607
 20
-1.33152
 30
0.0
 10
-0.13701
 20
-1.2985000000000002
 30
0.0
 10
-0.08113
 20
-1.1816600000000002
 30
0.0
 10
0.0357
 20
-1.2426200000000001
 30
0.0
 10
0.0357
 20
-1.2426200000000001
 30
0.0
 10
0.22874
 20
-1.4483600000000001
 30
0.0
 10
0.10174
 20
-0.9556000000000001
 30
0.0
 10
0.31764
 20
-0.9429000000000001
 30
0.0
 10
0.31764
 20
-0.9429000000000001
 30
0.0
 10
0.42686
 20
-1.5525000000000002
 30
0.0
 10
0.9577200000000001
 20
-0.9200400000000001
 30
0.0
 10
0.8154800000000001
 20
-0.5593600000000001
 30
0.0
 10
0.8154800000000001
 20
-0.5593600000000001
 30
0.0
 10
0.5640200000000001
 20
-0.4171200000000001
 30
0.0
 10
0.28462
 20
-0.22408
 30
0.0
 10
-0.02017
 20
-0.26726
 30
0.0
 10
-0.02017
 20
-0.26726
 30
0.0
 10
-0.4824500000000001
 20
-0.38664
 30
0.0
 10
-0.8405900000000001
 20
-0.7397
 30
0.0
 10
-0.9396500000000001
 20
-1.20452
 30
0.0
 10
-0.9396500000000001
 20
-1.20452
 30
0.0
 10
-1.04633
 20
-1.1969000000000001
 30
0.0
 10
-1.08951
 20
-1.0267200000000001
 30
0.0
 10
-1.12507
 20
-0.9403600000000001
 30
0.0
 10
-1.12507
 20
-0.9403600000000001
 30
0.0
 10
-1.1961900000000001
 20
-1.0902200000000002
 30
0.0
 10
-1.0920500000000002
 20
-1.25278
 30
0.0
 10
-1.3104900000000002
 20
-1.3645400000000001
 30
0.0
 10
-1.3104900000000002
 20
-1.3645400000000001
 30
0.0
 10
-1.50099
 20
-1.4102600000000001
 30
0.0
 10
-1.8362700000000001
 20
-1.4483600000000001
 30
0.0
 10
-1.8210300000000001
 20
-1.16388
 30
0.0
 10
-1.8210300000000001
 20
-1.16388
 30
0.0
 10
-3.3323300000000002
 20
-1.6871200000000002
 30
0.0
 10
-4.8233100000000002
 20
-2.1900400000000002
 30
0.0
 10
-6.1618900000000005
 20
-3.0079200000000004
 30
0.0
 10
-6.1618900000000005
 20
-3.0079200000000004
 30
0.0
 10
-6.0196500000000004
 20
-0.9733800000000001
 30
0.0
 10
-3.8835100000000002
 20
-0.08184
 30
0.0
 10
-2.6719300000000001
 20
1.2414900000000002
 30
0.0
 10
-2.6719300000000001
 20
1.2414900000000002
 30
0.0
 10
-2.3290300000000004
 20
1.4345300000000001
 30
0.0
 10
-1.9759700000000002
 20
1.6174100000000002
 30
0.0
 10
-1.58989
 20
1.7520300000000002
 30
0.0
 10
-1.58989
 20
1.7520300000000002
 30
0.0
 10
-1.58989
 20
1.9628500000000002
 30
0.0
 10
-1.5721100000000001
 20
2.17875
 30
0.0
 10
-1.4882900000000001
 20
2.3743300000000001
 30
0.0
 10
-1.4882900000000001
 20
2.3743300000000001
 30
0.0
 10
-0.53325
 20
3.2404700000000002
 30
0.0
 10
0.3887600000000001
 20
4.1929700000000008
 30
0.0
 10
1.6181200000000002
 20
4.6552500000000006
 30
0.0
  0
SPLINE
  5
26
100
AcDbEntity
  8
Ebene 1
 62
     7
100
AcDbSpline
210
0.0
220
0.0
230
1.0
 70
     1
 71
     3
 72
   168
 73
   164
 74
     0
 42
0.0000000001
 43
0.0000000001
 40
0.0
 40
0.0
 40
0.0
 40
0.0
 40
0.024390243902439
 40
0.024390243902439
 40
0.024390243902439
 40
0.024390243902439
 40
0.0487804878048781
 40
0.0487804878048781
 40
0.0487804878048781
 40
0.0487804878048781
 40
0.0731707317073171
 40
0.0731707317073171
 40
0.0731707317073171
 40
0.0731707317073171
 40
0.0975609756097561
 40
0.0975609756097561
 40
0.0975609756097561
 40
0.0975609756097561
 40
0.1219512195121951
 40
0.1219512195121951
 40
0.1219512195121951
 40
0.1219512195121951
 40
0.1463414634146341
 40
0.1463414634146341
 40
0.1463414634146341
 40
0.1463414634146341
 40
0.1707317073170732
 40
0.1707317073170732
 40
0.1707317073170732
 40
0.1707317073170732
 40
0.1951219512195122
 40
0.1951219512195122
 40
0.1951219512195122
 40
0.1951219512195122
 40
0.2195121951219512
 40
0.2195121951219512
 40
0.2195121951219512
 40
0.2195121951219512
 40
0.2439024390243902
 40
0.2439024390243902
 40
0.2439024390243902
 40
0.2439024390243902
 40
0.2682926829268292
 40
0.2682926829268292
 40
0.2682926829268292
 40
0.2682926829268292
 40
0.2926829268292683
 40
0.2926829268292683
 40
0.2926829268292683
 40
0.2926829268292683
 40
0.3170731707317073
 40
0.3170731707317073
 40
0.3170731707317073
 40
0.3170731707317073
 40
0.3414634146341464
 40
0.3414634146341464
 40
0.3414634146341464
 40
0.3414634146341464
 40
0.3658536585365854
 40
0.3658536585365854
 40
0.3658536585365854
 40
0.3658536585365854
 40
0.3902439024390245
 40
0.3902439024390245
 40
0.3902439024390245
 40
0.3902439024390245
 40
0.4146341463414635
 40
0.4146341463414635
 40
0.4146341463414635
 40
0.4146341463414635
 40
0.4390243902439026
 40
0.4390243902439026
 40
0.4390243902439026
 40
0.4390243902439026
 40
0.4634146341463416
 40
0.4634146341463416
 40
0.4634146341463416
 40
0.4634146341463416
 40
0.4878048780487806
 40
0.4878048780487806
 40
0.4878048780487806
 40
0.4878048780487806
 40
0.5121951219512196
 40
0.5121951219512196
 40
0.5121951219512196
 40
0.5121951219512196
 40
0.5365853658536587
 40
0.5365853658536587
 40
0.5365853658536587
 40
0.5365853658536587
 40
0.5609756097560977
 40
0.5609756097560977
 40
0.5609756097560977
 40
0.5609756097560977
 40
0.5853658536585368
 40
0.5853658536585368
 40
0.5853658536585368
 40
0.5853658536585368
 40
0.6097560975609758
 40
0.6097560975609758
 40
0.6097560975609758
 40
0.6097560975609758
 40
0.6341463414634149
 40
0.6341463414634149
 40
0.6341463414634149
 40
0.6341463414634149
 40
0.6585365853658539
 40
0.6585365853658539
 40
0.6585365853658539
 40
0.6585365853658539
 40
0.682926829268293
 40
0.682926829268293
 40
0.682926829268293
 40
0.682926829268293
 40
0.707317073170732
 40
0.707317073170732
 40
0.707317073170732
 40
0.707317073170732
 40
0.7317073170731711
 40
0.7317073170731711
 40
0.7317073170731711
 40
0.7317073170731711
 40
0.7560975609756101
 40
0.7560975609756101
 40
0.7560975609756101
 40
0.7560975609756101
 40
0.7804878048780491
 40
0.7804878048780491
 40
0.7804878048780491
 40
0.7804878048780491
 40
0.8048780487804882
 40
0.8048780487804882
 40
0.8048780487804882
 40
0.8048780487804882
 40
0.8292682926829272
 40
0.8292682926829272
 40
0.8292682926829272
 40
0.8292682926829272
 40
0.8536585365853663
 40
0.8536585365853663
 40
0.8536585365853663
 40
0.8536585365853663
 40
0.8780487804878053
 40
0.8780487804878053
 40
0.8780487804878053
 40
0.8780487804878053
 40
0.9024390243902444
 40
0.9024390243902444
 40
0.9024390243902444
 40
0.9024390243902444
 40
0.9268292682926834
 40
0.9268292682926834
 40
0.9268292682926834
 40
0.9268292682926834
 40
0.9512195121951225
 40
0.9512195121951225
 40
0.9512195121951225
 40
0.9512195121951225
 40
0.9756097560975615
 40
0.9756097560975615
 40
0.9756097560975615
 40
0.9756097560975615
 40
1.0
 40
1.0
 40
1.0
 40
1.0
 10
1.6613000000000002
 20
4.5688900000000006
 30
0.0
 10
2.03722
 20
4.7035100000000005
 30
0.0
 10
2.4182200000000003
 20
4.7416100000000005
 30
0.0
 10
2.8068400000000002
 20
4.79495
 30
0.0
 10
2.8068400000000002
 20
4.79495
 30
0.0
 10
3.1294200000000001
 20
4.84321
 30
0.0
 10
3.4748600000000005
 20
4.8559100000000006
 30
0.0
 10
3.7695000000000003
 20
4.8076500000000006
 30
0.0
 10
3.7695000000000003
 20
4.8076500000000006
 30
0.0
 10
6.0301000000000009
 20
5.1505500000000008
 30
0.0
 10
6.9699000000000009
 20
1.27451
 30
0.0
 10
4.6102400000000001
 20
0.8985900000000001
 30
0.0
 10
4.6102400000000001
 20
0.8985900000000001
 30
0.0
 10
4.5289600000000005
 20
0.9290700000000001
 30
0.0
 10
4.3994200000000001
 20
0.9443100000000001
 30
0.0
 10
4.37148
 20
1.0332100000000002
 30
0.0
 10
4.37148
 20
1.0332100000000002
 30
0.0
 10
4.7474000000000007
 20
1.3913500000000001
 30
0.0
 10
4.9074200000000001
 20
2.0720700000000001
 30
0.0
 10
4.3587800000000003
 20
2.34639
 30
0.0
 10
4.3587800000000003
 20
2.34639
 30
0.0
 10
3.8838000000000004
 20
2.4327500000000004
 30
0.0
 10
3.4977200000000002
 20
2.0593700000000004
 30
0.0
 10
3.1599000000000004
 20
1.7977500000000002
 30
0.0
 10
3.1599000000000004
 20
1.7977500000000002
 30
0.0
 10
3.0659200000000002
 20
1.73933
 30
0.0
 10
2.9338400000000004
 20
1.6682100000000002
 30
0.0
 10
2.8170000000000002
 20
1.6859900000000001
 30
0.0
 10
2.8170000000000002
 20
1.6859900000000001
 30
0.0
 10
2.6036400000000004
 20
1.7875900000000002
 30
0.0
 10
2.46394
 20
2.0517500000000002
 30
0.0
 10
2.4537800000000001
 20
2.3006700000000002
 30
0.0
 10
2.4537800000000001
 20
2.3006700000000002
 30
0.0
 10
2.8601800000000002
 20
2.7807300000000001
 30
0.0
 10
3.1878400000000005
 20
3.2912700000000004
 30
0.0
 10
2.5045800000000003
 20
3.6773500000000001
 30
0.0
 10
2.5045800000000003
 20
3.6773500000000001
 30
0.0
 10
2.7331800000000004
 20
4.0989900000000006
 30
0.0
 10
3.3478600000000003
 20
4.1116900000000003
 30
0.0
 10
3.7695000000000003
 20
4.1066100000000008
 30
0.0
 10
3.7695000000000003
 20
4.1066100000000008
 30
0.0
 10
4.1073200000000005
 20
4.1015300000000003
 30
0.0
 10
4.5137200000000002
 20
3.8830900000000002
 30
0.0
 10
4.7829600000000001
 20
3.8703900000000004
 30
0.0
 10
4.7829600000000001
 20
3.8703900000000004
 30
0.0
 10
4.7829600000000001
 20
3.8703900000000004
 30
0.0
 10
4.0870000000000006
 20
4.1675700000000004
 30
0.0
 10
4.0870000000000006
 20
4.1675700000000004
 30
0.0
 10
4.0870000000000006
 20
4.1675700000000004
 30
0.0
 10
3.4164400000000001
 20
4.3326700000000002
 30
0.0
 10
2.5350600000000001
 20
4.37331
 30
0.0
 10
2.0042
 20
3.8399100000000002
 30
0.0
 10
2.0042
 20
3.8399100000000002
 30
0.0
 10
1.9330800000000001
 20
3.4081100000000002
 30
0.0
 10
2.6417400000000004
 20
3.5097100000000001
 30
0.0
 10
2.6823800000000002
 20
3.1160100000000002
 30
0.0
 10
2.6823800000000002
 20
3.1160100000000002
 30
0.0
 10
2.4055200000000001
 20
2.71977
 30
0.0
 10
1.8518000000000001
 20
2.51403
 30
0.0
 10
1.6765400000000001
 20
2.0517500000000002
 30
0.0
 10
1.6765400000000001
 20
2.0517500000000002
 30
0.0
 10
1.7476600000000002
 20
1.65551
 30
0.0
 10
2.50712
 20
1.9120500000000002
 30
0.0
 10
2.45886
 20
1.53105
 30
0.0
 10
2.45886
 20
1.53105
 30
0.0
 10
1.4098400000000002
 20
0.9722500000000001
 30
0.0
 10
-0.14717
 20
1.4700900000000001
 30
0.0
 10
-0.94981
 20
0.5429900000000001
 30
0.0
 10
-0.94981
 20
0.5429900000000001
 30
0.0
 10
-0.88885
 20
0.4642500000000001
 30
0.0
 10
-0.7770900000000001
 20
0.45663
 30
0.0
 10
-0.68057
 20
0.44647
 30
0.0
 10
-0.68057
 20
0.44647
 30
0.0
 10
-0.9371100000000001
 20
0.7284100000000001
 30
0.0
 10
-0.27163
 20
0.8427100000000001
 30
0.0
 10
-0.04049
 20
0.8884300000000001
 30
0.0
 10
-0.04049
 20
0.8884300000000001
 30
0.0
 10
-0.07097
 20
0.26105
 30
0.0
 10
1.1583800000000002
 20
0.49981
 30
0.0
 10
1.1253600000000001
 20
-0.02596
 30
0.0
 10
1.1253600000000001
 20
-0.02596
 30
0.0
 10
0.531
 20
-0.5111
 30
0.0
 10
-0.3960900000000001
 20
0.07309
 30
0.0
 10
-1.0209300000000001
 20
-0.3739400000000001
 30
0.0
 10
-1.0209300000000001
 20
-0.3739400000000001
 30
0.0
 10
-0.84821
 20
-0.3333
 30
0.0
 10
-0.66025
 20
-0.28758
 30
0.0
 10
-0.4799100000000001
 20
-0.27234
 30
0.0
 10
-0.4799100000000001
 20
-0.27234
 30
0.0
 10
-0.4799100000000001
 20
-0.27234
 30
0.0
 10
-0.56881
 20
-0.39934
 30
0.0
 10
-0.56881
 20
-0.39934
 30
0.0
 10
-0.56881
 20
-0.39934
 30
0.0
 10
-0.56881
 20
-0.39934
 30
0.0
 10
-0.7262900000000001
 20
-0.50602
 30
0.0
 10
-0.7262900000000001
 20
-0.50602
 30
0.0
 10
-0.7262900000000001
 20
-0.50602
 30
0.0
 10
-0.8177300000000001
 20
-0.4780800000000001
 30
0.0
 10
-0.9421900000000001
 20
-0.39172
 30
0.0
 10
-1.00569
 20
-0.5111
 30
0.0
 10
-1.00569
 20
-0.5111
 30
0.0
 10
-1.1606300000000001
 20
-0.9657600000000001
 30
0.0
 10
-1.5695700000000001
 20
-0.8743200000000001
 30
0.0
 10
-1.3155700000000001
 20
-0.4272800000000001
 30
0.0
 10
-1.3155700000000001
 20
-0.4272800000000001
 30
0.0
 10
-1.3587500000000001
 20
-0.44252
 30
0.0
 10
-1.4070100000000001
 20
-0.47046
 30
0.0
 10
-1.4273300000000002
 20
-0.5187200000000001
 30
0.0
 10
-1.4273300000000002
 20
-0.5187200000000001
 30
0.0
 10
-1.8057900000000002
 20
-0.7930400000000001
 30
0.0
 10
-2.2629900000000003
 20
-1.0089400000000002
 30
0.0
 10
-2.6947900000000002
 20
-1.1461000000000001
 30
0.0
 10
-2.6947900000000002
 20
-1.1461000000000001
 30
0.0
 10
-2.5855700000000001
 20
-1.1969000000000001
 30
0.0
 10
-2.4077700000000002
 20
-1.0978400000000001
 30
0.0
 10
-2.2883900000000001
 20
-1.08768
 30
0.0
 10
-2.2883900000000001
 20
-1.08768
 30
0.0
 10
-2.2883900000000001
 20
-1.08768
 30
0.0
 10
-1.9581900000000001
 20
-0.9962400000000001
 30
0.0
 10
-1.9581900000000001
 20
-0.9962400000000001
 30
0.0
 10
-1.9581900000000001
 20
-0.9962400000000001
 30
0.0
 10
-3.1037300000000001
 20
-1.66934
 30
0.0
 10
-4.4118300000000001
 20
-2.05796
 30
0.0
 10
-5.7199300000000006
 20
-2.5456400000000001
 30
0.0
 10
-5.7199300000000006
 20
-2.5456400000000001
 30
0.0
 10
-5.7097700000000007
 20
-1.2680200000000001
 30
0.0
 10
-4.5820100000000004
 20
-0.4044200000000001
 30
0.0
 10
-3.5202900000000001
 20
0.02991
 30
0.0
 10
-3.5202900000000001
 20
0.02991
 30
0.0
 10
-3.4415500000000003
 20
-0.00056
 30
0.0
 10
-3.4059900000000001
 20
-0.1555
 30
0.0
 10
-3.2942300000000002
 20
-0.14788
 30
0.0
 10
-3.2942300000000002
 20
-0.14788
 30
0.0
 10
-3.5456900000000005
 20
0.6115700000000001
 30
0.0
 10
-2.6084300000000002
 20
1.1754500000000001
 30
0.0
 10
-1.9454900000000002
 20
1.3735700000000002
 30
0.0
 10
-1.9454900000000002
 20
1.3735700000000002
 30
0.0
 10
-1.5619500000000002
 20
1.5107300000000001
 30
0.0
 10
-1.16825
 20
1.5361300000000002
 30
0.0
 10
-0.78471
 20
1.6885300000000001
 30
0.0
 10
-0.78471
 20
1.6885300000000001
 30
0.0
 10
-0.9548900000000001
 20
1.7596500000000002
 30
0.0
 10
-1.3485900000000002
 20
1.6631300000000002
 30
0.0
 10
-1.4044700000000001
 20
1.9679300000000002
 30
0.0
 10
-1.4044700000000001
 20
1.9679300000000002
 30
0.0
 10
-1.4095500000000001
 20
2.2320900000000004
 30
0.0
 10
-1.2317500000000001
 20
2.42767
 30
0.0
 10
-1.0742700000000001
 20
2.6181700000000001
 30
0.0
 10
-1.0742700000000001
 20
2.6181700000000001
 30
0.0
 10
-0.55357
 20
3.1058500000000002
 30
0.0
 10
0.07634
 20
3.4335100000000001
 30
0.0
 10
0.7342000000000001
 20
3.7281500000000003
 30
0.0
 10
0.7342000000000001
 20
3.7281500000000003
 30
0.0
 10
0.7748400000000001
 20
3.7687900000000005
 30
0.0
 10
0.9856600000000001
 20
3.8221300000000005
 30
0.0
 10
0.9043800000000001
 20
3.8653100000000005
 30
0.0
 10
0.9043800000000001
 20
3.8653100000000005
 30
0.0
 10
0.9043800000000001
 20
3.8653100000000005
 30
0.0
 10
0.00776
 20
3.4817700000000005
 30
0.0
 10
0.00776
 20
3.4817700000000005
 30
0.0
 10
0.00776
 20
3.4817700000000005
 30
0.0
 10
0.43448
 20
3.9973900000000002
 30
0.0
 10
1.0847200000000001
 20
4.2615500000000006
 30
0.0
 10
1.6613000000000002
 20
4.5688900000000006
 30
0.0
  0
SPLINE
  5
27
100
AcDbEntity
  8
Ebene 1
100
AcDbSpline
210
0.0
220
0.0
230
1.0
 70
     1
 71
     3
 72
    52
 73
    48
 74
     0
 42
0.0000000001
 43
0.0000000001
 40
0.0
 40
0.0
 40
0.0
 40
0.0
 40
0.0833333333333333
 40
0.0833333333333333
 40
0.0833333333333333
 40
0.0833333333333333
 40
0.1666666666666667
 40
0.1666666666666667
 40
0.1666666666666667
 40
0.1666666666666667
 40
0.25
 40
0.25
 40
0.25
 40
0.25
 40
0.3333333333333333
 40
0.3333333333333333
 40
0.3333333333333333
 40
0.3333333333333333
 40
0.4166666666666666
 40
0.4166666666666666
 40
0.4166666666666666
 40
0.4166666666666666
 40
0.4999999999999999
 40
0.4999999999999999
 40
0.4999999999999999
 40
0.4999999999999999
 40
0.5833333333333333
 40
0.5833333333333333
 40
0.5833333333333333
 40
0.5833333333333333
 40
0.6666666666666666
 40
0.6666666666666666
 40
0.6666666666666666
 40
0.6666666666666666
 40
0.75
 40
0.75
 40
0.75
 40
0.75
 40
0.8333333333333334
 40
0.8333333333333334
 40
0.8333333333333334
 40
0.8333333333333334
 40
0.9166666666666667
 40
0.9166666666666667
 40
0.9166666666666667
 40
0.9166666666666667
 40
1.0
 40
1.0
 40
1.0
 40
1.0
 10
1.3184
 20
3.0880700000000001
 30
0.0
 10
1.39714
 20
3.1134700000000004
 30
0.0
 10
1.4581000000000002
 20
3.1312500000000001
 30
0.0
 10
1.52668
 20
3.1388700000000003
 30
0.0
 10
1.52668
 20
3.1388700000000003
 30
0.0
 10
1.52668
 20
3.1388700000000003
 30
0.0
 10
1.6816200000000001
 20
3.1439500000000002
 30
0.0
 10
1.6816200000000001
 20
3.1439500000000002
 30
0.0
 10
1.6816200000000001
 20
3.1439500000000002
 30
0.0
 10
1.6816200000000001
 20
3.1439500000000002
 30
0.0
 10
1.7425800000000002
 20
3.0829900000000001
 30
0.0
 10
1.7425800000000002
 20
3.0829900000000001
 30
0.0
 10
1.7425800000000002
 20
3.0829900000000001
 30
0.0
 10
1.5063600000000001
 20
3.1185500000000004
 30
0.0
 10
1.2803000000000002
 20
3.0347300000000001
 30
0.0
 10
1.11266
 20
2.8670900000000001
 30
0.0
 10
1.11266
 20
2.8670900000000001
 30
0.0
 10
1.11266
 20
2.8670900000000001
 30
0.0
 10
1.27014
 20
2.8899500000000002
 30
0.0
 10
1.27014
 20
2.8899500000000002
 30
0.0
 10
1.27014
 20
2.8899500000000002
 30
0.0
 10
1.3742800000000002
 20
2.8670900000000001
 30
0.0
 10
1.4936600000000002
 20
2.9331300000000002
 30
0.0
 10
1.6003400000000001
 20
2.9102700000000001
 30
0.0
 10
1.6003400000000001
 20
2.9102700000000001
 30
0.0
 10
1.1279000000000001
 20
2.4530700000000003
 30
0.0
 10
0.57672
 20
1.9120500000000002
 30
0.0
 10
-0.12939
 20
1.9247500000000002
 30
0.0
 10
-0.12939
 20
1.9247500000000002
 30
0.0
 10
-0.32497
 20
1.8333100000000002
 30
0.0
 10
-0.55103
 20
1.7342500000000001
 30
0.0
 10
-0.7669300000000001
 20
1.7367900000000001
 30
0.0
 10
-0.7669300000000001
 20
1.7367900000000001
 30
0.0
 10
-0.8075700000000001
 20
1.7647300000000001
 30
0.0
 10
-0.8837700000000001
 20
1.78251
 30
0.0
 10
-0.8837700000000001
 20
1.8383900000000002
 30
0.0
 10
-0.8837700000000001
 20
1.8383900000000002
 30
0.0
 10
-0.7288300000000001
 20
1.8460100000000002
 30
0.0
 10
-0.5815100000000001
 20
1.8637900000000001
 30
0.0
 10
-0.46213
 20
1.9730100000000002
 30
0.0
 10
-0.46213
 20
1.9730100000000002
 30
0.0
 10
-0.22845
 20
2.0619100000000001
 30
0.0
 10
-0.04557
 20
2.21685
 30
0.0
 10
0.14492
 20
2.3641700000000001
 30
0.0
 10
0.14492
 20
2.3641700000000001
 30
0.0
 10
0.51322
 20
2.6359500000000002
 30
0.0
 10
0.9018400000000001
 20
2.9001100000000002
 30
0.0
 10
1.3184
 20
3.0880700000000001
 30
0.0
  0
SPLINE
  5
28
100
AcDbEntity
  8
Ebene 1
100
AcDbSpline
210
0.0
220
0.0
230
1.0
 70
     1
 71
     3
 72
    32
 73
    28
 74
     0
 42
0.0000000001
 43
0.0000000001
 40
0.0
 40
0.0
 40
0.0
 40
0.0
 40
0.1428571428571429
 40
0.1428571428571429
 40
0.1428571428571429
 40
0.1428571428571429
 40
0.2857142857142857
 40
0.2857142857142857
 40
0.2857142857142857
 40
0.2857142857142857
 40
0.4285714285714286
 40
0.4285714285714286
 40
0.4285714285714286
 40
0.4285714285714286
 40
0.5714285714285714
 40
0.5714285714285714
 40
0.5714285714285714
 40
0.5714285714285714
 40
0.7142857142857142
 40
0.7142857142857142
 40
0.7142857142857142
 40
0.7142857142857142
 40
0.857142857142857
 40
0.857142857142857
 40
0.857142857142857
 40
0.857142857142857
 40
1.0
 40
1.0
 40
1.0
 40
1.0
 10
-1.8464300000000002
 20
1.15259
 30
0.0
 10
-1.6762500000000002
 20
1.1805300000000001
 30
0.0
 10
-1.3714500000000001
 20
1.23387
 30
0.0
 10
-1.3130300000000001
 20
1.0154300000000001
 30
0.0
 10
-1.3130300000000001
 20
1.0154300000000001
 30
0.0
 10
-1.3968500000000001
 20
1.0992500000000001
 30
0.0
 10
-1.5619500000000002
 20
1.1729100000000001
 30
0.0
 10
-1.6940300000000001
 20
1.1322700000000001
 30
0.0
 10
-1.6940300000000001
 20
1.1322700000000001
 30
0.0
 10
-1.6178300000000001
 20
1.0992500000000001
 30
0.0
 10
-1.54671
 20
1.0382900000000002
 30
0.0
 10
-1.5416300000000001
 20
0.9417700000000001
 30
0.0
 10
-1.5416300000000001
 20
0.9417700000000001
 30
0.0
 10
-1.5695700000000001
 20
0.89097
 30
0.0
 10
-1.6051300000000002
 20
0.8376300000000001
 30
0.0
 10
-1.6508500000000002
 20
0.7944500000000001
 30
0.0
 10
-1.6508500000000002
 20
0.7944500000000001
 30
0.0
 10
-2.1334500000000003
 20
0.59887
 30
0.0
 10
-2.2096500000000003
 20
0.32201
 30
0.0
 10
-2.7430500000000002
 20
0.40583
 30
0.0
 10
-2.7430500000000002
 20
0.40583
 30
0.0
 10
-2.7582900000000001
 20
0.5836300000000001
 30
0.0
 10
-2.5550900000000003
 20
0.6750700000000001
 30
0.0
 10
-2.44333
 20
0.7792100000000001
 30
0.0
 10
-2.44333
 20
0.7792100000000001
 30
0.0
 10
-2.2731500000000002
 20
0.9468500000000001
 30
0.0
 10
-2.0470900000000003
 20
1.0484500000000001
 30
0.0
 10
-1.8464300000000002
 20
1.15259
 30
0.0
  0
SPLINE
  5
29
100
AcDbEntity
  8
Ebene 1
100
AcDbSpline
210
0.0
220
0.0
230
1.0
 70
     1
 71
     3
 72
    24
 73
    20
 74
     0
 42
0.0000000001
 43
0.0000000001
 40
0.0
 40
0.0
 40
0.0
 40
0.0
 40
0.2
 40
0.2
 40
0.2
 40
0.2
 40
0.4
 40
0.4
 40
0.4
 40
0.4
 40
0.6000000000000001
 40
0.6000000000000001
 40
0.6000000000000001
 40
0.6000000000000001
 40
0.8
 40
0.8
 40
0.8
 40
0.8
 40
1.0
 40
1.0
 40
1.0
 40
1.0
 10
-3.1215100000000002
 20
0.14421
 30
0.0
 10
-3.0376900000000004
 20
0.15691
 30
0.0
 10
-3.0732500000000003
 20
0.04769
 30
0.0
 10
-2.9843500000000001
 20
0.03499
 30
0.0
 10
-2.9843500000000001
 20
0.03499
 30
0.0
 10
-2.4661900000000001
 20
0.04515
 30
0.0
 10
-2.01661
 20
0.53791
 30
0.0
 10
-1.4933700000000001
 20
0.43885
 30
0.0
 10
-1.4933700000000001
 20
0.43885
 30
0.0
 10
-1.4933700000000001
 20
0.43885
 30
0.0
 10
-1.5213100000000002
 20
0.4007500000000001
 30
0.0
 10
-1.5213100000000002
 20
0.4007500000000001
 30
0.0
 10
-1.5213100000000002
 20
0.4007500000000001
 30
0.0
 10
-2.0902700000000003
 20
0.44647
 30
0.0
 10
-2.4788900000000003
 20
-0.25202
 30
0.0
 10
-3.03261
 20
-0.07676
 30
0.0
 10
-3.03261
 20
-0.07676
 30
0.0
 10
-3.0859500000000004
 20
-0.02342
 30
0.0
 10
-3.1240500000000004
 20
0.06039
 30
0.0
 10
-3.1215100000000002
 20
0.14421
 30
0.0
  0
SPLINE
  5
2A
100
AcDbEntity
  8
Ebene 1
 62
     7
100
AcDbSpline
210
0.0
220
0.0
230
1.0
 70
     1
 71
     3
 72
   136
 73
   132
 74
     0
 42
0.0000000001
 43
0.0000000001
 40
0.0
 40
0.0
 40
0.0
 40
0.0
 40
0.0303030303030303
 40
0.0303030303030303
 40
0.0303030303030303
 40
0.0303030303030303
 40
0.0606060606060606
 40
0.0606060606060606
 40
0.0606060606060606
 40
0.0606060606060606
 40
0.0909090909090909
 40
0.0909090909090909
 40
0.0909090909090909
 40
0.0909090909090909
 40
0.1212121212121212
 40
0.1212121212121212
 40
0.1212121212121212
 40
0.1212121212121212
 40
0.1515151515151515
 40
0.1515151515151515
 40
0.1515151515151515
 40
0.1515151515151515
 40
0.1818181818181818
 40
0.1818181818181818
 40
0.1818181818181818
 40
0.1818181818181818
 40
0.2121212121212121
 40
0.2121212121212121
 40
0.2121212121212121
 40
0.2121212121212121
 40
0.2424242424242424
 40
0.2424242424242424
 40
0.2424242424242424
 40
0.2424242424242424
 40
0.2727272727272727
 40
0.2727272727272727
 40
0.2727272727272727
 40
0.2727272727272727
 40
0.303030303030303
 40
0.303030303030303
 40
0.303030303030303
 40
0.303030303030303
 40
0.3333333333333333
 40
0.3333333333333333
 40
0.3333333333333333
 40
0.3333333333333333
 40
0.3636363636363635
 40
0.3636363636363635
 40
0.3636363636363635
 40
0.3636363636363635
 40
0.3939393939393938
 40
0.3939393939393938
 40
0.3939393939393938
 40
0.3939393939393938
 40
0.4242424242424241
 40
0.4242424242424241
 40
0.4242424242424241
 40
0.4242424242424241
 40
0.4545454545454544
 40
0.4545454545454544
 40
0.4545454545454544
 40
0.4545454545454544
 40
0.4848484848484846
 40
0.4848484848484846
 40
0.4848484848484846
 40
0.4848484848484846
 40
0.5151515151515149
 40
0.5151515151515149
 40
0.5151515151515149
 40
0.5151515151515149
 40
0.5454545454545452
 40
0.5454545454545452
 40
0.5454545454545452
 40
0.5454545454545452
 40
0.5757575757575755
 40
0.5757575757575755
 40
0.5757575757575755
 40
0.5757575757575755
 40
0.6060606060606057
 40
0.6060606060606057
 40
0.6060606060606057
 40
0.6060606060606057
 40
0.636363636363636
 40
0.636363636363636
 40
0.636363636363636
 40
0.636363636363636
 40
0.6666666666666663
 40
0.6666666666666663
 40
0.6666666666666663
 40
0.6666666666666663
 40
0.6969696969696966
 40
0.6969696969696966
 40
0.6969696969696966
 40
0.6969696969696966
 40
0.7272727272727269
 40
0.7272727272727269
 40
0.7272727272727269
 40
0.7272727272727269
 40
0.7575757575757571
 40
0.7575757575757571
 40
0.7575757575757571
 40
0.7575757575757571
 40
0.7878787878787874
 40
0.7878787878787874
 40
0.7878787878787874
 40
0.7878787878787874
 40
0.8181818181818177
 40
0.8181818181818177
 40
0.8181818181818177
 40
0.8181818181818177
 40
0.848484848484848
 40
0.848484848484848
 40
0.848484848484848
 40
0.848484848484848
 40
0.8787878787878782
 40
0.8787878787878782
 40
0.8787878787878782
 40
0.8787878787878782
 40
0.9090909090909085
 40
0.9090909090909085
 40
0.9090909090909085
 40
0.9090909090909085
 40
0.9393939393939388
 40
0.9393939393939388
 40
0.9393939393939388
 40
0.9393939393939388
 40
0.9696969696969691
 40
0.9696969696969691
 40
0.9696969696969691
 40
0.9696969696969691
 40
1.0
 40
1.0
 40
1.0
 40
1.0
 10
3.8279200000000002
 20
2.20669
 30
0.0
 10
3.9549200000000004
 20
2.2473300000000003
 30
0.0
 10
4.0920800000000002
 20
2.30321
 30
0.0
 10
4.2165400000000002
 20
2.26003
 30
0.0
 10
4.2165400000000002
 20
2.26003
 30
0.0
 10
4.3867200000000004
 20
1.6402700000000001
 30
0.0
 10
3.4647000000000001
 20
1.15005
 30
0.0
 10
3.5561400000000001
 20
0.5074300000000001
 30
0.0
 10
3.5561400000000001
 20
0.5074300000000001
 30
0.0
 10
3.7085400000000002
 20
1.0459100000000001
 30
0.0
 10
4.0006400000000006
 20
1.6707500000000002
 30
0.0
 10
4.5594400000000004
 20
1.8510900000000001
 30
0.0
 10
4.5594400000000004
 20
1.8510900000000001
 30
0.0
 10
4.7474000000000007
 20
1.3075300000000001
 30
0.0
 10
4.0158800000000001
 20
1.0890900000000001
 30
0.0
 10
3.8533200000000005
 20
0.6293500000000001
 30
0.0
 10
3.8533200000000005
 20
0.6293500000000001
 30
0.0
 10
3.7644200000000003
 20
0.4744100000000001
 30
0.0
 10
3.6577400000000004
 20
0.32963
 30
0.0
 10
3.6272600000000002
 20
0.15183
 30
0.0
 10
3.6272600000000002
 20
0.15183
 30
0.0
 10
3.7796600000000002
 20
0.33979
 30
0.0
 10
3.8203000000000005
 20
0.5633100000000001
 30
0.0
 10
4.0031800000000004
 20
0.7334900000000001
 30
0.0
 10
4.0031800000000004
 20
0.7334900000000001
 30
0.0
 10
4.0336600000000002
 20
0.7715900000000001
 30
0.0
 10
4.0641400000000001
 20
0.80969
 30
0.0
 10
4.1098600000000003
 20
0.8376300000000001
 30
0.0
 10
4.1098600000000003
 20
0.8376300000000001
 30
0.0
 10
3.9955600000000002
 20
0.22803
 30
0.0
 10
3.7872800000000004
 20
-0.4272800000000001
 30
0.0
 10
3.3605600000000004
 20
-0.8971800000000001
 30
0.0
 10
3.3605600000000004
 20
-0.8971800000000001
 30
0.0
 10
3.3148400000000002
 20
-0.9683000000000001
 30
0.0
 10
3.2411800000000004
 20
-1.0064000000000002
 30
0.0
 10
3.1776800000000001
 20
-1.0673600000000001
 30
0.0
 10
3.1776800000000001
 20
-1.0673600000000001
 30
0.0
 10
3.1014800000000005
 20
-1.1359400000000002
 30
0.0
 10
3.0354400000000004
 20
-1.1969000000000001
 30
0.0
 10
2.9643200000000003
 20
-1.2350000000000001
 30
0.0
 10
2.9643200000000003
 20
-1.2350000000000001
 30
0.0
 10
2.6011000000000002
 20
-1.42042
 30
0.0
 10
2.7408000000000001
 20
-1.45852
 30
0.0
 10
3.0354400000000004
 20
-1.2832600000000001
 30
0.0
 10
3.0354400000000004
 20
-1.2832600000000001
 30
0.0
 10
3.3300800000000002
 20
-1.1029200000000001
 30
0.0
 10
3.5815400000000004
 20
-0.7981200000000001
 30
0.0
 10
3.8355400000000004
 20
-0.5771400000000001
 30
0.0
 10
3.8355400000000004
 20
-0.5771400000000001
 30
0.0
 10
3.8330000000000002
 20
-0.97084
 30
0.0
 10
3.4951800000000004
 20
-1.2324600000000001
 30
0.0
 10
3.2157800000000001
 20
-1.4483600000000001
 30
0.0
 10
3.2157800000000001
 20
-1.4483600000000001
 30
0.0
 10
2.3725000000000001
 20
-2.0122400000000003
 30
0.0
 10
1.2803000000000002
 20
-2.1773400000000001
 30
0.0
 10
0.3278
 20
-2.5380200000000004
 30
0.0
 10
0.3278
 20
-2.5380200000000004
 30
0.0
 10
0.68086
 20
-2.2129000000000003
 30
0.0
 10
1.3717400000000002
 20
-1.9792200000000002
 30
0.0
 10
1.5927200000000001
 20
-1.6845800000000002
 30
0.0
 10
1.5927200000000001
 20
-1.6845800000000002
 30
0.0
 10
-0.27163
 20
-2.7844000000000002
 30
0.0
 10
-2.2426700000000004
 20
-3.7216600000000004
 30
0.0
 10
-4.0460700000000003
 20
-4.9129200000000006
 30
0.0
 10
-4.0460700000000003
 20
-4.9129200000000006
 30
0.0
 10
-4.1121100000000004
 20
-4.8926000000000007
 30
0.0
 10
-4.1908500000000002
 20
-4.9027600000000007
 30
0.0
 10
-4.26959
 20
-4.90022
 30
0.0
 10
-4.26959
 20
-4.90022
 30
0.0
 10
-3.0935700000000002
 20
-3.6835600000000004
 30
0.0
 10
-1.79817
 20
-2.36022
 30
0.0
 10
-0.17257
 20
-1.8573000000000002
 30
0.0
 10
-0.17257
 20
-1.8573000000000002
 30
0.0
 10
0.0865
 20
-1.6617200000000001
 30
0.0
 10
0.09666
 20
-2.0224000000000002
 30
0.0
 10
0.15
 20
-2.2027400000000004
 30
0.0
 10
0.15
 20
-2.2027400000000004
 30
0.0
 10
0.2135
 20
-1.9589000000000001
 30
0.0
 10
0.0103
 20
-1.7277600000000002
 30
0.0
 10
0.29224
 20
-1.6109200000000001
 30
0.0
 10
0.29224
 20
-1.6109200000000001
 30
0.0
 10
0.31764
 20
-1.6845800000000002
 30
0.0
 10
0.29478
 20
-2.0020800000000003
 30
0.0
 10
0.35828
 20
-1.8979400000000002
 30
0.0
 10
0.35828
 20
-1.8979400000000002
 30
0.0
 10
0.33034
 20
-1.7099800000000001
 30
0.0
 10
0.35066
 20
-1.5626600000000002
 30
0.0
 10
0.53608
 20
-1.4763000000000002
 30
0.0
 10
0.53608
 20
-1.4763000000000002
 30
0.0
 10
0.57926
 20
-2.31704
 30
0.0
 10
0.5437000000000001
 20
-1.20706
 30
0.0
 10
0.9170800000000001
 20
-1.0470400000000002
 30
0.0
 10
0.9170800000000001
 20
-1.0470400000000002
 30
0.0
 10
1.7248000000000001
 20
-0.5644400000000001
 30
0.0
 10
1.1152000000000002
 20
0.33217
 30
0.0
 10
1.1355200000000001
 20
1.0382900000000002
 30
0.0
 10
1.1355200000000001
 20
1.0382900000000002
 30
0.0
 10
1.3184
 20
1.0967100000000001
 30
0.0
 10
1.5114400000000001
 20
1.10179
 30
0.0
 10
1.6994000000000002
 20
1.1348100000000001
 30
0.0
 10
1.6994000000000002
 20
1.1348100000000001
 30
0.0
 10
1.78068
 20
0.93669
 30
0.0
 10
1.7705200000000001
 20
0.6674500000000001
 30
0.0
 10
1.8594200000000001
 20
0.5277500000000001
 30
0.0
 10
1.8594200000000001
 20
0.5277500000000001
 30
0.0
 10
1.9305400000000001
 20
0.74619
 30
0.0
 10
1.6917800000000001
 20
1.2160900000000001
 30
0.0
 10
2.0677000000000003
 20
1.2237100000000001
 30
0.0
 10
2.0677000000000003
 20
1.2237100000000001
 30
0.0
 10
2.1794600000000002
 20
1.0078100000000001
 30
0.0
 10
2.1413600000000002
 20
0.7284100000000001
 30
0.0
 10
2.3572600000000001
 20
0.57347
 30
0.0
 10
2.3572600000000001
 20
0.57347
 30
0.0
 10
2.5985600000000004
 20
0.5252100000000001
 30
0.0
 10
2.7789000000000001
 20
0.7080900000000001
 30
0.0
 10
2.9236800000000001
 20
0.8655700000000001
 30
0.0
 10
2.9236800000000001
 20
0.8655700000000001
 30
0.0
 10
2.9465400000000002
 20
0.62173
 30
0.0
 10
2.8678000000000003
 20
0.38551
 30
0.0
 10
2.8017600000000003
 20
0.15437
 30
0.0
 10
2.8017600000000003
 20
0.15437
 30
0.0
 10
2.7814400000000004
 20
-0.1301
 30
0.0
 10
2.6087200000000004
 20
-0.6889000000000001
 30
0.0
 10
2.2226400000000002
 20
-0.4476000000000001
 30
0.0
 10
2.2226400000000002
 20
-0.4476000000000001
 30
0.0
 10
2.1007200000000004
 20
-0.42982
 30
0.0
 10
2.2759800000000001
 20
-0.6279400000000001
 30
0.0
 10
2.3598000000000003
 20
-0.6431800000000001
 30
0.0
 10
2.3598000000000003
 20
-0.6431800000000001
 30
0.0
 10
3.3123000000000005
 20
-0.08692
 30
0.0
 10
2.8119200000000002
 20
1.61487
 30
0.0
 10
3.8279200000000002
 20
2.20669
 30
0.0
  0
SPLINE
  5
2B
100
AcDbEntity
  8
Ebene 1
100
AcDbSpline
210
0.0
220
0.0
230
1.0
 70
     1
 71
     3
 72
    52
 73
    48
 74
     0
 42
0.0000000001
 43
0.0000000001
 40
0.0
 40
0.0
 40
0.0
 40
0.0
 40
0.0833333333333333
 40
0.0833333333333333
 40
0.0833333333333333
 40
0.0833333333333333
 40
0.1666666666666667
 40
0.1666666666666667
 40
0.1666666666666667
 40
0.1666666666666667
 40
0.25
 40
0.25
 40
0.25
 40
0.25
 40
0.3333333333333333
 40
0.3333333333333333
 40
0.3333333333333333
 40
0.3333333333333333
 40
0.4166666666666666
 40
0.4166666666666666
 40
0.4166666666666666
 40
0.4166666666666666
 40
0.4999999999999999
 40
0.4999999999999999
 40
0.4999999999999999
 40
0.4999999999999999
 40
0.5833333333333333
 40
0.5833333333333333
 40
0.5833333333333333
 40
0.5833333333333333
 40
0.6666666666666666
 40
0.6666666666666666
 40
0.6666666666666666
 40
0.6666666666666666
 40
0.75
 40
0.75
 40
0.75
 40
0.75
 40
0.8333333333333334
 40
0.8333333333333334
 40
0.8333333333333334
 40
0.8333333333333334
 40
0.9166666666666667
 40
0.9166666666666667
 40
0.9166666666666667
 40
0.9166666666666667
 40
1.0
 40
1.0
 40
1.0
 40
1.0
 10
-4.7191700000000001
 20
-0.9733800000000001
 30
0.0
 10
-4.7191700000000001
 20
-0.9733800000000001
 30
0.0
 10
-4.9350700000000005
 20
-1.1461000000000001
 30
0.0
 10
-4.9350700000000005
 20
-1.1461000000000001
 30
0.0
 10
-4.9350700000000005
 20
-1.1461000000000001
 30
0.0
 10
-4.9299900000000001
 20
-1.0470400000000002
 30
0.0
 10
-4.7902900000000006
 20
-0.9733800000000001
 30
0.0
 10
-4.7191700000000001
 20
-0.90988
 30
0.0
 10
-4.7191700000000001
 20
-0.90988
 30
0.0
 10
-4.5388300000000008
 20
-0.7524000000000001
 30
0.0
 10
-4.3280099999999999
 20
-0.6431800000000001
 30
0.0
 10
-4.10703
 20
-0.54666
 30
0.0
 10
-4.10703
 20
-0.54666
 30
0.0
 10
-4.0359100000000003
 20
-0.5238
 30
0.0
 10
-3.9190700000000005
 20
-0.44252
 30
0.0
 10
-3.8606500000000001
 20
-0.48316
 30
0.0
 10
-3.8606500000000001
 20
-0.48316
 30
0.0
 10
-4.3356300000000001
 20
-0.67366
 30
0.0
 10
-4.7115500000000008
 20
-1.1435600000000001
 30
0.0
 10
-4.8334700000000002
 20
-1.6464800000000002
 30
0.0
 10
-4.8334700000000002
 20
-1.6464800000000002
 30
0.0
 10
-4.8334700000000002
 20
-1.6744200000000002
 30
0.0
 10
-4.8029900000000003
 20
-1.6922000000000001
 30
0.0
 10
-4.7852100000000002
 20
-1.7150600000000003
 30
0.0
 10
-4.7852100000000002
 20
-1.7150600000000003
 30
0.0
 10
-4.5515300000000005
 20
-1.6972800000000001
 30
0.0
 10
-4.2797499999999999
 20
-1.6795000000000002
 30
0.0
 10
-4.0536900000000005
 20
-1.5931400000000002
 30
0.0
 10
-4.0536900000000005
 20
-1.5931400000000002
 30
0.0
 10
-4.0536900000000005
 20
-1.5931400000000002
 30
0.0
 10
-3.5406100000000005
 20
-1.4432800000000001
 30
0.0
 10
-3.5406100000000005
 20
-1.4432800000000001
 30
0.0
 10
-3.5406100000000005
 20
-1.4432800000000001
 30
0.0
 10
-3.4288500000000002
 20
-1.4077200000000001
 30
0.0
 10
-3.2967700000000004
 20
-1.3518400000000002
 30
0.0
 10
-3.1900900000000001
 20
-1.3620000000000001
 30
0.0
 10
-3.1900900000000001
 20
-1.3620000000000001
 30
0.0
 10
-3.1900900000000001
 20
-1.3620000000000001
 30
0.0
 10
-5.1814500000000008
 20
-2.0376400000000001
 30
0.0
 10
-5.1814500000000008
 20
-2.0376400000000001
 30
0.0
 10
-5.1814500000000008
 20
-2.0376400000000001
 30
0.0
 10
-5.3287700000000005
 20
-1.8471400000000002
 30
0.0
 10
-5.0163500000000001
 20
-1.6617200000000001
 30
0.0
 10
-4.9452300000000005
 20
-1.4864600000000001
 30
0.0
 10
-4.9452300000000005
 20
-1.4864600000000001
 30
0.0
 10
-4.8410900000000003
 20
-1.29342
 30
0.0
 10
-4.3661099999999999
 20
-0.8082800000000001
 30
0.0
 10
-4.7191700000000001
 20
-0.9733800000000001
 30
0.0
  0
SPLINE
  5
2C
100
AcDbEntity
  8
Ebene 1
 62
     7
100
AcDbSpline
210
0.0
220
0.0
230
1.0
 70
     1
 71
     3
 72
    24
 73
    20
 74
     0
 42
0.0000000001
 43
0.0000000001
 40
0.0
 40
0.0
 40
0.0
 40
0.0
 40
0.2
 40
0.2
 40
0.2
 40
0.2
 40
0.4
 40
0.4
 40
0.4
 40
0.4
 40
0.6000000000000001
 40
0.6000000000000001
 40
0.6000000000000001
 40
0.6000000000000001
 40
0.8
 40
0.8
 40
0.8
 40
0.8
 40
1.0
 40
1.0
 40
1.0
 40
1.0
 10
-0.9167900000000001
 20
-0.5238
 30
0.0
 10
-0.8990100000000001
 20
-0.5187200000000001
 30
0.0
 10
-0.8812300000000001
 20
-0.5136400000000001
 30
0.0
 10
-0.86599
 20
-0.5212600000000001
 30
0.0
 10
-0.86599
 20
-0.5212600000000001
 30
0.0
 10
-0.8405900000000001
 20
-0.5568200000000001
 30
0.0
 10
-0.84821
 20
-0.6000000000000001
 30
0.0
 10
-0.8558300000000001
 20
-0.63048
 30
0.0
 10
-0.8558300000000001
 20
-0.63048
 30
0.0
 10
-0.7542300000000001
 20
-0.7930400000000001
 30
0.0
 10
-0.9650500000000001
 20
-0.9175000000000001
 30
0.0
 10
-0.9396500000000001
 20
-1.07752
 30
0.0
 10
-0.9396500000000001
 20
-1.07752
 30
0.0
 10
-0.9472700000000001
 20
-1.0927600000000002
 30
0.0
 10
-0.9650500000000001
 20
-1.1003800000000001
 30
0.0
 10
-0.9802900000000001
 20
-1.1054600000000001
 30
0.0
 10
-0.9802900000000001
 20
-1.1054600000000001
 30
0.0
 10
-1.0539500000000002
 20
-0.9175000000000001
 30
0.0
 10
-1.0183900000000001
 20
-0.69652
 30
0.0
 10
-0.9167900000000001
 20
-0.5238
 30
0.0
  0
SPLINE
  5
2D
100
AcDbEntity
  8
Ebene 1
 62
     7
100
AcDbSpline
210
0.0
220
0.0
230
1.0
 70
     1
 71
     3
 72
    16
 73
    12
 74
     0
 42
0.0000000001
 43
0.0000000001
 40
0.0
 40
0.0
 40
0.0
 40
0.0
 40
0.3333333333333333
 40
0.3333333333333333
 40
0.3333333333333333
 40
0.3333333333333333
 40
0.6666666666666666
 40
0.6666666666666666
 40
0.6666666666666666
 40
0.6666666666666666
 40
1.0
 40
1.0
 40
1.0
 40
1.0
 10
-1.6864100000000002
 20
-0.8819400000000001
 30
0.0
 10
-1.5365500000000001
 20
-0.9327400000000001
 30
0.0
 10
-1.4959100000000001
 20
-1.1994400000000001
 30
0.0
 10
-1.4832100000000001
 20
-1.3493000000000002
 30
0.0
 10
-1.4832100000000001
 20
-1.3493000000000002
 30
0.0
 10
-1.5594100000000002
 20
-1.3442200000000002
 30
0.0
 10
-1.6406900000000002
 20
-1.37216
 30
0.0
 10
-1.7092700000000001
 20
-1.3239000000000001
 30
0.0
 10
-1.7092700000000001
 20
-1.3239000000000001
 30
0.0
 10
-1.7626100000000002
 20
-1.1715
 30
0.0
 10
-1.7448300000000001
 20
-1.0267200000000001
 30
0.0
 10
-1.6864100000000002
 20
-0.8819400000000001
 30
0.0
  0
SPLINE
  5
2E
100
AcDbEntity
  8
Ebene 1
 62
     7
100
AcDbSpline
210
0.0
220
0.0
230
1.0
 70
     1
 71
     3
 72
    16
 73
    12
 74
     0
 42
0.0000000001
 43
0.0000000001
 40
0.0
 40
0.0
 40
0.0
 40
0.0
 40
0.3333333333333333
 40
0.3333333333333333
 40
0.3333333333333333
 40
0.3333333333333333
 40
0.6666666666666666
 40
0.6666666666666666
 40
0.6666666666666666
 40
0.6666666666666666
 40
1.0
 40
1.0
 40
1.0
 40
1.0
 10
-1.4882900000000001
 20
-0.84638
 30
0.0
 10
-1.46543
 20
-0.82606
 30
0.0
 10
-1.4400300000000001
 20
-0.84638
 30
0.0
 10
-1.41971
 20
-0.8514600000000001
 30
0.0
 10
-1.41971
 20
-0.8514600000000001
 30
0.0
 10
-1.3155700000000001
 20
-0.9860800000000001
 30
0.0
 10
-1.0564900000000002
 20
-1.1994400000000001
 30
0.0
 10
-1.3206500000000001
 20
-1.3112000000000001
 30
0.0
 10
-1.3206500000000001
 20
-1.3112000000000001
 30
0.0
 10
-1.4146300000000001
 20
-1.1740400000000002
 30
0.0
 10
-1.4806700000000002
 20
-0.9987800000000001
 30
0.0
 10
-1.4882900000000001
 20
-0.84638
 30
0.0
  0
SPLINE
  5
2F
100
AcDbEntity
  8
Ebene 1
 62
     7
100
AcDbSpline
210
0.0
220
0.0
230
1.0
 70
     1
 71
     3
 72
    16
 73
    12
 74
     0
 42
0.0000000001
 43
0.0000000001
 40
0.0
 40
0.0
 40
0.0
 40
0.0
 40
0.3333333333333333
 40
0.3333333333333333
 40
0.3333333333333333
 40
0.3333333333333333
 40
0.6666666666666666
 40
0.6666666666666666
 40
0.6666666666666666
 40
0.6666666666666666
 40
1.0
 40
1.0
 40
1.0
 40
1.0
 10
0.3024
 20
-1.0597400000000001
 30
0.0
 10
0.38368
 20
-1.11816
 30
0.0
 10
0.36336
 20
-1.29342
 30
0.0
 10
0.48782
 20
-1.29342
 30
0.0
 10
0.48782
 20
-1.29342
 30
0.0
 10
0.51576
 20
-1.3823200000000002
 30
0.0
 10
0.4497200000000001
 20
-1.4763000000000002
 30
0.0
 10
0.35828
 20
-1.4915400000000001
 30
0.0
 10
0.35828
 20
-1.4915400000000001
 30
0.0
 10
0.2262
 20
-1.37724
 30
0.0
 10
0.30748
 20
-1.1969000000000001
 30
0.0
 10
0.3024
 20
-1.0597400000000001
 30
0.0
  0
SPLINE
  5
30
100
AcDbEntity
  8
Ebene 1
 62
     7
100
AcDbSpline
210
0.0
220
0.0
230
1.0
 70
     1
 71
     3
 72
    16
 73
    12
 74
     0
 42
0.0000000001
 43
0.0000000001
 40
0.0
 40
0.0
 40
0.0
 40
0.0
 40
0.3333333333333333
 40
0.3333333333333333
 40
0.3333333333333333
 40
0.3333333333333333
 40
0.6666666666666666
 40
0.6666666666666666
 40
0.6666666666666666
 40
0.6666666666666666
 40
1.0
 40
1.0
 40
1.0
 40
1.0
 10
-0.08367
 20
-1.29596
 30
0.0
 10
0.05094
 20
-1.3213600000000001
 30
0.0
 10
0.2643
 20
-1.4788400000000002
 30
0.0
 10
0.16778
 20
-1.6210800000000001
 30
0.0
 10
0.16778
 20
-1.6210800000000001
 30
0.0
 10
0.16778
 20
-1.6210800000000001
 30
0.0
 10
0.0484
 20
-1.6591800000000001
 30
0.0
 10
0.0484
 20
-1.6591800000000001
 30
0.0
 10
0.0484
 20
-1.6591800000000001
 30
0.0
 10
-0.03541
 20
-1.54742
 30
0.0
 10
-0.11415
 20
-1.4331200000000002
 30
0.0
 10
-0.08367
 20
-1.29596
 30
0.0
  0
SPLINE
  5
31
100
AcDbEntity
  8
Ebene 1
 62
     7
100
AcDbSpline
210
0.0
220
0.0
230
1.0
 70
     1
 71
     3
 72
    12
 73
     8
 74
     0
 42
0.0000000001
 43
0.0000000001
 40
0.0
 40
0.0
 40
0.0
 40
0.0
 40
0.5
 40
0.5
 40
0.5
 40
0.5
 40
1.0
 40
1.0
 40
1.0
 40
1.0
 10
-0.21575
 20
-1.4077200000000001
 30
0.0
 10
-0.12431
 20
-1.4915400000000001
 30
0.0
 10
0.05348
 20
-1.7684000000000002
 30
0.0
 10
-0.19035
 20
-1.7785600000000001
 30
0.0
 10
-0.19035
 20
-1.7785600000000001
 30
0.0
 10
-0.26909
 20
-1.6769600000000002
 30
0.0
 10
-0.20305
 20
-1.5296400000000001
 30
0.0
 10
-0.21575
 20
-1.4077200000000001
 30
0.0
  0
SPLINE
  5
32
100
AcDbEntity
  8
Ebene 1
100
AcDbSpline
210
0.0
220
0.0
230
1.0
 70
     1
 71
     3
 72
    56
 73
    52
 74
     0
 42
0.0000000001
 43
0.0000000001
 40
0.0
 40
0.0
 40
0.0
 40
0.0
 40
0.0769230769230769
 40
0.0769230769230769
 40
0.0769230769230769
 40
0.0769230769230769
 40
0.1538461538461539
 40
0.1538461538461539
 40
0.1538461538461539
 40
0.1538461538461539
 40
0.2307692307692308
 40
0.2307692307692308
 40
0.2307692307692308
 40
0.2307692307692308
 40
0.3076923076923077
 40
0.3076923076923077
 40
0.3076923076923077
 40
0.3076923076923077
 40
0.3846153846153846
 40
0.3846153846153846
 40
0.3846153846153846
 40
0.3846153846153846
 40
0.4615384615384616
 40
0.4615384615384616
 40
0.4615384615384616
 40
0.4615384615384616
 40
0.5384615384615386
 40
0.5384615384615386
 40
0.5384615384615386
 40
0.5384615384615386
 40
0.6153846153846154
 40
0.6153846153846154
 40
0.6153846153846154
 40
0.6153846153846154
 40
0.6923076923076923
 40
0.6923076923076923
 40
0.6923076923076923
 40
0.6923076923076923
 40
0.7692307692307692
 40
0.7692307692307692
 40
0.7692307692307692
 40
0.7692307692307692
 40
0.846153846153846
 40
0.846153846153846
 40
0.846153846153846
 40
0.846153846153846
 40
0.9230769230769229
 40
0.9230769230769229
 40
0.9230769230769229
 40
0.9230769230769229
 40
1.0
 40
1.0
 40
1.0
 40
1.0
 10
-2.1334500000000003
 20
-3.3559000000000001
 30
0.0
 10
-2.1334500000000003
 20
-3.3559000000000001
 30
0.0
 10
-1.8184900000000002
 20
-3.1374600000000004
 30
0.0
 10
-1.8184900000000002
 20
-3.1374600000000004
 30
0.0
 10
-1.8184900000000002
 20
-3.1374600000000004
 30
0.0
 10
-1.7168900000000002
 20
-3.0790400000000004
 30
0.0
 10
-1.6051300000000002
 20
-3.0155400000000001
 30
0.0
 10
-1.4908300000000001
 20
-3.0333200000000002
 30
0.0
 10
-1.4908300000000001
 20
-3.0333200000000002
 30
0.0
 10
-1.4908300000000001
 20
-3.0333200000000002
 30
0.0
 10
-2.5576300000000001
 20
-3.7648400000000004
 30
0.0
 10
-2.5576300000000001
 20
-3.7648400000000004
 30
0.0
 10
-2.5576300000000001
 20
-3.7648400000000004
 30
0.0
 10
-2.5576300000000001
 20
-3.7648400000000004
 30
0.0
 10
-2.5093700000000001
 20
-3.6962600000000001
 30
0.0
 10
-2.5093700000000001
 20
-3.6962600000000001
 30
0.0
 10
-2.5093700000000001
 20
-3.6962600000000001
 30
0.0
 10
-2.5093700000000001
 20
-3.6962600000000001
 30
0.0
 10
-2.3214100000000002
 20
-3.4244800000000004
 30
0.0
 10
-2.3214100000000002
 20
-3.4244800000000004
 30
0.0
 10
-2.3214100000000002
 20
-3.4244800000000004
 30
0.0
 10
-2.3214100000000002
 20
-3.4244800000000004
 30
0.0
 10
-2.1740900000000001
 20
-3.1400000000000001
 30
0.0
 10
-2.1740900000000001
 20
-3.1400000000000001
 30
0.0
 10
-2.1740900000000001
 20
-3.1400000000000001
 30
0.0
 10
-2.48143
 20
-3.3635200000000003
 30
0.0
 10
-2.7709900000000003
 20
-3.6378400000000002
 30
0.0
 10
-3.0402300000000002
 20
-3.9197800000000003
 30
0.0
 10
-3.0402300000000002
 20
-3.9197800000000003
 30
0.0
 10
-2.9691100000000001
 20
-3.7572200000000002
 30
0.0
 10
-2.7862300000000002
 20
-3.6175200000000003
 30
0.0
 10
-3.0122900000000001
 20
-3.7953200000000002
 30
0.0
 10
-3.0122900000000001
 20
-3.7953200000000002
 30
0.0
 10
-3.0757900000000005
 20
-3.8461200000000004
 30
0.0
 10
-3.1265900000000002
 20
-4.0010600000000007
 30
0.0
 10
-3.2993100000000002
 20
-4.0315400000000006
 30
0.0
 10
-3.2993100000000002
 20
-4.0315400000000006
 30
0.0
 10
-2.5652500000000003
 20
-3.3203400000000003
 30
0.0
 10
-1.7194300000000002
 20
-2.5329400000000004
 30
0.0
 10
-0.7110500000000001
 20
-2.18242
 30
0.0
 10
-0.7110500000000001
 20
-2.18242
 30
0.0
 10
-0.9447300000000001
 20
-2.35514
 30
0.0
 10
-1.2571500000000002
 20
-2.4542000000000002
 30
0.0
 10
-1.4857500000000001
 20
-2.65232
 30
0.0
 10
-1.4857500000000001
 20
-2.65232
 30
0.0
 10
-1.6864100000000002
 20
-2.8021800000000003
 30
0.0
 10
-1.8769100000000001
 20
-2.9291800000000001
 30
0.0
 10
-2.0318500000000004
 20
-3.1069800000000001
 30
0.0
 10
-2.0318500000000004
 20
-3.1069800000000001
 30
0.0
 10
-2.0750300000000004
 20
-3.15524
 30
0.0
 10
-2.1867900000000002
 20
-3.3025600000000002
 30
0.0
 10
-2.1334500000000003
 20
-3.3559000000000001
 30
0.0
  0
ENDSEC
  0
SECTION
  2
OBJECTS
  0
DICTIONARY
  5
19
100
AcDbDictionary
280
     0
281
     1
  3
ACAD_GROUP
350
1A
  3
ACAD_MLINESTYLE
350
1B
  3
ACAD_LAYOUT
350
1E
  3
ACAD_PLOTSETTINGS
350
22
  3
ACAD_PLOTSTYLENAME
350
1F
  3
ACAD_WIPEOUT_VARS
350
23
  0
DICTIONARY
  5
1A
102
{ACAD_REACTORS
330
19
102
}
100
AcDbDictionary
280
     0
281
     1
  0
DICTIONARY
  5
1B
102
{ACAD_REACTORS
330
19
102
}
100
AcDbDictionary
280
     0
281
     1
  3
Standard
350
1C
  0
MLINESTYLE
  5
1C
102
{ACAD_REACTORS
330
1B
102
}
100
AcDbMlineStyle
  2
Standard
 70
     0
  3

 62
     0
 51
90.0
 52
90.0
 71
     2
 49
0.5
 62
   256
  6
BYLAYER
 49
-0.5
 62
   256
  6
BYLAYER
  0
ACDBDICTIONARYWDFLT
  5
1F
102
{ACAD_REACTORS
330
19
102
}
100
AcDbDictionary
281
     1
  3
Normal
350
1D
100
AcDbDictionaryWithDefault
340
1D
  0
ACDBPLACEHOLDER
  5
1D
102
{ACAD_REACTORS
330
1F
102
}
  0
LAYOUT
  5
20
102
{ACAD_REACTORS
330
1E
102
}
100
AcDbPlotSettings
  1

  2

  4

  6

 40
0.0
 41
0.0
 42
0.0
 43
0.0
 44
0.0
 45
0.0
 46
0.0
 47
0.0
 48
0.0
 49
0.0
140
0.0
141
0.0
142
1.0
143
1.0
 70
  1024
 72
     0
 73
     0
 74
     0
  7

 75
     0
147
1.0
148
0.0
149
0.0
100
AcDbLayout
  1
Model
 70
     0
 71
     0
 10
0.0
 20
0.0
 11
0.0
 21
0.0
 12
0.0
 22
0.0
 32
0.0
 14
0.0
 24
0.0
 34
0.0
 15
0.0
 25
0.0
 35
0.0
146
0.0
 13
0.0
 23
0.0
 33
0.0
 16
0.0
 26
0.0
 36
0.0
 17
0.0
 27
0.0
 37
0.0
 76
     0
330
A
331
0
345
0
346
0
  0
LAYOUT
  5
21
102
{ACAD_REACTORS
330
1E
102
}
100
AcDbPlotSettings
  1

  2

  4

  6

 40
0.0
 41
0.0
 42
0.0
 43
0.0
 44
0.0
 45
0.0
 46
0.0
 47
0.0
 48
0.0
 49
0.0
140
0.0
141
0.0
142
1.0
143
1.0
 70
     0
 72
     0
 73
     0
 74
     0
  7

 75
     0
147
1.0
148
0.0
149
0.0
100
AcDbLayout
  1
Layout1
 70
     0
 71
     0
 10
0.0
 20
0.0
 11
0.0
 21
0.0
 12
0.0
 22
0.0
 32
0.0
 14
0.0
 24
0.0
 34
0.0
 15
0.0
 25
0.0
 35
0.0
146
0.0
 13
0.0
 23
0.0
 33
0.0
 16
0.0
 26
0.0
 36
0.0
 17
0.0
 27
0.0
 37
0.0
 76
     0
330
B
331
0
345
0
346
0
  0
DICTIONARY
  5
1E
102
{ACAD_REACTORS
330
19
102
}
100
AcDbDictionary
280
     0
281
     1
  3
Layout1
350
21
  3
Model
350
20
  0
DICTIONARY
  5
22
102
{ACAD_REACTORS
330
19
102
}
100
AcDbDictionary
280
     0
281
     1
  0
WIPEOUTVARIABLES
  5
23
100
AcDbWipeoutVariables
 70
     1
  0
ENDSEC
  0
EOF
