  0
SECTION
  2
HEADER
  9
$ACADVER
  1
AC1015
  9
$ACADMAINTVER
 70
     6
  9
$DWGCODEPAGE
  3
DOS850
  9
$INSBASE
 10
0.0
 20
0.0
 30
0.0
  9
$EXTMIN
 10
-5.04464
 20
-5.06278
 30
1.000000E+20
  9
$EXTMAX
 10
5.04972
 20
5.0551
 30
-1.000000E+20
  9
$LIMMIN
 10
0.0
 20
0.0
  9
$LIMMAX
 10
0.0
 20
0.0
  9
$ORTHOMODE
 70
     0
  9
$REGENMODE
 70
     1
  9
$FILLMODE
 70
     1
  9
$QTEXTMODE
 70
     0
  9
$MIRRTEXT
 70
     1
  9
$LTSCALE
 40
1.0
  9
$ATTMODE
 70
     1
  9
$TEXTSIZE
 40
0.2
  9
$TRACEWID
 40
0.05
  9
$TEXTSTYLE
  7
Standard
  9
$CLAYER
  8
0
  9
$CELTYPE
  6
Continuous
  9
$CECOLOR
 62
   256
  9
$CELTSCALE
 40
1.0
  9
$DISPSILH
 70
     0
  9
$DIMSCALE
 40
1.0
  9
$DIMASZ
 40
0.18
  9
$DIMEXO
 40
0.0625
  9
$DIMDLI
 40
0.38
  9
$DIMRND
 40
0.0
  9
$DIMDLE
 40
0.0
  9
$DIMEXE
 40
0.18
  9
$DIMTP
 40
0.0
  9
$DIMTM
 40
0.0
  9
$DIMTXT
 40
0.18
  9
$DIMCEN
 40
0.09
  9
$DIMTSZ
 40
0.0
  9
$DIMTOL
 70
     0
  9
$DIMLIM
 70
     0
  9
$DIMTIH
 70
     1
  9
$DIMTOH
 70
     1
  9
$DIMSE1
 70
     0
  9
$DIMSE2
 70
     0
  9
$DIMTAD
 70
     0
  9
$DIMZIN
 70
     0
  9
$DIMBLK
  1

  9
$DIMASO
 70
     1
  9
$DIMSHO
 70
     1
  9
$DIMPOST
  1

  9
$DIMAPOST
  1

  9
$DIMALT
 70
     0
  9
$DIMALTD
 70
     2
  9
$DIMALTF
 40
25.4
  9
$DIMLFAC
 40
1.0
  9
$DIMTOFL
 70
     0
  9
$DIMTVP
 40
0.0
  9
$DIMTIX
 70
     0
  9
$DIMSOXD
 70
     0
  9
$DIMSAH
 70
     0
  9
$DIMBLK1
  1

  9
$DIMBLK2
  1

  9
$DIMSTYLE
  2
Standard
  9
$DIMCLRD
 70
     0
  9
$DIMCLRE
 70
     0
  9
$DIMCLRT
 70
     0
  9
$DIMTFAC
 40
1.0
  9
$DIMGAP
 40
0.09
  9
$DIMJUST
 70
     0
  9
$DIMSD1
 70
     0
  9
$DIMSD2
 70
     0
  9
$DIMTOLJ
 70
     1
  9
$DIMTZIN
 70
     0
  9
$DIMALTZ
 70
     0
  9
$DIMALTTZ
 70
     0
  9
$DIMUPT
 70
     0
  9
$DIMDEC
 70
     4
  9
$DIMTDEC
 70
     4
  9
$DIMALTU
 70
     2
  9
$DIMALTTD
 70
     2
  9
$DIMTXSTY
  7
Standard
  9
$DIMAUNIT
 70
     0
  9
$DIMADEC
 70
     0
  9
$DIMALTRND
 40
0.0
  9
$DIMAZIN
 70
     0
  9
$DIMDSEP
 70
     0
  9
$DIMATFIT
 70
     3
  9
$DIMFRAC
 70
     0
  9
$DIMLDRBLK
  1

  9
$DIMLUNIT
 70
     2
  9
$DIMLWD
 70
     0
  9
$DIMLWE
 70
     0
  9
$DIMTMOVE
 70
     0
  9
$LUNITS
 70
     2
  9
$LUPREC
 70
     4
  9
$SKETCHINC
 40
0.1
  9
$FILLETRAD
 40
0.0
  9
$AUNITS
 70
     0
  9
$AUPREC
 70
     0
  9
$MENU
  1
acad
  9
$ELEVATION
 40
0.0
  9
$PELEVATION
 40
0.0
  9
$THICKNESS
 40
0.0
  9
$LIMCHECK
 70
     0
  9
$CHAMFERA
 40
0.0
  9
$CHAMFERB
 40
0.0
  9
$CHAMFERC
 40
0.0
  9
$CHAMFERD
 40
0.0
  9
$SKPOLY
 70
     0
  9
$TDCREATE
 40
0.000000000
  9
$TDUCREATE
 40
0.000000000
  9
$TDUPDATE
 40
0.000000000
  9
$TDUUPDATE
 40
0.000000000
  9
$TDINDWG
 40
0.0000000000
  9
$TDUSRTIMER
 40
0.0000000000
  9
$USRTIMER
 70
     1
  9
$ANGBASE
 50
0.0
  9
$ANGDIR
 70
     0
  9
$PDMODE
 70
     0
  9
$PDSIZE
 40
0.0
  9
$PLINEWID
 40
0.0
  9
$SPLFRAME
 70
     0
  9
$SPLINETYPE
 70
     6
  9
$SPLINESEGS
 70
     8
  9
$HANDSEED
  5
39
  9
$SURFTAB1
 70
     6
  9
$SURFTAB2
 70
     6
  9
$SURFTYPE
 70
     6
  9
$SURFU
 70
     6
  9
$SURFV
 70
     6
  9
$UCSBASE
  2

  9
$UCSNAME
  2

  9
$UCSORG
 10
0.0
 20
0.0
 30
0.0
  9
$UCSXDIR
 10
1.0
 20
0.0
 30
0.0
  9
$UCSYDIR
 10
0.0
 20
1.0
 30
0.0
  9
$UCSORTHOREF
  2

  9
$UCSORTHOVIEW
 70
     0
  9
$UCSORGTOP
 10
0.0
 20
0.0
 30
0.0
  9
$UCSORGBOTTOM
 10
0.0
 20
0.0
 30
0.0
  9
$UCSORGLEFT
 10
0.0
 20
0.0
 30
0.0
  9
$UCSORGRIGHT
 10
0.0
 20
0.0
 30
0.0
  9
$UCSORGFRONT
 10
0.0
 20
0.0
 30
0.0
  9
$UCSORGBACK
 10
0.0
 20
0.0
 30
0.0
  9
$PUCSBASE
  2

  9
$PUCSNAME
  2

  9
$PUCSORG
 10
0.0
 20
0.0
 30
0.0
  9
$PUCSXDIR
 10
1.0
 20
0.0
 30
0.0
  9
$PUCSYDIR
 10
0.0
 20
1.0
 30
0.0
  9
$PUCSORTHOREF
  2

  9
$PUCSORTHOVIEW
 70
     0
  9
$PUCSORGTOP
 10
0.0
 20
0.0
 30
0.0
  9
$PUCSORGBOTTOM
 10
0.0
 20
0.0
 30
0.0
  9
$PUCSORGLEFT
 10
0.0
 20
0.0
 30
0.0
  9
$PUCSORGRIGHT
 10
0.0
 20
0.0
 30
0.0
  9
$PUCSORGFRONT
 10
0.0
 20
0.0
 30
0.0
  9
$PUCSORGBACK
 10
0.0
 20
0.0
 30
0.0
  9
$USERI1
 70
     0
  9
$USERI2
 70
     0
  9
$USERI3
 70
     0
  9
$USERI4
 70
     0
  9
$USERI5
 70
     0
  9
$USERR1
 40
0.0
  9
$USERR2
 40
0.0
  9
$USERR3
 40
0.0
  9
$USERR4
 40
0.0
  9
$USERR5
 40
0.0
  9
$WORLDVIEW
 70
     1
  9
$SHADEDGE
 70
     3
  9
$SHADEDIF
 70
    70
  9
$TILEMODE
 70
     1
  9
$MAXACTVP
 70
    16
  9
$PINSBASE
 10
0.0
 20
0.0
 30
0.0
  9
$PLIMCHECK
 70
     0
  9
$PEXTMIN
 10
1.000000E+20
 20
1.000000E+20
 30
1.000000E+20
  9
$PEXTMAX
 10
-1.000000E+20
 20
-1.000000E+20
 30
-1.000000E+20
  9
$PLIMMIN
 10
0.0
 20
0.0
  9
$PLIMMAX
 10
12.0
 20
9.0
  9
$UNITMODE
 70
     0
  9
$VISRETAIN
 70
     0
  9
$PLINEGEN
 70
     1
  9
$PSLTSCALE
 70
     0
  9
$TREEDEPTH
 70
  3020
  9
$CMLSTYLE
  2
Standard
  9
$CMLJUST
 70
     0
  9
$CMLSCALE
 40
1.0
  9
$PROXYGRAPHICS
 70
     0
  9
$MEASUREMENT
 70
     0
  9
$CELWEIGHT
370
     0
  9
$ENDCAPS
280
     0
  9
$JOINSTYLE
280
     0
  9
$LWDISPLAY
290
     0
  9
$INSUNITS
 70
     5
  9
$HYPERLINKBASE
  1

  9
$XEDIT
290
     1
  9
$CEPSNTYPE
380
     0
  9
$PSTYLEMODE
290
     1
  9
$FINGERPRINTGUID
  2

  9
$VERSIONGUID
  2

  9
$EXTNAMES
290
     1
  9
$PSVPSCALE
 40
0.0
  0
ENDSEC
  0
SECTION
  2
CLASSES
  0
CLASS
  1
LWPOLYLINE
  2
AcDbPolyline
  3
AutoCAD 2000
 90
    32768
280
     0
281
     1
  0
CLASS
  1
IMAGE
  2
AcDbRasterImage
  3
ISM
 90
    32895
280
     0
281
     1
  0
CLASS
  1
OLE2FRAME
  2
AcDbOle2Frame
  3
AutoCAD 2000
 90
    32768
280
     0
281
     1
  0
CLASS
  1
HATCH
  2
AcDbHatch
  3
AutoCAD 2000
 90
    32768
280
     0
281
     1
  0
CLASS
  1
DICTIONARYVAR
  2
AcDbDictionaryVar
  3
AutoCAD 2000
 90
    32768
280
     0
281
     0
  0
CLASS
  1
RASTERVARIABLES
  2
AcDbRasterVariables
  3
ISM
 90
    32768
280
     0
281
     0
  0
CLASS
  1
IMAGEDEF
  2
AcDbRasterImageDef
  3
ISM
 90
    32768
280
     0
281
     0
  0
CLASS
  1
IMAGEDEF_REACTOR
  2
AcDbRasterImageDefReactor
  3
ISM
 90
    32769
280
     0
281
     0
  0
CLASS
  1
IDBUFFER
  2
AcDbIdBuffer
  3
AutoCAD 2000
 90
    32768
280
     0
281
     0
  0
CLASS
  1
SPATIAL_FILTER
  2
AcDbSpatialFilter
  3
AutoCAD 2000
 90
    32768
280
     0
281
     0
  0
CLASS
  1
XRECORD
  2
AcDbXrecord
  3
AutoCAD 2000
 90
    32768
280
     0
281
     0
  0
CLASS
  1
SORTENTSTABLE
  2
AcDbSortentsTable
  3
AutoCAD 2000
 90
    32768
280
     0
281
     0
  0
CLASS
  1
LAYER_INDEX
  2
AcDbLayerIndex
  3
AutoCAD 2000
 90
    32768
280
     0
281
     0
  0
CLASS
  1
SPATIAL_INDEX
  2
AcDbSpatialIndex
  3
AutoCAD 2000
 90
    32768
280
     0
281
     0
  0
CLASS
  1
OBJECT_PTR
  2
CAseDLPNTableRecord
  3
"ASE-LPNTableRecord"
 90
    32769
280
     0
281
     0
  0
CLASS
  1
LAYOUT
  2
AcDbLayout
  3
AutoCAD 2000
 90
        0
280
     0
281
     0
  0
CLASS
  1
PLOTSETTINGS
  2
AcDbPlotSettings
  3
AutoCAD 2000
 90
    32768
280
     0
281
     0
  0
CLASS
  1
ACDBDICTIONARYWDFLT
  2
AcDbDictionaryWithDefault
  3
AutoCAD 2000
 90
        0
280
     0
281
     0
  0
CLASS
  1
ACDBPLACEHOLDER
  2
AcDbPlaceHolder
  3
AutoCAD 2000
 90
        0
280
     0
281
     0
  0
CLASS
  1
VBA_PROJECT
  2
AcDbVbaProject
  3
acadvba
 90
    32768
280
     0
281
     0
  0
CLASS
  1
WIPEOUT
  2
AcDbWipeout
  3
WipeOut|AutoCAD Express Tool|expresstools@autodesk.com
 90
    32895
280
     0
281
     1
  0
CLASS
  1
WIPEOUTVARIABLES
  2
AcDbWipeoutVariables
  3
WipeOut|AutoCAD Express Tool|expresstools@autodesk.com
 90
        0
280
     0
281
     0
  0
CLASS
  1
RTEXT
  2
RText
  3
RText|AutoCAD Express Tool|expresstools@autodesk.com
 90
    32768
280
     0
281
     1
  0
CLASS
  1
ARCALIGNEDTEXT
  2
AcDbArcAlignedText
  3
ATEXT|AutoCAD Express Tool|expresstools@autodesk.com
 90
    32768
280
     0
281
     1
  0
ENDSEC
  0
SECTION
  2
TABLES
  0
TABLE
  2
VPORT
  5
7
100
AcDbSymbolTable
 70
     1
  0
VPORT
  5
15
100
AcDbSymbolTableRecord
100
AcDbViewportTableRecord
  2
*ACTIVE
 70
     0
 10
0.0
 20
0.0
 11
1.0
 21
1.0
 12
6.591288
 22
4.579184
 13
0.0
 23
0.0
 14
1.0
 24
1.0
 15
0.0
 25
0.0
 16
0.0
 26
0.0
 36
1.0
 17
0.0
 27
0.0
 37
0.0
 40
9.158369
 41
0.688564
 42
50.0
 43
0.0
 44
0.0
 50
0.0
 51
0.0
 71
     0
 72
   100
 73
     1
 74
     1
 75
     0
 76
     0
 77
     0
 78
     0
281
     0
 65
     0
110
0.0
120
0.0
130
0.0
111
1.0
121
0.0
131
0.0
112
0.0
122
1.0
132
0.0
345
0
346
0
 79
     0
146
0.0
  0
ENDTAB
  0
TABLE
  2
LTYPE
  5
4
100
AcDbSymbolTable
 70
     3
  0
LTYPE
  5
11
100
AcDbSymbolTableRecord
100
AcDbLinetypeTableRecord
  2
ByBlock
 70
    64
  3

 72
    65
 73
     0
 40
0.0
  0
LTYPE
  5
12
100
AcDbSymbolTableRecord
100
AcDbLinetypeTableRecord
  2
ByLayer
 70
    64
  3

 72
    65
 73
     0
 40
0.0
  0
LTYPE
  5
13
100
AcDbSymbolTableRecord
100
AcDbLinetypeTableRecord
  2
Continuous
 70
    64
  3
Solid line
 72
    65
 73
     0
 40
0.0
  0
ENDTAB
  0
TABLE
  2
LAYER
  5
2
100
AcDbSymbolTable
 70
     2
  0
LAYER
  5
14
100
AcDbSymbolTableRecord
100
AcDbLayerTableRecord
  2
0
 70
     0
 62
     7
  6
Continuous
290
     1
370
    -3
390
1D
  0
LAYER
  5
24
100
AcDbSymbolTableRecord
100
AcDbLayerTableRecord
  2
Ebene 1
 70
     0
 62
     7
  6
Continuous
290
     1
370
    -3
390
1F
  0
ENDTAB
  0
TABLE
  2
STYLE
  5
3
100
AcDbSymbolTable
 70
     1
  0
STYLE
  5
17
100
AcDbSymbolTableRecord
100
AcDbTextStyleTableRecord
  2
Standard
 70
     0
 40
0.0
 41
1.0
 50
0.0
 71
     0
 42
0.0
  3
txt
  4

  0
ENDTAB
  0
TABLE
  2
VIEW
  5
5
100
AcDbSymbolTable
 70
     0
  0
ENDTAB
  0
TABLE
  2
UCS
  5
6
100
AcDbSymbolTable
 70
     0
  0
ENDTAB
  0
TABLE
  2
APPID
  5
8
100
AcDbSymbolTable
 70
     1
  0
APPID
  5
16
100
AcDbSymbolTableRecord
100
AcDbRegAppTableRecord
  2
ACAD
 70
     0
  0
ENDTAB
  0
TABLE
  2
DIMSTYLE
  5
9
100
AcDbSymbolTable
 70
     1
100
AcDbDimStyleTable
 71
     0
  0
DIMSTYLE
105
18
100
AcDbSymbolTableRecord
100
AcDbDimStyleTableRecord
  2
Standard
 70
     0
  3

  4

 40
1.0
 41
0.18
 42
0.0625
 43
0.38
 44
0.18
 45
0.0
 46
0.0
 47
0.0
 48
0.0
 71
     0
 72
     0
 73
     1
 74
     1
 75
     0
 76
     0
 77
     0
 78
     0
 79
     0
140
0.18
141
0.09
142
0.0
143
25.4
144
1.0
145
0.0
146
1.0
147
0.09
148
0.0
170
     0
171
     2
172
     0
173
     0
174
     0
175
     0
176
     0
177
     0
178
     0
179
     0
271
     4
272
     4
273
     2
274
     2
275
     0
276
     0
277
     2
278
    46
279
     0
280
     0
281
     0
282
     0
283
     1
284
     0
285
     0
286
     0
288
     0
340
17
341
0
342
0
343
0
344
0
371
    -2
372
    -2
  0
ENDTAB
  0
TABLE
  2
BLOCK_RECORD
  5
1
100
AcDbSymbolTable
 70
     0
  0
BLOCK_RECORD
  5
A
100
AcDbSymbolTableRecord
100
AcDbBlockTableRecord
  2
*MODEL_SPACE
340
20
  0
BLOCK_RECORD
  5
B
100
AcDbSymbolTableRecord
100
AcDbBlockTableRecord
  2
*PAPER_SPACE
340
21
  0
ENDTAB
  0
ENDSEC
  0
SECTION
  2
BLOCKS
  0
BLOCK
  5
D
100
AcDbEntity
  8
0
100
AcDbBlockBegin
  2
*MODEL_SPACE
 70
     0
 10
0.0
 20
0.0
 30
0.0
  3
*MODEL_SPACE
  1

  0
ENDBLK
  5
E
100
AcDbEntity
  8
0
100
AcDbBlockEnd
  0
BLOCK
  5
F
100
AcDbEntity
 67
     1
  8
0
100
AcDbBlockBegin
  2
*PAPER_SPACE
 70
     0
 10
0.0
 20
0.0
 30
0.0
  3
*PAPER_SPACE
  1

  0
ENDBLK
  5
10
100
AcDbEntity
 67
     1
  8
0
100
AcDbBlockEnd
  0
ENDSEC
  0
SECTION
  2
ENTITIES
  0
SPLINE
  5
25
100
AcDbEntity
  8
Ebene 1
100
AcDbSpline
210
0.0
220
0.0
230
1.0
 70
     1
 71
     3
 72
    92
 73
    88
 74
     0
 42
0.0000000001
 43
0.0000000001
 40
0.0
 40
0.0
 40
0.0
 40
0.0
 40
0.0454545454545455
 40
0.0454545454545455
 40
0.0454545454545455
 40
0.0454545454545455
 40
0.0909090909090909
 40
0.0909090909090909
 40
0.0909090909090909
 40
0.0909090909090909
 40
0.1363636363636364
 40
0.1363636363636364
 40
0.1363636363636364
 40
0.1363636363636364
 40
0.1818181818181818
 40
0.1818181818181818
 40
0.1818181818181818
 40
0.1818181818181818
 40
0.2272727272727273
 40
0.2272727272727273
 40
0.2272727272727273
 40
0.2272727272727273
 40
0.2727272727272728
 40
0.2727272727272728
 40
0.2727272727272728
 40
0.2727272727272728
 40
0.3181818181818182
 40
0.3181818181818182
 40
0.3181818181818182
 40
0.3181818181818182
 40
0.3636363636363637
 40
0.3636363636363637
 40
0.3636363636363637
 40
0.3636363636363637
 40
0.4090909090909092
 40
0.4090909090909092
 40
0.4090909090909092
 40
0.4090909090909092
 40
0.4545454545454546
 40
0.4545454545454546
 40
0.4545454545454546
 40
0.4545454545454546
 40
0.5000000000000001
 40
0.5000000000000001
 40
0.5000000000000001
 40
0.5000000000000001
 40
0.5454545454545455
 40
0.5454545454545455
 40
0.5454545454545455
 40
0.5454545454545455
 40
0.5909090909090909
 40
0.5909090909090909
 40
0.5909090909090909
 40
0.5909090909090909
 40
0.6363636363636364
 40
0.6363636363636364
 40
0.6363636363636364
 40
0.6363636363636364
 40
0.6818181818181818
 40
0.6818181818181818
 40
0.6818181818181818
 40
0.6818181818181818
 40
0.7272727272727272
 40
0.7272727272727272
 40
0.7272727272727272
 40
0.7272727272727272
 40
0.7727272727272726
 40
0.7727272727272726
 40
0.7727272727272726
 40
0.7727272727272726
 40
0.818181818181818
 40
0.818181818181818
 40
0.818181818181818
 40
0.818181818181818
 40
0.8636363636363634
 40
0.8636363636363634
 40
0.8636363636363634
 40
0.8636363636363634
 40
0.9090909090909088
 40
0.9090909090909088
 40
0.9090909090909088
 40
0.9090909090909088
 40
0.9545454545454543
 40
0.9545454545454543
 40
0.9545454545454543
 40
0.9545454545454543
 40
1.0
 40
1.0
 40
1.0
 40
1.0
 10
-0.25131
 20
5.0514900000000003
 30
0.0
 10
1.2904600000000002
 20
5.1099100000000002
 30
0.0
 10
2.8017600000000003
 20
4.5333300000000003
 30
0.0
 10
3.6983800000000002
 20
3.2252300000000003
 30
0.0
 10
3.6983800000000002
 20
3.2252300000000003
 30
0.0
 10
4.3283000000000005
 20
3.5173300000000003
 30
0.0
 10
4.67882
 20
4.2564700000000002
 30
0.0
 10
4.9429800000000004
 20
4.8025700000000002
 30
0.0
 10
4.9429800000000004
 20
4.8025700000000002
 30
0.0
 10
5.2782600000000004
 20
3.8424500000000004
 30
0.0
 10
4.7677200000000006
 20
2.8899500000000002
 30
0.0
 10
4.1886000000000001
 20
2.1711300000000002
 30
0.0
 10
4.1886000000000001
 20
2.1711300000000002
 30
0.0
 10
4.6458000000000004
 20
0.9849500000000001
 30
0.0
 10
4.5061
 20
-0.35108
 30
0.0
 10
3.9244400000000002
 20
-1.46106
 30
0.0
 10
3.9244400000000002
 20
-1.46106
 30
0.0
 10
3.9600000000000004
 20
-1.6998200000000001
 30
0.0
 10
4.04636
 20
-1.9614400000000001
 30
0.0
 10
3.9422200000000003
 20
-2.1951200000000002
 30
0.0
 10
3.9422200000000003
 20
-2.1951200000000002
 30
0.0
 10
3.8736400000000004
 20
-2.3678400000000002
 30
0.0
 10
3.7669600000000001
 20
-2.5151600000000003
 30
0.0
 10
3.6450400000000003
 20
-2.6497800000000002
 30
0.0
 10
3.6450400000000003
 20
-2.6497800000000002
 30
0.0
 10
2.5553800000000004
 20
-3.4625800000000004
 30
0.0
 10
1.2904600000000002
 20
-2.22052
 30
0.0
 10
0.23636
 20
-2.9368000000000003
 30
0.0
 10
0.23636
 20
-2.9368000000000003
 30
0.0
 10
0.00776
 20
-2.9596600000000004
 30
0.0
 10
-0.16495
 20
-2.8174200000000003
 30
0.0
 10
-0.39355
 20
-2.8529800000000001
 30
0.0
 10
-0.39355
 20
-2.8529800000000001
 30
0.0
 10
-0.30465
 20
-3.3025600000000002
 30
0.0
 10
-0.18273
 20
-4.0696400000000006
 30
0.0
 10
-0.69581
 20
-3.5464000000000002
 30
0.0
 10
-0.69581
 20
-3.5464000000000002
 30
0.0
 10
-0.8355100000000001
 20
-3.7623000000000002
 30
0.0
 10
-0.9015500000000001
 20
-4.4430200000000006
 30
0.0
 10
-1.1961900000000001
 20
-4.0645600000000002
 30
0.0
 10
-1.1961900000000001
 20
-4.0645600000000002
 30
0.0
 10
-1.41717
 20
-4.3642799999999999
 30
0.0
 10
-1.4247900000000002
 20
-4.78592
 30
0.0
 10
-1.6914900000000002
 20
-5.0627800000000001
 30
0.0
 10
-1.6914900000000002
 20
-5.0627800000000001
 30
0.0
 10
-1.8210300000000001
 20
-4.7224200000000005
 30
0.0
 10
-1.9277100000000003
 20
-4.1534599999999999
 30
0.0
 10
-2.2883900000000001
 20
-4.6944800000000004
 30
0.0
 10
-2.2883900000000001
 20
-4.6944800000000004
 30
0.0
 10
-2.5449300000000004
 20
-4.2703000000000007
 30
0.0
 10
-3.0249900000000003
 20
-4.6589200000000002
 30
0.0
 10
-3.0935700000000002
 20
-4.9332400000000005
 30
0.0
 10
-3.0935700000000002
 20
-4.9332400000000005
 30
0.0
 10
-3.1519900000000001
 20
-4.8316400000000002
 30
0.0
 10
-3.2078700000000002
 20
-4.7275
 30
0.0
 10
-3.2408900000000003
 20
-4.6106600000000002
 30
0.0
 10
-3.2408900000000003
 20
-4.6106600000000002
 30
0.0
 10
-3.3196300000000001
 20
-4.5547800000000001
 30
0.0
 10
-3.2866100000000005
 20
-4.7681400000000007
 30
0.0
 10
-3.3907500000000002
 20
-4.7046400000000004
 30
0.0
 10
-3.3907500000000002
 20
-4.7046400000000004
 30
0.0
 10
-3.7920700000000003
 20
-4.0264600000000002
 30
0.0
 10
-3.6828500000000002
 20
-3.1857200000000003
 30
0.0
 10
-3.8225500000000001
 20
-2.4135600000000004
 30
0.0
 10
-3.8225500000000001
 20
-2.4135600000000004
 30
0.0
 10
-4.5820100000000004
 20
-2.2078200000000003
 30
0.0
 10
-5.0773100000000007
 20
-1.4915400000000001
 30
0.0
 10
-4.5921700000000003
 20
-0.7752600000000001
 30
0.0
 10
-4.5921700000000003
 20
-0.7752600000000001
 30
0.0
 10
-4.7979100000000008
 20
-0.26218
 30
0.0
 10
-4.9249100000000006
 20
0.3372500000000001
 30
0.0
 10
-4.5058100000000003
 20
0.8249300000000001
 30
0.0
 10
-4.5058100000000003
 20
0.8249300000000001
 30
0.0
 10
-4.4143700000000008
 20
1.10941
 30
0.0
 10
-4.3610300000000004
 20
1.4497700000000002
 30
0.0
 10
-4.4194500000000003
 20
1.7469500000000002
 30
0.0
 10
-4.4194500000000003
 20
1.7469500000000002
 30
0.0
 10
-5.0874700000000006
 20
2.22193
 30
0.0
 10
-5.2652700000000001
 20
3.2506300000000001
 30
0.0
 10
-4.7318700000000007
 20
3.8399100000000002
 30
0.0
 10
-4.7318700000000007
 20
3.8399100000000002
 30
0.0
 10
-4.7953700000000001
 20
3.4131900000000002
 30
0.0
 10
-4.6505900000000002
 20
2.5368900000000001
 30
0.0
 10
-4.0841700000000003
 20
2.6156300000000003
 30
0.0
 10
-4.0841700000000003
 20
2.6156300000000003
 30
0.0
 10
-3.5075900000000004
 20
4.21075
 30
0.0
 10
-1.7778500000000002
 20
4.8838500000000007
 30
0.0
 10
-0.25131
 20
5.0514900000000003
 30
0.0
  0
SPLINE
  5
26
100
AcDbEntity
  8
Ebene 1
 62
     7
100
AcDbSpline
210
0.0
220
0.0
230
1.0
 70
     1
 71
     3
 72
   252
 73
   248
 74
     0
 42
0.0000000001
 43
0.0000000001
 40
0.0
 40
0.0
 40
0.0
 40
0.0
 40
0.0161290322580645
 40
0.0161290322580645
 40
0.0161290322580645
 40
0.0161290322580645
 40
0.032258064516129
 40
0.032258064516129
 40
0.032258064516129
 40
0.032258064516129
 40
0.0483870967741935
 40
0.0483870967741935
 40
0.0483870967741935
 40
0.0483870967741935
 40
0.0645161290322581
 40
0.0645161290322581
 40
0.0645161290322581
 40
0.0645161290322581
 40
0.0806451612903226
 40
0.0806451612903226
 40
0.0806451612903226
 40
0.0806451612903226
 40
0.0967741935483871
 40
0.0967741935483871
 40
0.0967741935483871
 40
0.0967741935483871
 40
0.1129032258064516
 40
0.1129032258064516
 40
0.1129032258064516
 40
0.1129032258064516
 40
0.1290322580645161
 40
0.1290322580645161
 40
0.1290322580645161
 40
0.1290322580645161
 40
0.1451612903225806
 40
0.1451612903225806
 40
0.1451612903225806
 40
0.1451612903225806
 40
0.1612903225806451
 40
0.1612903225806451
 40
0.1612903225806451
 40
0.1612903225806451
 40
0.1774193548387096
 40
0.1774193548387096
 40
0.1774193548387096
 40
0.1774193548387096
 40
0.1935483870967741
 40
0.1935483870967741
 40
0.1935483870967741
 40
0.1935483870967741
 40
0.2096774193548386
 40
0.2096774193548386
 40
0.2096774193548386
 40
0.2096774193548386
 40
0.2258064516129031
 40
0.2258064516129031
 40
0.2258064516129031
 40
0.2258064516129031
 40
0.2419354838709676
 40
0.2419354838709676
 40
0.2419354838709676
 40
0.2419354838709676
 40
0.2580645161290321
 40
0.2580645161290321
 40
0.2580645161290321
 40
0.2580645161290321
 40
0.2741935483870966
 40
0.2741935483870966
 40
0.2741935483870966
 40
0.2741935483870966
 40
0.2903225806451611
 40
0.2903225806451611
 40
0.2903225806451611
 40
0.2903225806451611
 40
0.3064516129032257
 40
0.3064516129032257
 40
0.3064516129032257
 40
0.3064516129032257
 40
0.3225806451612902
 40
0.3225806451612902
 40
0.3225806451612902
 40
0.3225806451612902
 40
0.3387096774193547
 40
0.3387096774193547
 40
0.3387096774193547
 40
0.3387096774193547
 40
0.3548387096774192
 40
0.3548387096774192
 40
0.3548387096774192
 40
0.3548387096774192
 40
0.3709677419354837
 40
0.3709677419354837
 40
0.3709677419354837
 40
0.3709677419354837
 40
0.3870967741935482
 40
0.3870967741935482
 40
0.3870967741935482
 40
0.3870967741935482
 40
0.4032258064516127
 40
0.4032258064516127
 40
0.4032258064516127
 40
0.4032258064516127
 40
0.4193548387096772
 40
0.4193548387096772
 40
0.4193548387096772
 40
0.4193548387096772
 40
0.4354838709677417
 40
0.4354838709677417
 40
0.4354838709677417
 40
0.4354838709677417
 40
0.4516129032258062
 40
0.4516129032258062
 40
0.4516129032258062
 40
0.4516129032258062
 40
0.4677419354838707
 40
0.4677419354838707
 40
0.4677419354838707
 40
0.4677419354838707
 40
0.4838709677419352
 40
0.4838709677419352
 40
0.4838709677419352
 40
0.4838709677419352
 40
0.4999999999999997
 40
0.4999999999999997
 40
0.4999999999999997
 40
0.4999999999999997
 40
0.5161290322580642
 40
0.5161290322580642
 40
0.5161290322580642
 40
0.5161290322580642
 40
0.5322580645161287
 40
0.5322580645161287
 40
0.5322580645161287
 40
0.5322580645161287
 40
0.5483870967741932
 40
0.5483870967741932
 40
0.5483870967741932
 40
0.5483870967741932
 40
0.5645161290322577
 40
0.5645161290322577
 40
0.5645161290322577
 40
0.5645161290322577
 40
0.5806451612903222
 40
0.5806451612903222
 40
0.5806451612903222
 40
0.5806451612903222
 40
0.5967741935483867
 40
0.5967741935483867
 40
0.5967741935483867
 40
0.5967741935483867
 40
0.6129032258064512
 40
0.6129032258064512
 40
0.6129032258064512
 40
0.6129032258064512
 40
0.6290322580645157
 40
0.6290322580645157
 40
0.6290322580645157
 40
0.6290322580645157
 40
0.6451612903225802
 40
0.6451612903225802
 40
0.6451612903225802
 40
0.6451612903225802
 40
0.6612903225806447
 40
0.6612903225806447
 40
0.6612903225806447
 40
0.6612903225806447
 40
0.6774193548387092
 40
0.6774193548387092
 40
0.6774193548387092
 40
0.6774193548387092
 40
0.6935483870967737
 40
0.6935483870967737
 40
0.6935483870967737
 40
0.6935483870967737
 40
0.7096774193548382
 40
0.7096774193548382
 40
0.7096774193548382
 40
0.7096774193548382
 40
0.7258064516129027
 40
0.7258064516129027
 40
0.7258064516129027
 40
0.7258064516129027
 40
0.7419354838709672
 40
0.7419354838709672
 40
0.7419354838709672
 40
0.7419354838709672
 40
0.7580645161290317
 40
0.7580645161290317
 40
0.7580645161290317
 40
0.7580645161290317
 40
0.7741935483870962
 40
0.7741935483870962
 40
0.7741935483870962
 40
0.7741935483870962
 40
0.7903225806451607
 40
0.7903225806451607
 40
0.7903225806451607
 40
0.7903225806451607
 40
0.8064516129032252
 40
0.8064516129032252
 40
0.8064516129032252
 40
0.8064516129032252
 40
0.8225806451612897
 40
0.8225806451612897
 40
0.8225806451612897
 40
0.8225806451612897
 40
0.8387096774193542
 40
0.8387096774193542
 40
0.8387096774193542
 40
0.8387096774193542
 40
0.8548387096774187
 40
0.8548387096774187
 40
0.8548387096774187
 40
0.8548387096774187
 40
0.8709677419354832
 40
0.8709677419354832
 40
0.8709677419354832
 40
0.8709677419354832
 40
0.8870967741935477
 40
0.8870967741935477
 40
0.8870967741935477
 40
0.8870967741935477
 40
0.9032258064516122
 40
0.9032258064516122
 40
0.9032258064516122
 40
0.9032258064516122
 40
0.9193548387096767
 40
0.9193548387096767
 40
0.9193548387096767
 40
0.9193548387096767
 40
0.9354838709677412
 40
0.9354838709677412
 40
0.9354838709677412
 40
0.9354838709677412
 40
0.9516129032258057
 40
0.9516129032258057
 40
0.9516129032258057
 40
0.9516129032258057
 40
0.9677419354838702
 40
0.9677419354838702
 40
0.9677419354838702
 40
0.9677419354838702
 40
0.9838709677419347
 40
0.9838709677419347
 40
0.9838709677419347
 40
0.9838709677419347
 40
1.0
 40
1.0
 40
1.0
 40
1.0
 10
-0.02525
 20
4.9803700000000006
 30
0.0
 10
1.18632
 20
5.0032300000000003
 30
0.0
 10
2.6595200000000001
 20
4.5587300000000006
 30
0.0
 10
3.1700600000000003
 20
3.4055700000000004
 30
0.0
 10
3.1700600000000003
 20
3.4055700000000004
 30
0.0
 10
2.8703400000000001
 20
3.3014300000000003
 30
0.0
 10
2.5198200000000002
 20
3.4843100000000002
 30
0.0
 10
2.3267800000000003
 20
3.1693500000000001
 30
0.0
 10
2.3267800000000003
 20
3.1693500000000001
 30
0.0
 10
2.41568
 20
3.0448900000000001
 30
0.0
 10
2.6087200000000004
 20
3.3268300000000002
 30
0.0
 10
2.7662000000000004
 20
3.2430100000000004
 30
0.0
 10
2.7662000000000004
 20
3.2430100000000004
 30
0.0
 10
2.8881200000000002
 20
3.1591900000000002
 30
0.0
 10
3.0837000000000003
 20
3.1591900000000002
 30
0.0
 10
3.1700600000000003
 20
3.0194900000000002
 30
0.0
 10
3.1700600000000003
 20
3.0194900000000002
 30
0.0
 10
2.5731600000000001
 20
3.0067900000000001
 30
0.0
 10
1.8010000000000002
 20
2.5445100000000003
 30
0.0
 10
2.0270600000000001
 20
1.8434700000000002
 30
0.0
 10
2.0270600000000001
 20
1.8434700000000002
 30
0.0
 10
2.13374
 20
1.3075300000000001
 30
0.0
 10
2.9592400000000003
 20
1.9704700000000002
 30
0.0
 10
2.50204
 20
1.4751700000000001
 30
0.0
 10
2.50204
 20
1.4751700000000001
 30
0.0
 10
2.50204
 20
1.4751700000000001
 30
0.0
 10
2.6950800000000004
 20
1.39897
 30
0.0
 10
2.6950800000000004
 20
1.39897
 30
0.0
 10
2.6950800000000004
 20
1.39897
 30
0.0
 10
3.1167200000000004
 20
1.49041
 30
0.0
 10
3.5205800000000003
 20
1.7088500000000002
 30
0.0
 10
3.9066600000000005
 20
1.9044300000000001
 30
0.0
 10
3.9066600000000005
 20
1.9044300000000001
 30
0.0
 10
4.6966000000000001
 20
0.9163700000000001
 30
0.0
 10
4.29528
 20
-0.65842
 30
0.0
 10
3.3097600000000003
 20
-1.3594600000000001
 30
0.0
 10
3.3097600000000003
 20
-1.3594600000000001
 30
0.0
 10
3.7314000000000003
 20
-1.4407400000000001
 30
0.0
 10
3.9066600000000005
 20
-2.1189200000000001
 30
0.0
 10
3.3808800000000003
 20
-2.31704
 30
0.0
 10
3.3808800000000003
 20
-2.31704
 30
0.0
 10
3.2056200000000001
 20
-2.3830800000000001
 30
0.0
 10
2.9770200000000004
 20
-2.3830800000000001
 30
0.0
 10
2.8017600000000003
 20
-2.2992600000000003
 30
0.0
 10
2.8017600000000003
 20
-2.2992600000000003
 30
0.0
 10
2.4334600000000002
 20
-1.8344400000000001
 30
0.0
 10
1.69432
 20
-1.2781800000000001
 30
0.0
 10
1.18632
 20
-1.9182600000000001
 30
0.0
 10
1.18632
 20
-1.9182600000000001
 30
0.0
 10
0.46496
 20
-1.7861800000000001
 30
0.0
 10
-0.21829
 20
-2.2256
 30
0.0
 10
-0.8837700000000001
 20
-2.4465800000000004
 30
0.0
 10
-0.8837700000000001
 20
-2.4465800000000004
 30
0.0
 10
-1.0691900000000001
 20
-2.3322800000000004
 30
0.0
 10
-1.33081
 20
-2.26878
 30
0.0
 10
-1.4146300000000001
 20
-2.0452600000000003
 30
0.0
 10
-1.4146300000000001
 20
-2.0452600000000003
 30
0.0
 10
-1.5213100000000002
 20
-1.7557
 30
0.0
 10
-1.6051300000000002
 20
-1.8115800000000002
 30
0.0
 10
-1.5517900000000002
 20
-2.1113
 30
0.0
 10
-1.5517900000000002
 20
-2.1113
 30
0.0
 10
-1.54671
 20
-2.1646400000000003
 30
0.0
 10
-1.5594100000000002
 20
-2.2154400000000001
 30
0.0
 10
-1.5822700000000001
 20
-2.2560800000000003
 30
0.0
 10
-1.5822700000000001
 20
-2.2560800000000003
 30
0.0
 10
-1.5797300000000001
 20
-2.3145000000000002
 30
0.0
 10
-1.7092700000000001
 20
-2.4288000000000003
 30
0.0
 10
-1.58735
 20
-2.4288000000000003
 30
0.0
 10
-1.58735
 20
-2.4288000000000003
 30
0.0
 10
-1.25461
 20
-2.2103600000000001
 30
0.0
 10
-0.9421900000000001
 20
-3.8207200000000001
 30
0.0
 10
-1.04633
 20
-3.0104600000000001
 30
0.0
 10
-1.04633
 20
-3.0104600000000001
 30
0.0
 10
-1.0514100000000002
 20
-2.8910800000000001
 30
0.0
 10
-1.1936500000000001
 20
-2.6066000000000003
 30
0.0
 10
-1.0082300000000002
 20
-2.5862800000000004
 30
0.0
 10
-1.0082300000000002
 20
-2.5862800000000004
 30
0.0
 10
-0.26909
 20
-2.3678400000000002
 30
0.0
 10
-0.6043700000000001
 20
-3.9045400000000003
 30
0.0
 10
-1.12507
 20
-3.4321000000000002
 30
0.0
 10
-1.12507
 20
-3.4321000000000002
 30
0.0
 10
-1.12507
 20
-3.4321000000000002
 30
0.0
 10
-1.3282700000000001
 20
-3.9502600000000001
 30
0.0
 10
-1.3282700000000001
 20
-3.9502600000000001
 30
0.0
 10
-1.3282700000000001
 20
-3.9502600000000001
 30
0.0
 10
-1.5517900000000002
 20
-3.3990800000000001
 30
0.0
 10
-1.8108700000000002
 20
-4.0798000000000005
 30
0.0
 10
-1.8362700000000001
 20
-4.3719000000000001
 30
0.0
 10
-1.8362700000000001
 20
-4.3719000000000001
 30
0.0
 10
-2.0369300000000004
 20
-4.2220400000000007
 30
0.0
 10
-2.02677
 20
-3.9451800000000001
 30
0.0
 10
-2.2426700000000004
 20
-3.7826200000000001
 30
0.0
 10
-2.2426700000000004
 20
-3.7826200000000001
 30
0.0
 10
-2.4306300000000003
 20
-3.8004000000000002
 30
0.0
 10
-2.4687300000000003
 20
-4.0772600000000008
 30
0.0
 10
-2.5576300000000001
 20
-4.2144200000000005
 30
0.0
 10
-2.5576300000000001
 20
-4.2144200000000005
 30
0.0
 10
-2.82179
 20
-4.22966
 30
0.0
 10
-2.9741900000000001
 20
-3.4981400000000002
 30
0.0
 10
-3.1799300000000001
 20
-4.05694
 30
0.0
 10
-3.1799300000000001
 20
-4.05694
 30
0.0
 10
-3.1799300000000001
 20
-4.05694
 30
0.0
 10
-3.5025100000000005
 20
-3.0434800000000002
 30
0.0
 10
-3.5025100000000005
 20
-3.0434800000000002
 30
0.0
 10
-3.5025100000000005
 20
-3.0434800000000002
 30
0.0
 10
-3.6472900000000004
 20
-3.2263600000000001
 30
0.0
 10
-3.2358100000000003
 20
-3.9401000000000002
 30
0.0
 10
-3.5660100000000003
 20
-3.7572200000000002
 30
0.0
 10
-3.5660100000000003
 20
-3.7572200000000002
 30
0.0
 10
-3.6549100000000001
 20
-3.3584400000000003
 30
0.0
 10
-3.7768300000000004
 20
-2.0300200000000004
 30
0.0
 10
-3.4669500000000002
 20
-2.8301200000000004
 30
0.0
 10
-3.4669500000000002
 20
-2.8301200000000004
 30
0.0
 10
-3.4948900000000003
 20
-2.4465800000000004
 30
0.0
 10
-3.7361900000000001
 20
-2.0808200000000001
 30
0.0
 10
-3.5228300000000004
 20
-1.7099800000000001
 30
0.0
 10
-3.5228300000000004
 20
-1.7099800000000001
 30
0.0
 10
-3.4898100000000003
 20
-1.5194800000000002
 30
0.0
 10
-3.6828500000000002
 20
-1.8217400000000001
 30
0.0
 10
-3.7260300000000002
 20
-1.8801600000000001
 30
0.0
 10
-3.7260300000000002
 20
-1.8801600000000001
 30
0.0
 10
-4.0003500000000001
 20
-2.2383000000000002
 30
0.0
 10
-4.3000700000000007
 20
-2.3449800000000001
 30
0.0
 10
-4.5515300000000005
 20
-1.7557
 30
0.0
 10
-4.5515300000000005
 20
-1.7557
 30
0.0
 10
-4.7471100000000002
 20
-1.2629400000000002
 30
0.0
 10
-4.3661099999999999
 20
-1.08514
 30
0.0
 10
-4.1171899999999999
 20
-1.4077200000000001
 30
0.0
 10
-4.1171899999999999
 20
-1.4077200000000001
 30
0.0
 10
-3.9520900000000001
 20
-1.5626600000000002
 30
0.0
 10
-3.9216100000000003
 20
-1.4382000000000001
 30
0.0
 10
-4.1425900000000002
 20
-1.2578600000000002
 30
0.0
 10
-4.1425900000000002
 20
-1.2578600000000002
 30
0.0
 10
-4.43215
 20
-1.0241800000000001
 30
0.0
 10
-4.6378900000000005
 20
-0.53142
 30
0.0
 10
-4.5337500000000004
 20
-0.2698
 30
0.0
 10
-4.5337500000000004
 20
-0.2698
 30
0.0
 10
-4.2035500000000008
 20
-0.6076200000000001
 30
0.0
 10
-3.3399500000000004
 20
-0.65842
 30
0.0
 10
-4.05877
 20
-0.8590800000000001
 30
0.0
 10
-4.05877
 20
-0.8590800000000001
 30
0.0
 10
-4.2010100000000001
 20
-1.1816600000000002
 30
0.0
 10
-3.7666700000000004
 20
-0.80066
 30
0.0
 10
-3.6777700000000002
 20
-0.8717800000000001
 30
0.0
 10
-3.6777700000000002
 20
-0.8717800000000001
 30
0.0
 10
-3.5304500000000001
 20
-0.9886200000000001
 30
0.0
 10
-3.4796500000000004
 20
-1.2629400000000002
 30
0.0
 10
-3.5660100000000003
 20
-1.54488
 30
0.0
 10
-3.5660100000000003
 20
-1.54488
 30
0.0
 10
-3.4085300000000003
 20
-1.3213600000000001
 30
0.0
 10
-3.3602700000000003
 20
-0.99116
 30
0.0
 10
-3.1519900000000001
 20
-0.76002
 30
0.0
 10
-3.1519900000000001
 20
-0.76002
 30
0.0
 10
-3.0529300000000004
 20
-0.3714
 30
0.0
 10
-3.6930100000000001
 20
-0.31806
 30
0.0
 10
-3.7463500000000005
 20
0.05531
 30
0.0
 10
-3.7463500000000005
 20
0.05531
 30
0.0
 10
-3.7539700000000003
 20
0.10865
 30
0.0
 10
-3.5380700000000003
 20
0.44901
 30
0.0
 10
-3.7692100000000002
 20
0.25343
 30
0.0
 10
-3.7692100000000002
 20
0.25343
 30
0.0
 10
-3.9419300000000002
 20
-0.32822
 30
0.0
 10
-4.2975300000000001
 20
0.42361
 30
0.0
 10
-4.3407100000000005
 20
0.3677300000000001
 30
0.0
 10
-4.3407100000000005
 20
0.3677300000000001
 30
0.0
 10
-4.2289500000000002
 20
0.04515
 30
0.0
 10
-4.3127700000000004
 20
-0.18598
 30
0.0
 10
-4.6556700000000006
 20
-0.26218
 30
0.0
 10
-4.6556700000000006
 20
-0.26218
 30
0.0
 10
-4.8969700000000005
 20
0.13913
 30
0.0
 10
-4.5210500000000007
 20
1.02051
 30
0.0
 10
-4.0155900000000004
 20
0.89351
 30
0.0
 10
-4.0155900000000004
 20
0.89351
 30
0.0
 10
-4.8512500000000003
 20
2.26003
 30
0.0
 10
-3.2866100000000005
 20
4.1955100000000005
 30
0.0
 10
-1.8540500000000002
 20
4.4850700000000003
 30
0.0
 10
-1.8540500000000002
 20
4.4850700000000003
 30
0.0
 10
-1.9861300000000002
 20
4.12439
 30
0.0
 10
-2.4560300000000002
 20
3.9135700000000004
 30
0.0
 10
-2.7074900000000004
 20
3.6519500000000003
 30
0.0
 10
-2.7074900000000004
 20
3.6519500000000003
 30
0.0
 10
-2.3493500000000003
 20
3.8703900000000004
 30
0.0
 10
-1.9683500000000003
 20
3.9872300000000003
 30
0.0
 10
-2.2934700000000001
 20
3.4589100000000004
 30
0.0
 10
-2.2934700000000001
 20
3.4589100000000004
 30
0.0
 10
-2.7303500000000001
 20
3.2150700000000003
 30
0.0
 10
-3.2154900000000004
 20
2.9026500000000004
 30
0.0
 10
-3.3551900000000003
 20
2.4048100000000003
 30
0.0
 10
-3.3551900000000003
 20
2.4048100000000003
 30
0.0
 10
-3.2637500000000004
 20
2.3717900000000003
 30
0.0
 10
-3.2459700000000002
 20
2.4911700000000003
 30
0.0
 10
-3.2053300000000005
 20
2.54705
 30
0.0
 10
-3.2053300000000005
 20
2.54705
 30
0.0
 10
-3.0859500000000004
 20
2.67659
 30
0.0
 10
-3.5025100000000005
 20
1.40405
 30
0.0
 10
-3.2027900000000002
 20
2.0746100000000003
 30
0.0
 10
-3.2027900000000002
 20
2.0746100000000003
 30
0.0
 10
-3.2027900000000002
 20
2.0746100000000003
 30
0.0
 10
-3.0707100000000001
 20
2.4784700000000002
 30
0.0
 10
-3.0707100000000001
 20
2.4784700000000002
 30
0.0
 10
-3.0707100000000001
 20
2.4784700000000002
 30
0.0
 10
-3.0707100000000001
 20
2.4784700000000002
 30
0.0
 10
-2.9792700000000001
 20
2.7731100000000004
 30
0.0
 10
-2.9792700000000001
 20
2.7731100000000004
 30
0.0
 10
-2.9792700000000001
 20
2.7731100000000004
 30
0.0
 10
-2.9056100000000002
 20
2.9483700000000002
 30
0.0
 10
-2.6770100000000001
 20
3.1058500000000002
 30
0.0
 10
-2.8395700000000001
 20
2.8264500000000004
 30
0.0
 10
-2.8395700000000001
 20
2.8264500000000004
 30
0.0
 10
-2.9284700000000004
 20
2.5648300000000002
 30
0.0
 10
-2.9310100000000001
 20
2.3082900000000004
 30
0.0
 10
-2.7684500000000001
 20
2.7045300000000001
 30
0.0
 10
-2.7684500000000001
 20
2.7045300000000001
 30
0.0
 10
-2.31379
 20
3.6748100000000004
 30
0.0
 10
-2.2198100000000003
 20
2.9813900000000002
 30
0.0
 10
-2.3163300000000002
 20
2.3209900000000001
 30
0.0
 10
-2.3163300000000002
 20
2.3209900000000001
 30
0.0
 10
-2.3645900000000002
 20
1.9806300000000001
 30
0.0
 10
-2.3239500000000004
 20
1.7647300000000001
 30
0.0
 10
-2.2248900000000003
 20
1.6326500000000002
 30
0.0
 10
-2.2248900000000003
 20
1.6326500000000002
 30
0.0
 10
-2.18933
 20
1.7875900000000002
 30
0.0
 10
-2.18933
 20
1.9552300000000002
 30
0.0
 10
-2.18425
 20
2.1177900000000003
 30
0.0
 10
-2.18425
 20
2.1177900000000003
 30
0.0
 10
-2.1309100000000001
 20
2.3057500000000002
 30
0.0
 10
-2.0928100000000001
 20
1.9374500000000001
 30
0.0
 10
-1.9937500000000001
 20
2.00095
 30
0.0
 10
-1.9937500000000001
 20
2.00095
 30
0.0
 10
-2.22235
 20
2.8366100000000003
 30
0.0
 10
-2.3112500000000002
 20
3.9186500000000004
 30
0.0
 10
-1.5162300000000002
 20
4.4901500000000008
 30
0.0
 10
-1.5162300000000002
 20
4.4901500000000008
 30
0.0
 10
-1.38161
 20
4.3174300000000008
 30
0.0
 10
-1.3104900000000002
 20
3.9567500000000004
 30
0.0
 10
-1.0717300000000001
 20
3.8907100000000003
 30
0.0
 10
-1.0717300000000001
 20
3.8907100000000003
 30
0.0
 10
-1.2596900000000002
 20
4.3758500000000007
 30
0.0
 10
-0.7694700000000001
 20
4.1980500000000003
 30
0.0
 10
-0.55103
 20
3.9694500000000001
 30
0.0
 10
-0.55103
 20
3.9694500000000001
 30
0.0
 10
-0.5865900000000001
 20
4.33521
 30
0.0
 10
-1.2266700000000001
 20
4.3021900000000004
 30
0.0
 10
-1.25461
 20
4.6120700000000001
 30
0.0
 10
-1.25461
 20
4.6120700000000001
 30
0.0
 10
-0.9371100000000001
 20
4.9321100000000007
 30
0.0
 10
-0.40117
 20
5.0006900000000005
 30
0.0
 10
-0.02525
 20
4.9803700000000006
 30
0.0
  0
SPLINE
  5
27
100
AcDbEntity
  8
Ebene 1
 62
     7
100
AcDbSpline
210
0.0
220
0.0
230
1.0
 70
     1
 71
     3
 72
    52
 73
    48
 74
     0
 42
0.0000000001
 43
0.0000000001
 40
0.0
 40
0.0
 40
0.0
 40
0.0
 40
0.0833333333333333
 40
0.0833333333333333
 40
0.0833333333333333
 40
0.0833333333333333
 40
0.1666666666666667
 40
0.1666666666666667
 40
0.1666666666666667
 40
0.1666666666666667
 40
0.25
 40
0.25
 40
0.25
 40
0.25
 40
0.3333333333333333
 40
0.3333333333333333
 40
0.3333333333333333
 40
0.3333333333333333
 40
0.4166666666666666
 40
0.4166666666666666
 40
0.4166666666666666
 40
0.4166666666666666
 40
0.4999999999999999
 40
0.4999999999999999
 40
0.4999999999999999
 40
0.4999999999999999
 40
0.5833333333333333
 40
0.5833333333333333
 40
0.5833333333333333
 40
0.5833333333333333
 40
0.6666666666666666
 40
0.6666666666666666
 40
0.6666666666666666
 40
0.6666666666666666
 40
0.75
 40
0.75
 40
0.75
 40
0.75
 40
0.8333333333333334
 40
0.8333333333333334
 40
0.8333333333333334
 40
0.8333333333333334
 40
0.9166666666666667
 40
0.9166666666666667
 40
0.9166666666666667
 40
0.9166666666666667
 40
1.0
 40
1.0
 40
1.0
 40
1.0
 10
4.8210600000000001
 20
4.2437700000000005
 30
0.0
 10
5.0318800000000001
 20
3.8602300000000005
 30
0.0
 10
4.6635800000000005
 20
3.3877900000000003
 30
0.0
 10
4.3638600000000007
 20
3.1160100000000002
 30
0.0
 10
4.3638600000000007
 20
3.1160100000000002
 30
0.0
 10
4.3994200000000001
 20
2.8670900000000001
 30
0.0
 10
4.6102400000000001
 20
3.3547700000000003
 30
0.0
 10
4.7677200000000006
 20
3.3446100000000003
 30
0.0
 10
4.7677200000000006
 20
3.3446100000000003
 30
0.0
 10
4.5213400000000004
 20
2.4022700000000001
 30
0.0
 10
3.6272600000000002
 20
1.7012300000000002
 30
0.0
 10
2.6950800000000004
 20
1.52597
 30
0.0
 10
2.6950800000000004
 20
1.52597
 30
0.0
 10
2.9236800000000001
 20
1.9907900000000001
 30
0.0
 10
3.4850200000000005
 20
2.04921
 30
0.0
 10
3.8558600000000003
 20
2.3260700000000001
 30
0.0
 10
3.8558600000000003
 20
2.3260700000000001
 30
0.0
 10
4.1530400000000007
 20
2.5064100000000002
 30
0.0
 10
3.8736400000000004
 20
2.4784700000000002
 30
0.0
 10
3.7314000000000003
 20
2.3159100000000001
 30
0.0
 10
3.7314000000000003
 20
2.3159100000000001
 30
0.0
 10
3.2234000000000003
 20
2.0669900000000001
 30
0.0
 10
4.1886000000000001
 20
2.7705700000000002
 30
0.0
 10
3.8558600000000003
 20
2.6638900000000003
 30
0.0
 10
3.8558600000000003
 20
2.6638900000000003
 30
0.0
 10
3.4494600000000002
 20
2.2397100000000001
 30
0.0
 10
2.9770200000000004
 20
1.8383900000000002
 30
0.0
 10
2.3801200000000002
 20
1.7494900000000002
 30
0.0
 10
2.3801200000000002
 20
1.7494900000000002
 30
0.0
 10
1.9229200000000002
 20
2.0644500000000003
 30
0.0
 10
2.41568
 20
2.7045300000000001
 30
0.0
 10
2.8525600000000004
 20
2.71469
 30
0.0
 10
2.8525600000000004
 20
2.71469
 30
0.0
 10
3.1167200000000004
 20
2.7121500000000003
 30
0.0
 10
2.6773000000000002
 20
2.4683100000000002
 30
0.0
 10
2.7306400000000002
 20
2.3641700000000001
 30
0.0
 10
2.7306400000000002
 20
2.3641700000000001
 30
0.0
 10
3.1522800000000002
 20
2.7832700000000004
 30
0.0
 10
3.7136200000000001
 20
3.1185500000000004
 30
0.0
 10
4.2241600000000004
 20
3.4335100000000001
 30
0.0
 10
4.2241600000000004
 20
3.4335100000000001
 30
0.0
 10
4.1352600000000006
 20
3.3115900000000003
 30
0.0
 10
4.04636
 20
3.1490300000000002
 30
0.0
 10
4.0641400000000001
 20
3.0194900000000002
 30
0.0
 10
4.0641400000000001
 20
3.0194900000000002
 30
0.0
 10
4.2775000000000007
 20
3.4284300000000001
 30
0.0
 10
4.5569000000000006
 20
3.8475300000000003
 30
0.0
 10
4.8210600000000001
 20
4.2437700000000005
 30
0.0
  0
SPLINE
  5
28
100
AcDbEntity
  8
Ebene 1
 62
     7
100
AcDbSpline
210
0.0
220
0.0
230
1.0
 70
     1
 71
     3
 72
    24
 73
    20
 74
     0
 42
0.0000000001
 43
0.0000000001
 40
0.0
 40
0.0
 40
0.0
 40
0.0
 40
0.2
 40
0.2
 40
0.2
 40
0.2
 40
0.4
 40
0.4
 40
0.4
 40
0.4
 40
0.6000000000000001
 40
0.6000000000000001
 40
0.6000000000000001
 40
0.6000000000000001
 40
0.8
 40
0.8
 40
0.8
 40
0.8
 40
1.0
 40
1.0
 40
1.0
 40
1.0
 10
-4.8893500000000003
 20
3.1718900000000003
 30
0.0
 10
-4.7344100000000005
 20
2.9763100000000002
 30
0.0
 10
-4.6988500000000002
 20
2.6232500000000001
 30
0.0
 10
-4.5032700000000006
 20
2.4530700000000003
 30
0.0
 10
-4.5032700000000006
 20
2.4530700000000003
 30
0.0
 10
-4.4702500000000001
 20
2.4810100000000004
 30
0.0
 10
-4.52867
 20
2.5800700000000001
 30
0.0
 10
-4.4372300000000005
 20
2.5724500000000003
 30
0.0
 10
-4.4372300000000005
 20
2.5724500000000003
 30
0.0
 10
-4.3813500000000003
 20
2.4835500000000001
 30
0.0
 10
-4.23149
 20
2.5241900000000004
 30
0.0
 10
-4.2035500000000008
 20
2.4352900000000002
 30
0.0
 10
-4.2035500000000008
 20
2.4352900000000002
 30
0.0
 10
-4.2035500000000008
 20
2.4352900000000002
 30
0.0
 10
-4.2975300000000001
 20
2.2473300000000003
 30
0.0
 10
-4.2975300000000001
 20
2.2473300000000003
 30
0.0
 10
-4.2975300000000001
 20
2.2473300000000003
 30
0.0
 10
-4.7521900000000006
 20
2.1584300000000001
 30
0.0
 10
-5.0798500000000004
 20
2.7908900000000001
 30
0.0
 10
-4.8893500000000003
 20
3.1718900000000003
 30
0.0
  0
SPLINE
  5
29
100
AcDbEntity
  8
Ebene 1
100
AcDbSpline
210
0.0
220
0.0
230
1.0
 70
     1
 71
     3
 72
    28
 73
    24
 74
     0
 42
0.0000000001
 43
0.0000000001
 40
0.0
 40
0.0
 40
0.0
 40
0.0
 40
0.1666666666666667
 40
0.1666666666666667
 40
0.1666666666666667
 40
0.1666666666666667
 40
0.3333333333333333
 40
0.3333333333333333
 40
0.3333333333333333
 40
0.3333333333333333
 40
0.5
 40
0.5
 40
0.5
 40
0.5
 40
0.6666666666666666
 40
0.6666666666666666
 40
0.6666666666666666
 40
0.6666666666666666
 40
0.8333333333333333
 40
0.8333333333333333
 40
0.8333333333333333
 40
0.8333333333333333
 40
1.0
 40
1.0
 40
1.0
 40
1.0
 10
1.7654400000000001
 20
2.6638900000000003
 30
0.0
 10
1.8187800000000001
 20
2.59023
 30
0.0
 10
1.69432
 20
2.5191100000000004
 30
0.0
 10
1.69432
 20
2.4403700000000002
 30
0.0
 10
1.69432
 20
2.4403700000000002
 30
0.0
 10
1.3260200000000002
 20
2.0136500000000002
 30
0.0
 10
1.4479400000000002
 20
1.36341
 30
0.0
 10
1.8010000000000002
 20
0.9824100000000001
 30
0.0
 10
1.8010000000000002
 20
0.9824100000000001
 30
0.0
 10
1.8010000000000002
 20
0.9824100000000001
 30
0.0
 10
2.1870800000000004
 20
0.9290700000000001
 30
0.0
 10
2.1870800000000004
 20
0.9290700000000001
 30
0.0
 10
2.1870800000000004
 20
0.9290700000000001
 30
0.0
 10
1.9762600000000001
 20
0.8757300000000001
 30
0.0
 10
1.7654400000000001
 20
0.9163700000000001
 30
0.0
 10
1.5724
 20
0.9824100000000001
 30
0.0
 10
1.5724
 20
0.9824100000000001
 30
0.0
 10
1.5012800000000002
 20
1.2440300000000002
 30
0.0
 10
1.3946000000000001
 20
1.5081900000000001
 30
0.0
 10
1.23712
 20
1.7317100000000001
 30
0.0
 10
1.23712
 20
1.7317100000000001
 30
0.0
 10
1.27268
 20
2.09239
 30
0.0
 10
1.5546200000000001
 20
2.4022700000000001
 30
0.0
 10
1.7654400000000001
 20
2.6638900000000003
 30
0.0
  0
SPLINE
  5
2A
100
AcDbEntity
  8
Ebene 1
100
AcDbSpline
210
0.0
220
0.0
230
1.0
 70
     1
 71
     3
 72
    28
 73
    24
 74
     0
 42
0.0000000001
 43
0.0000000001
 40
0.0
 40
0.0
 40
0.0
 40
0.0
 40
0.1666666666666667
 40
0.1666666666666667
 40
0.1666666666666667
 40
0.1666666666666667
 40
0.3333333333333333
 40
0.3333333333333333
 40
0.3333333333333333
 40
0.3333333333333333
 40
0.5
 40
0.5
 40
0.5
 40
0.5
 40
0.6666666666666666
 40
0.6666666666666666
 40
0.6666666666666666
 40
0.6666666666666666
 40
0.8333333333333333
 40
0.8333333333333333
 40
0.8333333333333333
 40
0.8333333333333333
 40
1.0
 40
1.0
 40
1.0
 40
1.0
 10
-0.09383
 20
2.3108300000000002
 30
0.0
 10
0.11444
 20
2.3489300000000002
 30
0.0
 10
0.25414
 20
2.1965300000000001
 30
0.0
 10
0.4294000000000001
 20
2.1177900000000003
 30
0.0
 10
0.4294000000000001
 20
2.1177900000000003
 30
0.0
 10
0.5868800000000001
 20
2.0796900000000003
 30
0.0
 10
0.7265800000000001
 20
1.9730100000000002
 30
0.0
 10
0.8154800000000001
 20
1.8434700000000002
 30
0.0
 10
0.8154800000000001
 20
1.8434700000000002
 30
0.0
 10
0.8154800000000001
 20
1.8434700000000002
 30
0.0
 10
0.74436
 20
1.8028300000000002
 30
0.0
 10
0.74436
 20
1.8028300000000002
 30
0.0
 10
0.74436
 20
1.8028300000000002
 30
0.0
 10
0.27192
 20
2.08223
 30
0.0
 10
-0.3224300000000001
 20
2.1711300000000002
 30
0.0
 10
-0.8329700000000001
 20
1.9247500000000002
 30
0.0
 10
-0.8329700000000001
 20
1.9247500000000002
 30
0.0
 10
-1.0133100000000002
 20
1.8383900000000002
 30
0.0
 10
-0.88885
 20
2.03905
 30
0.0
 10
-0.7669300000000001
 20
2.0187300000000001
 30
0.0
 10
-0.7669300000000001
 20
2.0187300000000001
 30
0.0
 10
-0.7669300000000001
 20
2.0187300000000001
 30
0.0
 10
-0.09383
 20
2.3108300000000002
 30
0.0
 10
-0.09383
 20
2.3108300000000002
 30
0.0
  0
SPLINE
  5
2B
100
AcDbEntity
  8
Ebene 1
100
AcDbSpline
210
0.0
220
0.0
230
1.0
 70
     1
 71
     3
 72
    40
 73
    36
 74
     0
 42
0.0000000001
 43
0.0000000001
 40
0.0
 40
0.0
 40
0.0
 40
0.0
 40
0.1111111111111111
 40
0.1111111111111111
 40
0.1111111111111111
 40
0.1111111111111111
 40
0.2222222222222222
 40
0.2222222222222222
 40
0.2222222222222222
 40
0.2222222222222222
 40
0.3333333333333333
 40
0.3333333333333333
 40
0.3333333333333333
 40
0.3333333333333333
 40
0.4444444444444444
 40
0.4444444444444444
 40
0.4444444444444444
 40
0.4444444444444444
 40
0.5555555555555556
 40
0.5555555555555556
 40
0.5555555555555556
 40
0.5555555555555556
 40
0.6666666666666667
 40
0.6666666666666667
 40
0.6666666666666667
 40
0.6666666666666667
 40
0.7777777777777779
 40
0.7777777777777779
 40
0.7777777777777779
 40
0.7777777777777779
 40
0.8888888888888891
 40
0.8888888888888891
 40
0.8888888888888891
 40
0.8888888888888891
 40
1.0
 40
1.0
 40
1.0
 40
1.0
 10
-2.7989300000000004
 20
2.26003
 30
0.0
 10
-2.7836900000000004
 20
2.2574900000000002
 30
0.0
 10
-2.7481300000000002
 20
2.2701900000000004
 30
0.0
 10
-2.7481300000000002
 20
2.2422500000000003
 30
0.0
 10
-2.7481300000000002
 20
2.2422500000000003
 30
0.0
 10
-2.8573500000000003
 20
1.8866500000000002
 30
0.0
 10
-2.8776700000000002
 20
1.5132700000000001
 30
0.0
 10
-2.8522700000000003
 20
1.1348100000000001
 30
0.0
 10
-2.8522700000000003
 20
1.1348100000000001
 30
0.0
 10
-2.86497
 20
0.8223900000000001
 30
0.0
 10
-2.6084300000000002
 20
0.9519300000000001
 30
0.0
 10
-2.4509500000000002
 20
1.06877
 30
0.0
 10
-2.4509500000000002
 20
1.06877
 30
0.0
 10
-2.4509500000000002
 20
1.06877
 30
0.0
 10
-1.7499100000000001
 20
1.4116700000000002
 30
0.0
 10
-1.7499100000000001
 20
1.4116700000000002
 30
0.0
 10
-1.7499100000000001
 20
1.4116700000000002
 30
0.0
 10
-2.0724900000000002
 20
1.0916300000000001
 30
0.0
 10
-2.5500100000000003
 20
0.9214500000000001
 30
0.0
 10
-2.8751300000000004
 20
0.57855
 30
0.0
 10
-2.8751300000000004
 20
0.57855
 30
0.0
 10
-3.1773900000000004
 20
0.7919100000000001
 30
0.0
 10
-3.5888700000000004
 20
0.95701
 30
0.0
 10
-3.7260300000000002
 20
1.3430900000000001
 30
0.0
 10
-3.7260300000000002
 20
1.3430900000000001
 30
0.0
 10
-3.7260300000000002
 20
1.3430900000000001
 30
0.0
 10
-3.5660100000000003
 20
1.2110100000000001
 30
0.0
 10
-3.5660100000000003
 20
1.2110100000000001
 30
0.0
 10
-3.5660100000000003
 20
1.2110100000000001
 30
0.0
 10
-3.4364700000000004
 20
1.1170300000000002
 30
0.0
 10
-3.2281900000000001
 20
0.87319
 30
0.0
 10
-3.0834100000000002
 20
1.01797
 30
0.0
 10
-3.0834100000000002
 20
1.01797
 30
0.0
 10
-3.0834100000000002
 20
1.01797
 30
0.0
 10
-2.7989300000000004
 20
2.26003
 30
0.0
 10
-2.7989300000000004
 20
2.26003
 30
0.0
  0
SPLINE
  5
2C
100
AcDbEntity
  8
Ebene 1
100
AcDbSpline
210
0.0
220
0.0
230
1.0
 70
     1
 71
     3
 72
    68
 73
    64
 74
     0
 42
0.0000000001
 43
0.0000000001
 40
0.0
 40
0.0
 40
0.0
 40
0.0
 40
0.0625
 40
0.0625
 40
0.0625
 40
0.0625
 40
0.125
 40
0.125
 40
0.125
 40
0.125
 40
0.1875
 40
0.1875
 40
0.1875
 40
0.1875
 40
0.25
 40
0.25
 40
0.25
 40
0.25
 40
0.3125
 40
0.3125
 40
0.3125
 40
0.3125
 40
0.375
 40
0.375
 40
0.375
 40
0.375
 40
0.4375
 40
0.4375
 40
0.4375
 40
0.4375
 40
0.5
 40
0.5
 40
0.5
 40
0.5
 40
0.5625
 40
0.5625
 40
0.5625
 40
0.5625
 40
0.625
 40
0.625
 40
0.625
 40
0.625
 40
0.6875
 40
0.6875
 40
0.6875
 40
0.6875
 40
0.75
 40
0.75
 40
0.75
 40
0.75
 40
0.8125
 40
0.8125
 40
0.8125
 40
0.8125
 40
0.875
 40
0.875
 40
0.875
 40
0.875
 40
0.9375
 40
0.9375
 40
0.9375
 40
0.9375
 40
1.0
 40
1.0
 40
1.0
 40
1.0
 10
-0.21829
 20
1.0484500000000001
 30
0.0
 10
-0.21829
 20
1.0484500000000001
 30
0.0
 10
-0.11161
 20
1.0433700000000001
 30
0.0
 10
-0.11161
 20
1.0433700000000001
 30
0.0
 10
-0.11161
 20
1.0433700000000001
 30
0.0
 10
-0.25131
 20
0.8452500000000001
 30
0.0
 10
-0.34021
 20
0.61919
 30
0.0
 10
-0.4291100000000001
 20
0.40329
 30
0.0
 10
-0.4291100000000001
 20
0.40329
 30
0.0
 10
-0.23353
 20
0.38805
 30
0.0
 10
-0.02525
 20
0.5658500000000001
 30
0.0
 10
0.12968
 20
0.5201300000000001
 30
0.0
 10
0.12968
 20
0.5201300000000001
 30
0.0
 10
-0.25131
 20
0.38297
 30
0.0
 10
-0.02525
 20
0.32963
 30
0.0
 10
0.25414
 20
0.24327
 30
0.0
 10
0.25414
 20
0.24327
 30
0.0
 10
0.6224400000000001
 20
0.09849
 30
0.0
 10
1.0440800000000001
 20
0.20009
 30
0.0
 10
1.4123800000000002
 20
0.16961
 30
0.0
 10
1.4123800000000002
 20
0.16961
 30
0.0
 10
1.4123800000000002
 20
0.16961
 30
0.0
 10
0.8434200000000001
 20
0.04515
 30
0.0
 10
0.8434200000000001
 20
0.04515
 30
0.0
 10
0.8434200000000001
 20
0.04515
 30
0.0
 10
0.3151000000000001
 20
-0.55428
 30
0.0
 10
-0.3757700000000001
 20
-0.59238
 30
0.0
 10
-1.1072900000000001
 20
-0.7447800000000001
 30
0.0
 10
-1.1072900000000001
 20
-0.7447800000000001
 30
0.0
 10
-0.8964700000000001
 20
-0.8692400000000001
 30
0.0
 10
-0.46467
 20
-0.75748
 30
0.0
 10
-0.3224300000000001
 20
-0.9302
 30
0.0
 10
-0.3224300000000001
 20
-0.9302
 30
0.0
 10
-0.74153
 20
-0.8540000000000001
 30
0.0
 10
-1.1733300000000002
 20
-0.8971800000000001
 30
0.0
 10
-1.5517900000000002
 20
-0.7244600000000001
 30
0.0
 10
-1.5517900000000002
 20
-0.7244600000000001
 30
0.0
 10
-1.5517900000000002
 20
-0.7244600000000001
 30
0.0
 10
-1.7219700000000002
 20
-0.9200400000000001
 30
0.0
 10
-1.7219700000000002
 20
-0.9200400000000001
 30
0.0
 10
-1.7219700000000002
 20
-0.9200400000000001
 30
0.0
 10
-1.8159500000000002
 20
-1.1816600000000002
 30
0.0
 10
-1.5695700000000001
 20
-1.4483600000000001
 30
0.0
 10
-1.6229100000000001
 20
-1.6541000000000001
 30
0.0
 10
-1.6229100000000001
 20
-1.6541000000000001
 30
0.0
 10
-1.8997700000000002
 20
-1.3848600000000002
 30
0.0
 10
-1.9658100000000001
 20
-0.6889000000000001
 30
0.0
 10
-2.3544300000000002
 20
-0.69398
 30
0.0
 10
-2.3544300000000002
 20
-0.69398
 30
0.0
 10
-2.0801100000000003
 20
-0.36124
 30
0.0
 10
-1.6229100000000001
 20
-0.27488
 30
0.0
 10
-1.3638300000000001
 20
0.05277
 30
0.0
 10
-1.3638300000000001
 20
0.05277
 30
0.0
 10
-1.2342900000000001
 20
0.2635900000000001
 30
0.0
 10
-1.2825500000000001
 20
0.5404500000000001
 30
0.0
 10
-1.33589
 20
0.76397
 30
0.0
 10
-1.33589
 20
0.76397
 30
0.0
 10
-1.1377700000000002
 20
0.6903100000000001
 30
0.0
 10
-1.2774700000000001
 20
0.3372500000000001
 30
0.0
 10
-1.1606300000000001
 20
0.17469
 30
0.0
 10
-1.1606300000000001
 20
0.17469
 30
0.0
 10
-0.69835
 20
0.24327
 30
0.0
 10
-0.3757700000000001
 20
0.6268100000000001
 30
0.0
 10
-0.21829
 20
1.0484500000000001
 30
0.0
  0
SPLINE
  5
2D
100
AcDbEntity
  8
Ebene 1
100
AcDbSpline
210
0.0
220
0.0
230
1.0
 70
     1
 71
     3
 72
    28
 73
    24
 74
     0
 42
0.0000000001
 43
0.0000000001
 40
0.0
 40
0.0
 40
0.0
 40
0.0
 40
0.1666666666666667
 40
0.1666666666666667
 40
0.1666666666666667
 40
0.1666666666666667
 40
0.3333333333333333
 40
0.3333333333333333
 40
0.3333333333333333
 40
0.3333333333333333
 40
0.5
 40
0.5
 40
0.5
 40
0.5
 40
0.6666666666666666
 40
0.6666666666666666
 40
0.6666666666666666
 40
0.6666666666666666
 40
0.8333333333333333
 40
0.8333333333333333
 40
0.8333333333333333
 40
0.8333333333333333
 40
1.0
 40
1.0
 40
1.0
 40
1.0
 10
2.5553800000000004
 20
0.9951100000000001
 30
0.0
 10
2.6087200000000004
 20
1.0078100000000001
 30
0.0
 10
2.6417400000000004
 20
0.9798700000000001
 30
0.0
 10
2.6239600000000003
 20
0.9290700000000001
 30
0.0
 10
2.6239600000000003
 20
0.9290700000000001
 30
0.0
 10
1.9407000000000001
 20
0.3474100000000001
 30
0.0
 10
1.7121000000000002
 20
-0.88956
 30
0.0
 10
2.5731600000000001
 20
-1.3950200000000001
 30
0.0
 10
2.5731600000000001
 20
-1.3950200000000001
 30
0.0
 10
2.6087200000000004
 20
-1.4331200000000002
 30
0.0
 10
2.6595200000000001
 20
-1.4661400000000002
 30
0.0
 10
2.6417400000000004
 20
-1.5271000000000001
 30
0.0
 10
2.6417400000000004
 20
-1.5271000000000001
 30
0.0
 10
2.6417400000000004
 20
-1.5271000000000001
 30
0.0
 10
1.7832200000000002
 20
-1.12324
 30
0.0
 10
1.7832200000000002
 20
-1.12324
 30
0.0
 10
1.7832200000000002
 20
-1.12324
 30
0.0
 10
1.7654400000000001
 20
-0.6762
 30
0.0
 10
1.7654400000000001
 20
-0.2063
 30
0.0
 10
1.7654400000000001
 20
0.25343
 30
0.0
 10
1.7654400000000001
 20
0.25343
 30
0.0
 10
1.7654400000000001
 20
0.25343
 30
0.0
 10
2.5553800000000004
 20
0.9951100000000001
 30
0.0
 10
2.5553800000000004
 20
0.9951100000000001
 30
0.0
  0
SPLINE
  5
2E
100
AcDbEntity
  8
Ebene 1
100
AcDbSpline
210
0.0
220
0.0
230
1.0
 70
     1
 71
     3
 72
    28
 73
    24
 74
     0
 42
0.0000000001
 43
0.0000000001
 40
0.0
 40
0.0
 40
0.0
 40
0.0
 40
0.1666666666666667
 40
0.1666666666666667
 40
0.1666666666666667
 40
0.1666666666666667
 40
0.3333333333333333
 40
0.3333333333333333
 40
0.3333333333333333
 40
0.3333333333333333
 40
0.5
 40
0.5
 40
0.5
 40
0.5
 40
0.6666666666666666
 40
0.6666666666666666
 40
0.6666666666666666
 40
0.6666666666666666
 40
0.8333333333333333
 40
0.8333333333333333
 40
0.8333333333333333
 40
0.8333333333333333
 40
1.0
 40
1.0
 40
1.0
 40
1.0
 10
-2.9919700000000002
 20
0.18485
 30
0.0
 10
-2.9487900000000002
 20
0.20009
 30
0.0
 10
-2.9335500000000003
 20
0.16707
 30
0.0
 10
-2.9208500000000002
 20
0.13405
 30
0.0
 10
-2.9208500000000002
 20
0.13405
 30
0.0
 10
-2.9487900000000002
 20
-0.13772
 30
0.0
 10
-2.8040100000000003
 20
-0.34092
 30
0.0
 10
-2.5906500000000001
 20
-0.4984000000000001
 30
0.0
 10
-2.5906500000000001
 20
-0.4984000000000001
 30
0.0
 10
-2.5906500000000001
 20
-0.4984000000000001
 30
0.0
 10
-2.6084300000000002
 20
-0.5771400000000001
 30
0.0
 10
-2.6084300000000002
 20
-0.5771400000000001
 30
0.0
 10
-2.6084300000000002
 20
-0.5771400000000001
 30
0.0
 10
-2.7481300000000002
 20
-0.6050800000000001
 30
0.0
 10
-2.8827500000000001
 20
-0.29266
 30
0.0
 10
-2.9614900000000004
 20
-0.52634
 30
0.0
 10
-2.9614900000000004
 20
-0.52634
 30
0.0
 10
-2.9741900000000001
 20
-0.54666
 30
0.0
 10
-3.0021300000000002
 20
-0.55428
 30
0.0
 10
-3.0224500000000001
 20
-0.5441200000000001
 30
0.0
 10
-3.0224500000000001
 20
-0.5441200000000001
 30
0.0
 10
-3.0224500000000001
 20
-0.5441200000000001
 30
0.0
 10
-2.9919700000000002
 20
0.18485
 30
0.0
 10
-2.9919700000000002
 20
0.18485
 30
0.0
  0
SPLINE
  5
2F
100
AcDbEntity
  8
Ebene 1
100
AcDbSpline
210
0.0
220
0.0
230
1.0
 70
     1
 71
     3
 72
    32
 73
    28
 74
     0
 42
0.0000000001
 43
0.0000000001
 40
0.0
 40
0.0
 40
0.0
 40
0.0
 40
0.1428571428571429
 40
0.1428571428571429
 40
0.1428571428571429
 40
0.1428571428571429
 40
0.2857142857142857
 40
0.2857142857142857
 40
0.2857142857142857
 40
0.2857142857142857
 40
0.4285714285714286
 40
0.4285714285714286
 40
0.4285714285714286
 40
0.4285714285714286
 40
0.5714285714285714
 40
0.5714285714285714
 40
0.5714285714285714
 40
0.5714285714285714
 40
0.7142857142857142
 40
0.7142857142857142
 40
0.7142857142857142
 40
0.7142857142857142
 40
0.857142857142857
 40
0.857142857142857
 40
0.857142857142857
 40
0.857142857142857
 40
1.0
 40
1.0
 40
1.0
 40
1.0
 10
-2.9208500000000002
 20
-0.74224
 30
0.0
 10
-2.9208500000000002
 20
-0.74224
 30
0.0
 10
-2.8573500000000003
 20
-0.7447800000000001
 30
0.0
 10
-2.8573500000000003
 20
-0.7447800000000001
 30
0.0
 10
-2.8573500000000003
 20
-0.7447800000000001
 30
0.0
 10
-2.5881100000000004
 20
-1.24516
 30
0.0
 10
-2.4738100000000003
 20
-1.7887200000000001
 30
0.0
 10
-2.4509500000000002
 20
-2.3526000000000002
 30
0.0
 10
-2.4509500000000002
 20
-2.3526000000000002
 30
0.0
 10
-2.6668500000000002
 20
-2.57104
 30
0.0
 10
-2.8344900000000002
 20
-2.0401800000000003
 30
0.0
 10
-2.9564100000000004
 20
-2.2002000000000002
 30
0.0
 10
-2.9564100000000004
 20
-2.2002000000000002
 30
0.0
 10
-2.9564100000000004
 20
-2.2002000000000002
 30
0.0
 10
-2.8395700000000001
 20
-2.8783800000000004
 30
0.0
 10
-2.8395700000000001
 20
-2.8783800000000004
 30
0.0
 10
-2.8395700000000001
 20
-2.8783800000000004
 30
0.0
 10
-2.9741900000000001
 20
-2.6980400000000002
 30
0.0
 10
-2.9843500000000001
 20
-2.4465800000000004
 30
0.0
 10
-3.0148300000000003
 20
-2.22052
 30
0.0
 10
-3.0148300000000003
 20
-2.22052
 30
0.0
 10
-3.0859500000000004
 20
-2.1849600000000002
 30
0.0
 10
-3.1113500000000003
 20
-2.4008600000000002
 30
0.0
 10
-3.2154900000000004
 20
-2.3526000000000002
 30
0.0
 10
-3.2154900000000004
 20
-2.3526000000000002
 30
0.0
 10
-3.3297900000000005
 20
-1.8268200000000001
 30
0.0
 10
-3.4136100000000003
 20
-1.0927600000000002
 30
0.0
 10
-2.9208500000000002
 20
-0.74224
 30
0.0
  0
SPLINE
  5
30
100
AcDbEntity
  8
Ebene 1
100
AcDbSpline
210
0.0
220
0.0
230
1.0
 70
     1
 71
     3
 72
    20
 73
    16
 74
     0
 42
0.0000000001
 43
0.0000000001
 40
0.0
 40
0.0
 40
0.0
 40
0.0
 40
0.25
 40
0.25
 40
0.25
 40
0.25
 40
0.5
 40
0.5
 40
0.5
 40
0.5
 40
0.75
 40
0.75
 40
0.75
 40
0.75
 40
1.0
 40
1.0
 40
1.0
 40
1.0
 10
-2.02677
 20
-1.5677400000000001
 30
0.0
 10
-1.6432300000000002
 20
-1.8319000000000001
 30
0.0
 10
-2.0140700000000002
 20
-2.3754600000000003
 30
0.0
 10
-1.8515100000000002
 20
-2.7437600000000004
 30
0.0
 10
-1.8515100000000002
 20
-2.7437600000000004
 30
0.0
 10
-1.8515100000000002
 20
-2.7437600000000004
 30
0.0
 10
-1.8515100000000002
 20
-2.90124
 30
0.0
 10
-1.8515100000000002
 20
-2.90124
 30
0.0
 10
-1.8515100000000002
 20
-2.90124
 30
0.0
 10
-1.9632700000000001
 20
-2.7894800000000002
 30
0.0
 10
-1.9683500000000003
 20
-2.4948400000000004
 30
0.0
 10
-2.1309100000000001
 20
-2.4821400000000002
 30
0.0
 10
-2.1309100000000001
 20
-2.4821400000000002
 30
0.0
 10
-1.9734300000000002
 20
-2.2129000000000003
 30
0.0
 10
-1.9353300000000002
 20
-1.8827000000000003
 30
0.0
 10
-2.02677
 20
-1.5677400000000001
 30
0.0
  0
SPLINE
  5
31
100
AcDbEntity
  8
Ebene 1
 62
     7
100
AcDbSpline
210
0.0
220
0.0
230
1.0
 70
     1
 71
     3
 72
    12
 73
     8
 74
     0
 42
0.0000000001
 43
0.0000000001
 40
0.0
 40
0.0
 40
0.0
 40
0.0
 40
0.5
 40
0.5
 40
0.5
 40
0.5
 40
1.0
 40
1.0
 40
1.0
 40
1.0
 10
-0.49769
 20
-3.1831800000000001
 30
0.0
 10
-0.41133
 20
-3.2568400000000004
 30
0.0
 10
-0.41133
 20
-3.4727400000000004
 30
0.0
 10
-0.4291100000000001
 20
-3.5819600000000005
 30
0.0
 10
-0.4291100000000001
 20
-3.5819600000000005
 30
0.0
 10
-0.55103
 20
-3.4803600000000001
 30
0.0
 10
-0.6196100000000001
 20
-3.3127200000000001
 30
0.0
 10
-0.49769
 20
-3.1831800000000001
 30
0.0
  0
SPLINE
  5
32
100
AcDbEntity
  8
Ebene 1
 62
     7
100
AcDbSpline
210
0.0
220
0.0
230
1.0
 70
     1
 71
     3
 72
    12
 73
     8
 74
     0
 42
0.0000000001
 43
0.0000000001
 40
0.0
 40
0.0
 40
0.0
 40
0.0
 40
0.5
 40
0.5
 40
0.5
 40
0.5
 40
1.0
 40
1.0
 40
1.0
 40
1.0
 10
-1.07935
 20
-3.5514800000000002
 30
0.0
 10
-0.9599700000000001
 20
-3.6378400000000002
 30
0.0
 10
-0.9015500000000001
 20
-3.8689800000000005
 30
0.0
 10
-1.04379
 20
-3.9731200000000002
 30
0.0
 10
-1.04379
 20
-3.9731200000000002
 30
0.0
 10
-1.0996700000000001
 20
-3.8588200000000001
 30
0.0
 10
-1.1149100000000001
 20
-3.6886400000000004
 30
0.0
 10
-1.07935
 20
-3.5514800000000002
 30
0.0
  0
SPLINE
  5
33
100
AcDbEntity
  8
Ebene 1
 62
     7
100
AcDbSpline
210
0.0
220
0.0
230
1.0
 70
     1
 71
     3
 72
    12
 73
     8
 74
     0
 42
0.0000000001
 43
0.0000000001
 40
0.0
 40
0.0
 40
0.0
 40
0.0
 40
0.5
 40
0.5
 40
0.5
 40
0.5
 40
1.0
 40
1.0
 40
1.0
 40
1.0
 10
-1.5695700000000001
 20
-3.8689800000000005
 30
0.0
 10
-1.33843
 20
-4.1229800000000001
 30
0.0
 10
-1.5136900000000002
 20
-4.5725600000000002
 30
0.0
 10
-1.6762500000000002
 20
-4.8341800000000008
 30
0.0
 10
-1.6762500000000002
 20
-4.8341800000000008
 30
0.0
 10
-1.8210300000000001
 20
-4.5319200000000004
 30
0.0
 10
-1.7676900000000002
 20
-4.1458400000000006
 30
0.0
 10
-1.5695700000000001
 20
-3.8689800000000005
 30
0.0
  0
SPLINE
  5
34
100
AcDbEntity
  8
Ebene 1
 62
     7
100
AcDbSpline
210
0.0
220
0.0
230
1.0
 70
     1
 71
     3
 72
    16
 73
    12
 74
     0
 42
0.0000000001
 43
0.0000000001
 40
0.0
 40
0.0
 40
0.0
 40
0.0
 40
0.3333333333333333
 40
0.3333333333333333
 40
0.3333333333333333
 40
0.3333333333333333
 40
0.6666666666666666
 40
0.6666666666666666
 40
0.6666666666666666
 40
0.6666666666666666
 40
1.0
 40
1.0
 40
1.0
 40
1.0
 10
-2.2883900000000001
 20
-3.9045400000000003
 30
0.0
 10
-2.1563100000000004
 20
-3.9680400000000002
 30
0.0
 10
-2.09789
 20
-4.1255200000000007
 30
0.0
 10
-2.0445500000000001
 20
-4.2550600000000003
 30
0.0
 10
-2.0445500000000001
 20
-4.2550600000000003
 30
0.0
 10
-2.0775700000000001
 20
-4.3592000000000004
 30
0.0
 10
-2.1436100000000002
 20
-4.4912800000000006
 30
0.0
 10
-2.2553700000000001
 20
-4.5370000000000008
 30
0.0
 10
-2.2553700000000001
 20
-4.5370000000000008
 30
0.0
 10
-2.4153900000000004
 20
-4.3642799999999999
 30
0.0
 10
-2.3366500000000001
 20
-4.1052
 30
0.0
 10
-2.2883900000000001
 20
-3.9045400000000003
 30
0.0
  0
SPLINE
  5
35
100
AcDbEntity
  8
Ebene 1
 62
     7
100
AcDbSpline
210
0.0
220
0.0
230
1.0
 70
     1
 71
     3
 72
    12
 73
     8
 74
     0
 42
0.0000000001
 43
0.0000000001
 40
0.0
 40
0.0
 40
0.0
 40
0.0
 40
0.5
 40
0.5
 40
0.5
 40
0.5
 40
1.0
 40
1.0
 40
1.0
 40
1.0
 10
-3.5202900000000001
 20
-3.9375600000000004
 30
0.0
 10
-3.3501100000000004
 20
-4.04678
 30
0.0
 10
-3.2789900000000003
 20
-4.3261799999999999
 30
0.0
 10
-3.3831300000000004
 20
-4.5141400000000003
 30
0.0
 10
-3.3831300000000004
 20
-4.5141400000000003
 30
0.0
 10
-3.5126700000000004
 20
-4.3515800000000002
 30
0.0
 10
-3.4720300000000002
 20
-4.1306000000000003
 30
0.0
 10
-3.5202900000000001
 20
-3.9375600000000004
 30
0.0
  0
SPLINE
  5
36
100
AcDbEntity
  8
Ebene 1
 62
     7
100
AcDbSpline
210
0.0
220
0.0
230
1.0
 70
     1
 71
     3
 72
    12
 73
     8
 74
     0
 42
0.0000000001
 43
0.0000000001
 40
0.0
 40
0.0
 40
0.0
 40
0.0
 40
0.5
 40
0.5
 40
0.5
 40
0.5
 40
1.0
 40
1.0
 40
1.0
 40
1.0
 10
-3.0097500000000004
 20
-4.0264600000000002
 30
0.0
 10
-2.8852900000000004
 20
-4.1458400000000006
 30
0.0
 10
-2.7405100000000004
 20
-4.47858
 30
0.0
 10
-2.9564100000000004
 20
-4.5878000000000005
 30
0.0
 10
-2.9564100000000004
 20
-4.5878000000000005
 30
0.0
 10
-3.2129500000000002
 20
-4.4811200000000007
 30
0.0
 10
-3.1443700000000003
 20
-4.2017200000000008
 30
0.0
 10
-3.0097500000000004
 20
-4.0264600000000002
 30
0.0
  0
SPLINE
  5
37
100
AcDbEntity
  8
Ebene 1
 62
     7
100
AcDbSpline
210
0.0
220
0.0
230
1.0
 70
     1
 71
     3
 72
    12
 73
     8
 74
     0
 42
0.0000000001
 43
0.0000000001
 40
0.0
 40
0.0
 40
0.0
 40
0.0
 40
0.5
 40
0.5
 40
0.5
 40
0.5
 40
1.0
 40
1.0
 40
1.0
 40
1.0
 10
-2.6947900000000002
 20
-4.2195
 30
0.0
 10
-2.60589
 20
-4.2576000000000001
 30
0.0
 10
-2.5398500000000004
 20
-4.4201600000000001
 30
0.0
 10
-2.6617700000000002
 20
-4.47858
 30
0.0
 10
-2.6617700000000002
 20
-4.47858
 30
0.0
 10
-2.7913100000000002
 20
-4.4277800000000003
 30
0.0
 10
-2.7201900000000001
 20
-4.3109400000000004
 30
0.0
 10
-2.6947900000000002
 20
-4.2195
 30
0.0
  0
SPLINE
  5
38
100
AcDbEntity
  8
Ebene 1
 62
     7
100
AcDbSpline
210
0.0
220
0.0
230
1.0
 70
     1
 71
     3
 72
    12
 73
     8
 74
     0
 42
0.0000000001
 43
0.0000000001
 40
0.0
 40
0.0
 40
0.0
 40
0.0
 40
0.5
 40
0.5
 40
0.5
 40
0.5
 40
1.0
 40
1.0
 40
1.0
 40
1.0
 10
-3.2027900000000002
 20
-4.4836600000000004
 30
0.0
 10
-3.0757900000000005
 20
-4.5243000000000002
 30
0.0
 10
-3.0173700000000001
 20
-4.6817800000000007
 30
0.0
 10
-3.0834100000000002
 20
-4.7935400000000001
 30
0.0
 10
-3.0834100000000002
 20
-4.7935400000000001
 30
0.0
 10
-3.1596100000000003
 20
-4.7173400000000001
 30
0.0
 10
-3.1926300000000003
 20
-4.5928800000000001
 30
0.0
 10
-3.2027900000000002
 20
-4.4836600000000004
 30
0.0
  0
ENDSEC
  0
SECTION
  2
OBJECTS
  0
DICTIONARY
  5
19
100
AcDbDictionary
280
     0
281
     1
  3
ACAD_GROUP
350
1A
  3
ACAD_MLINESTYLE
350
1B
  3
ACAD_LAYOUT
350
1E
  3
ACAD_PLOTSETTINGS
350
22
  3
ACAD_PLOTSTYLENAME
350
1F
  3
ACAD_WIPEOUT_VARS
350
23
  0
DICTIONARY
  5
1A
102
{ACAD_REACTORS
330
19
102
}
100
AcDbDictionary
280
     0
281
     1
  0
DICTIONARY
  5
1B
102
{ACAD_REACTORS
330
19
102
}
100
AcDbDictionary
280
     0
281
     1
  3
Standard
350
1C
  0
MLINESTYLE
  5
1C
102
{ACAD_REACTORS
330
1B
102
}
100
AcDbMlineStyle
  2
Standard
 70
     0
  3

 62
     0
 51
90.0
 52
90.0
 71
     2
 49
0.5
 62
   256
  6
BYLAYER
 49
-0.5
 62
   256
  6
BYLAYER
  0
ACDBDICTIONARYWDFLT
  5
1F
102
{ACAD_REACTORS
330
19
102
}
100
AcDbDictionary
281
     1
  3
Normal
350
1D
100
AcDbDictionaryWithDefault
340
1D
  0
ACDBPLACEHOLDER
  5
1D
102
{ACAD_REACTORS
330
1F
102
}
  0
LAYOUT
  5
20
102
{ACAD_REACTORS
330
1E
102
}
100
AcDbPlotSettings
  1

  2

  4

  6

 40
0.0
 41
0.0
 42
0.0
 43
0.0
 44
0.0
 45
0.0
 46
0.0
 47
0.0
 48
0.0
 49
0.0
140
0.0
141
0.0
142
1.0
143
1.0
 70
  1024
 72
     0
 73
     0
 74
     0
  7

 75
     0
147
1.0
148
0.0
149
0.0
100
AcDbLayout
  1
Model
 70
     0
 71
     0
 10
0.0
 20
0.0
 11
0.0
 21
0.0
 12
0.0
 22
0.0
 32
0.0
 14
0.0
 24
0.0
 34
0.0
 15
0.0
 25
0.0
 35
0.0
146
0.0
 13
0.0
 23
0.0
 33
0.0
 16
0.0
 26
0.0
 36
0.0
 17
0.0
 27
0.0
 37
0.0
 76
     0
330
A
331
0
345
0
346
0
  0
LAYOUT
  5
21
102
{ACAD_REACTORS
330
1E
102
}
100
AcDbPlotSettings
  1

  2

  4

  6

 40
0.0
 41
0.0
 42
0.0
 43
0.0
 44
0.0
 45
0.0
 46
0.0
 47
0.0
 48
0.0
 49
0.0
140
0.0
141
0.0
142
1.0
143
1.0
 70
     0
 72
     0
 73
     0
 74
     0
  7

 75
     0
147
1.0
148
0.0
149
0.0
100
AcDbLayout
  1
Layout1
 70
     0
 71
     0
 10
0.0
 20
0.0
 11
0.0
 21
0.0
 12
0.0
 22
0.0
 32
0.0
 14
0.0
 24
0.0
 34
0.0
 15
0.0
 25
0.0
 35
0.0
146
0.0
 13
0.0
 23
0.0
 33
0.0
 16
0.0
 26
0.0
 36
0.0
 17
0.0
 27
0.0
 37
0.0
 76
     0
330
B
331
0
345
0
346
0
  0
DICTIONARY
  5
1E
102
{ACAD_REACTORS
330
19
102
}
100
AcDbDictionary
280
     0
281
     1
  3
Layout1
350
21
  3
Model
350
20
  0
DICTIONARY
  5
22
102
{ACAD_REACTORS
330
19
102
}
100
AcDbDictionary
280
     0
281
     1
  0
WIPEOUTVARIABLES
  5
23
100
AcDbWipeoutVariables
 70
     1
  0
ENDSEC
  0
EOF
