  0
SECTION
  2
HEADER
  9
$ACADVER
  1
AC1015
  9
$ACADMAINTVER
 70
     6
  9
$DWGCODEPAGE
  3
DOS850
  9
$INSBASE
 10
0.0
 20
0.0
 30
0.0
  9
$EXTMIN
 10
-3.53686
 20
-7.10107
 30
1.000000E+20
  9
$EXTMAX
 10
3.5409
 20
7.09365
 30
-1.000000E+20
  9
$LIMMIN
 10
0.0
 20
0.0
  9
$LIMMAX
 10
0.0
 20
0.0
  9
$ORTHOMODE
 70
     0
  9
$REGENMODE
 70
     1
  9
$FILLMODE
 70
     1
  9
$QTEXTMODE
 70
     0
  9
$MIRRTEXT
 70
     1
  9
$LTSCALE
 40
1.0
  9
$ATTMODE
 70
     1
  9
$TEXTSIZE
 40
0.2
  9
$TRACEWID
 40
0.05
  9
$TEXTSTYLE
  7
Standard
  9
$CLAYER
  8
0
  9
$CELTYPE
  6
Continuous
  9
$CECOLOR
 62
   256
  9
$CELTSCALE
 40
1.0
  9
$DISPSILH
 70
     0
  9
$DIMSCALE
 40
1.0
  9
$DIMASZ
 40
0.18
  9
$DIMEXO
 40
0.0625
  9
$DIMDLI
 40
0.38
  9
$DIMRND
 40
0.0
  9
$DIMDLE
 40
0.0
  9
$DIMEXE
 40
0.18
  9
$DIMTP
 40
0.0
  9
$DIMTM
 40
0.0
  9
$DIMTXT
 40
0.18
  9
$DIMCEN
 40
0.09
  9
$DIMTSZ
 40
0.0
  9
$DIMTOL
 70
     0
  9
$DIMLIM
 70
     0
  9
$DIMTIH
 70
     1
  9
$DIMTOH
 70
     1
  9
$DIMSE1
 70
     0
  9
$DIMSE2
 70
     0
  9
$DIMTAD
 70
     0
  9
$DIMZIN
 70
     0
  9
$DIMBLK
  1

  9
$DIMASO
 70
     1
  9
$DIMSHO
 70
     1
  9
$DIMPOST
  1

  9
$DIMAPOST
  1

  9
$DIMALT
 70
     0
  9
$DIMALTD
 70
     2
  9
$DIMALTF
 40
25.4
  9
$DIMLFAC
 40
1.0
  9
$DIMTOFL
 70
     0
  9
$DIMTVP
 40
0.0
  9
$DIMTIX
 70
     0
  9
$DIMSOXD
 70
     0
  9
$DIMSAH
 70
     0
  9
$DIMBLK1
  1

  9
$DIMBLK2
  1

  9
$DIMSTYLE
  2
Standard
  9
$DIMCLRD
 70
     0
  9
$DIMCLRE
 70
     0
  9
$DIMCLRT
 70
     0
  9
$DIMTFAC
 40
1.0
  9
$DIMGAP
 40
0.09
  9
$DIMJUST
 70
     0
  9
$DIMSD1
 70
     0
  9
$DIMSD2
 70
     0
  9
$DIMTOLJ
 70
     1
  9
$DIMTZIN
 70
     0
  9
$DIMALTZ
 70
     0
  9
$DIMALTTZ
 70
     0
  9
$DIMUPT
 70
     0
  9
$DIMDEC
 70
     4
  9
$DIMTDEC
 70
     4
  9
$DIMALTU
 70
     2
  9
$DIMALTTD
 70
     2
  9
$DIMTXSTY
  7
Standard
  9
$DIMAUNIT
 70
     0
  9
$DIMADEC
 70
     0
  9
$DIMALTRND
 40
0.0
  9
$DIMAZIN
 70
     0
  9
$DIMDSEP
 70
     0
  9
$DIMATFIT
 70
     3
  9
$DIMFRAC
 70
     0
  9
$DIMLDRBLK
  1

  9
$DIMLUNIT
 70
     2
  9
$DIMLWD
 70
     0
  9
$DIMLWE
 70
     0
  9
$DIMTMOVE
 70
     0
  9
$LUNITS
 70
     2
  9
$LUPREC
 70
     4
  9
$SKETCHINC
 40
0.1
  9
$FILLETRAD
 40
0.0
  9
$AUNITS
 70
     0
  9
$AUPREC
 70
     0
  9
$MENU
  1
acad
  9
$ELEVATION
 40
0.0
  9
$PELEVATION
 40
0.0
  9
$THICKNESS
 40
0.0
  9
$LIMCHECK
 70
     0
  9
$CHAMFERA
 40
0.0
  9
$CHAMFERB
 40
0.0
  9
$CHAMFERC
 40
0.0
  9
$CHAMFERD
 40
0.0
  9
$SKPOLY
 70
     0
  9
$TDCREATE
 40
0.000000000
  9
$TDUCREATE
 40
0.000000000
  9
$TDUPDATE
 40
0.000000000
  9
$TDUUPDATE
 40
0.000000000
  9
$TDINDWG
 40
0.0000000000
  9
$TDUSRTIMER
 40
0.0000000000
  9
$USRTIMER
 70
     1
  9
$ANGBASE
 50
0.0
  9
$ANGDIR
 70
     0
  9
$PDMODE
 70
     0
  9
$PDSIZE
 40
0.0
  9
$PLINEWID
 40
0.0
  9
$SPLFRAME
 70
     0
  9
$SPLINETYPE
 70
     6
  9
$SPLINESEGS
 70
     8
  9
$HANDSEED
  5
7C
  9
$SURFTAB1
 70
     6
  9
$SURFTAB2
 70
     6
  9
$SURFTYPE
 70
     6
  9
$SURFU
 70
     6
  9
$SURFV
 70
     6
  9
$UCSBASE
  2

  9
$UCSNAME
  2

  9
$UCSORG
 10
0.0
 20
0.0
 30
0.0
  9
$UCSXDIR
 10
1.0
 20
0.0
 30
0.0
  9
$UCSYDIR
 10
0.0
 20
1.0
 30
0.0
  9
$UCSORTHOREF
  2

  9
$UCSORTHOVIEW
 70
     0
  9
$UCSORGTOP
 10
0.0
 20
0.0
 30
0.0
  9
$UCSORGBOTTOM
 10
0.0
 20
0.0
 30
0.0
  9
$UCSORGLEFT
 10
0.0
 20
0.0
 30
0.0
  9
$UCSORGRIGHT
 10
0.0
 20
0.0
 30
0.0
  9
$UCSORGFRONT
 10
0.0
 20
0.0
 30
0.0
  9
$UCSORGBACK
 10
0.0
 20
0.0
 30
0.0
  9
$PUCSBASE
  2

  9
$PUCSNAME
  2

  9
$PUCSORG
 10
0.0
 20
0.0
 30
0.0
  9
$PUCSXDIR
 10
1.0
 20
0.0
 30
0.0
  9
$PUCSYDIR
 10
0.0
 20
1.0
 30
0.0
  9
$PUCSORTHOREF
  2

  9
$PUCSORTHOVIEW
 70
     0
  9
$PUCSORGTOP
 10
0.0
 20
0.0
 30
0.0
  9
$PUCSORGBOTTOM
 10
0.0
 20
0.0
 30
0.0
  9
$PUCSORGLEFT
 10
0.0
 20
0.0
 30
0.0
  9
$PUCSORGRIGHT
 10
0.0
 20
0.0
 30
0.0
  9
$PUCSORGFRONT
 10
0.0
 20
0.0
 30
0.0
  9
$PUCSORGBACK
 10
0.0
 20
0.0
 30
0.0
  9
$USERI1
 70
     0
  9
$USERI2
 70
     0
  9
$USERI3
 70
     0
  9
$USERI4
 70
     0
  9
$USERI5
 70
     0
  9
$USERR1
 40
0.0
  9
$USERR2
 40
0.0
  9
$USERR3
 40
0.0
  9
$USERR4
 40
0.0
  9
$USERR5
 40
0.0
  9
$WORLDVIEW
 70
     1
  9
$SHADEDGE
 70
     3
  9
$SHADEDIF
 70
    70
  9
$TILEMODE
 70
     1
  9
$MAXACTVP
 70
    16
  9
$PINSBASE
 10
0.0
 20
0.0
 30
0.0
  9
$PLIMCHECK
 70
     0
  9
$PEXTMIN
 10
1.000000E+20
 20
1.000000E+20
 30
1.000000E+20
  9
$PEXTMAX
 10
-1.000000E+20
 20
-1.000000E+20
 30
-1.000000E+20
  9
$PLIMMIN
 10
0.0
 20
0.0
  9
$PLIMMAX
 10
12.0
 20
9.0
  9
$UNITMODE
 70
     0
  9
$VISRETAIN
 70
     0
  9
$PLINEGEN
 70
     1
  9
$PSLTSCALE
 70
     0
  9
$TREEDEPTH
 70
  3020
  9
$CMLSTYLE
  2
Standard
  9
$CMLJUST
 70
     0
  9
$CMLSCALE
 40
1.0
  9
$PROXYGRAPHICS
 70
     0
  9
$MEASUREMENT
 70
     0
  9
$CELWEIGHT
370
     0
  9
$ENDCAPS
280
     0
  9
$JOINSTYLE
280
     0
  9
$LWDISPLAY
290
     0
  9
$INSUNITS
 70
     5
  9
$HYPERLINKBASE
  1

  9
$XEDIT
290
     1
  9
$CEPSNTYPE
380
     0
  9
$PSTYLEMODE
290
     1
  9
$FINGERPRINTGUID
  2

  9
$VERSIONGUID
  2

  9
$EXTNAMES
290
     1
  9
$PSVPSCALE
 40
0.0
  0
ENDSEC
  0
SECTION
  2
CLASSES
  0
CLASS
  1
LWPOLYLINE
  2
AcDbPolyline
  3
AutoCAD 2000
 90
    32768
280
     0
281
     1
  0
CLASS
  1
IMAGE
  2
AcDbRasterImage
  3
ISM
 90
    32895
280
     0
281
     1
  0
CLASS
  1
OLE2FRAME
  2
AcDbOle2Frame
  3
AutoCAD 2000
 90
    32768
280
     0
281
     1
  0
CLASS
  1
HATCH
  2
AcDbHatch
  3
AutoCAD 2000
 90
    32768
280
     0
281
     1
  0
CLASS
  1
DICTIONARYVAR
  2
AcDbDictionaryVar
  3
AutoCAD 2000
 90
    32768
280
     0
281
     0
  0
CLASS
  1
RASTERVARIABLES
  2
AcDbRasterVariables
  3
ISM
 90
    32768
280
     0
281
     0
  0
CLASS
  1
IMAGEDEF
  2
AcDbRasterImageDef
  3
ISM
 90
    32768
280
     0
281
     0
  0
CLASS
  1
IMAGEDEF_REACTOR
  2
AcDbRasterImageDefReactor
  3
ISM
 90
    32769
280
     0
281
     0
  0
CLASS
  1
IDBUFFER
  2
AcDbIdBuffer
  3
AutoCAD 2000
 90
    32768
280
     0
281
     0
  0
CLASS
  1
SPATIAL_FILTER
  2
AcDbSpatialFilter
  3
AutoCAD 2000
 90
    32768
280
     0
281
     0
  0
CLASS
  1
XRECORD
  2
AcDbXrecord
  3
AutoCAD 2000
 90
    32768
280
     0
281
     0
  0
CLASS
  1
SORTENTSTABLE
  2
AcDbSortentsTable
  3
AutoCAD 2000
 90
    32768
280
     0
281
     0
  0
CLASS
  1
LAYER_INDEX
  2
AcDbLayerIndex
  3
AutoCAD 2000
 90
    32768
280
     0
281
     0
  0
CLASS
  1
SPATIAL_INDEX
  2
AcDbSpatialIndex
  3
AutoCAD 2000
 90
    32768
280
     0
281
     0
  0
CLASS
  1
OBJECT_PTR
  2
CAseDLPNTableRecord
  3
"ASE-LPNTableRecord"
 90
    32769
280
     0
281
     0
  0
CLASS
  1
LAYOUT
  2
AcDbLayout
  3
AutoCAD 2000
 90
        0
280
     0
281
     0
  0
CLASS
  1
PLOTSETTINGS
  2
AcDbPlotSettings
  3
AutoCAD 2000
 90
    32768
280
     0
281
     0
  0
CLASS
  1
ACDBDICTIONARYWDFLT
  2
AcDbDictionaryWithDefault
  3
AutoCAD 2000
 90
        0
280
     0
281
     0
  0
CLASS
  1
ACDBPLACEHOLDER
  2
AcDbPlaceHolder
  3
AutoCAD 2000
 90
        0
280
     0
281
     0
  0
CLASS
  1
VBA_PROJECT
  2
AcDbVbaProject
  3
acadvba
 90
    32768
280
     0
281
     0
  0
CLASS
  1
WIPEOUT
  2
AcDbWipeout
  3
WipeOut|AutoCAD Express Tool|expresstools@autodesk.com
 90
    32895
280
     0
281
     1
  0
CLASS
  1
WIPEOUTVARIABLES
  2
AcDbWipeoutVariables
  3
WipeOut|AutoCAD Express Tool|expresstools@autodesk.com
 90
        0
280
     0
281
     0
  0
CLASS
  1
RTEXT
  2
RText
  3
RText|AutoCAD Express Tool|expresstools@autodesk.com
 90
    32768
280
     0
281
     1
  0
CLASS
  1
ARCALIGNEDTEXT
  2
AcDbArcAlignedText
  3
ATEXT|AutoCAD Express Tool|expresstools@autodesk.com
 90
    32768
280
     0
281
     1
  0
ENDSEC
  0
SECTION
  2
TABLES
  0
TABLE
  2
VPORT
  5
7
100
AcDbSymbolTable
 70
     1
  0
VPORT
  5
15
100
AcDbSymbolTableRecord
100
AcDbViewportTableRecord
  2
*ACTIVE
 70
     0
 10
0.0
 20
0.0
 11
1.0
 21
1.0
 12
6.591288
 22
4.579184
 13
0.0
 23
0.0
 14
1.0
 24
1.0
 15
0.0
 25
0.0
 16
0.0
 26
0.0
 36
1.0
 17
0.0
 27
0.0
 37
0.0
 40
9.158369
 41
0.688564
 42
50.0
 43
0.0
 44
0.0
 50
0.0
 51
0.0
 71
     0
 72
   100
 73
     1
 74
     1
 75
     0
 76
     0
 77
     0
 78
     0
281
     0
 65
     0
110
0.0
120
0.0
130
0.0
111
1.0
121
0.0
131
0.0
112
0.0
122
1.0
132
0.0
345
0
346
0
 79
     0
146
0.0
  0
ENDTAB
  0
TABLE
  2
LTYPE
  5
4
100
AcDbSymbolTable
 70
     3
  0
LTYPE
  5
11
100
AcDbSymbolTableRecord
100
AcDbLinetypeTableRecord
  2
ByBlock
 70
    64
  3

 72
    65
 73
     0
 40
0.0
  0
LTYPE
  5
12
100
AcDbSymbolTableRecord
100
AcDbLinetypeTableRecord
  2
ByLayer
 70
    64
  3

 72
    65
 73
     0
 40
0.0
  0
LTYPE
  5
13
100
AcDbSymbolTableRecord
100
AcDbLinetypeTableRecord
  2
Continuous
 70
    64
  3
Solid line
 72
    65
 73
     0
 40
0.0
  0
ENDTAB
  0
TABLE
  2
LAYER
  5
2
100
AcDbSymbolTable
 70
     2
  0
LAYER
  5
14
100
AcDbSymbolTableRecord
100
AcDbLayerTableRecord
  2
0
 70
     0
 62
     7
  6
Continuous
290
     1
370
    -3
390
1D
  0
LAYER
  5
24
100
AcDbSymbolTableRecord
100
AcDbLayerTableRecord
  2
Ebene 1
 70
     0
 62
     7
  6
Continuous
290
     1
370
    -3
390
1F
  0
ENDTAB
  0
TABLE
  2
STYLE
  5
3
100
AcDbSymbolTable
 70
     1
  0
STYLE
  5
17
100
AcDbSymbolTableRecord
100
AcDbTextStyleTableRecord
  2
Standard
 70
     0
 40
0.0
 41
1.0
 50
0.0
 71
     0
 42
0.0
  3
txt
  4

  0
ENDTAB
  0
TABLE
  2
VIEW
  5
5
100
AcDbSymbolTable
 70
     0
  0
ENDTAB
  0
TABLE
  2
UCS
  5
6
100
AcDbSymbolTable
 70
     0
  0
ENDTAB
  0
TABLE
  2
APPID
  5
8
100
AcDbSymbolTable
 70
     1
  0
APPID
  5
16
100
AcDbSymbolTableRecord
100
AcDbRegAppTableRecord
  2
ACAD
 70
     0
  0
ENDTAB
  0
TABLE
  2
DIMSTYLE
  5
9
100
AcDbSymbolTable
 70
     1
100
AcDbDimStyleTable
 71
     0
  0
DIMSTYLE
105
18
100
AcDbSymbolTableRecord
100
AcDbDimStyleTableRecord
  2
Standard
 70
     0
  3

  4

 40
1.0
 41
0.18
 42
0.0625
 43
0.38
 44
0.18
 45
0.0
 46
0.0
 47
0.0
 48
0.0
 71
     0
 72
     0
 73
     1
 74
     1
 75
     0
 76
     0
 77
     0
 78
     0
 79
     0
140
0.18
141
0.09
142
0.0
143
25.4
144
1.0
145
0.0
146
1.0
147
0.09
148
0.0
170
     0
171
     2
172
     0
173
     0
174
     0
175
     0
176
     0
177
     0
178
     0
179
     0
271
     4
272
     4
273
     2
274
     2
275
     0
276
     0
277
     2
278
    46
279
     0
280
     0
281
     0
282
     0
283
     1
284
     0
285
     0
286
     0
288
     0
340
17
341
0
342
0
343
0
344
0
371
    -2
372
    -2
  0
ENDTAB
  0
TABLE
  2
BLOCK_RECORD
  5
1
100
AcDbSymbolTable
 70
     0
  0
BLOCK_RECORD
  5
A
100
AcDbSymbolTableRecord
100
AcDbBlockTableRecord
  2
*MODEL_SPACE
340
20
  0
BLOCK_RECORD
  5
B
100
AcDbSymbolTableRecord
100
AcDbBlockTableRecord
  2
*PAPER_SPACE
340
21
  0
ENDTAB
  0
ENDSEC
  0
SECTION
  2
BLOCKS
  0
BLOCK
  5
D
100
AcDbEntity
  8
0
100
AcDbBlockBegin
  2
*MODEL_SPACE
 70
     0
 10
0.0
 20
0.0
 30
0.0
  3
*MODEL_SPACE
  1

  0
ENDBLK
  5
E
100
AcDbEntity
  8
0
100
AcDbBlockEnd
  0
BLOCK
  5
F
100
AcDbEntity
 67
     1
  8
0
100
AcDbBlockBegin
  2
*PAPER_SPACE
 70
     0
 10
0.0
 20
0.0
 30
0.0
  3
*PAPER_SPACE
  1

  0
ENDBLK
  5
10
100
AcDbEntity
 67
     1
  8
0
100
AcDbBlockEnd
  0
ENDSEC
  0
SECTION
  2
ENTITIES
  0
SPLINE
  5
25
100
AcDbEntity
  8
Ebene 1
100
AcDbSpline
210
0.0
220
0.0
230
1.0
 70
     1
 71
     3
 72
   160
 73
   156
 74
     0
 42
0.0000000001
 43
0.0000000001
 40
0.0
 40
0.0
 40
0.0
 40
0.0
 40
0.0256410256410256
 40
0.0256410256410256
 40
0.0256410256410256
 40
0.0256410256410256
 40
0.0512820512820513
 40
0.0512820512820513
 40
0.0512820512820513
 40
0.0512820512820513
 40
0.0769230769230769
 40
0.0769230769230769
 40
0.0769230769230769
 40
0.0769230769230769
 40
0.1025641025641026
 40
0.1025641025641026
 40
0.1025641025641026
 40
0.1025641025641026
 40
0.1282051282051282
 40
0.1282051282051282
 40
0.1282051282051282
 40
0.1282051282051282
 40
0.1538461538461538
 40
0.1538461538461538
 40
0.1538461538461538
 40
0.1538461538461538
 40
0.1794871794871795
 40
0.1794871794871795
 40
0.1794871794871795
 40
0.1794871794871795
 40
0.2051282051282051
 40
0.2051282051282051
 40
0.2051282051282051
 40
0.2051282051282051
 40
0.2307692307692307
 40
0.2307692307692307
 40
0.2307692307692307
 40
0.2307692307692307
 40
0.2564102564102564
 40
0.2564102564102564
 40
0.2564102564102564
 40
0.2564102564102564
 40
0.2820512820512821
 40
0.2820512820512821
 40
0.2820512820512821
 40
0.2820512820512821
 40
0.3076923076923077
 40
0.3076923076923077
 40
0.3076923076923077
 40
0.3076923076923077
 40
0.3333333333333334
 40
0.3333333333333334
 40
0.3333333333333334
 40
0.3333333333333334
 40
0.358974358974359
 40
0.358974358974359
 40
0.358974358974359
 40
0.358974358974359
 40
0.3846153846153847
 40
0.3846153846153847
 40
0.3846153846153847
 40
0.3846153846153847
 40
0.4102564102564104
 40
0.4102564102564104
 40
0.4102564102564104
 40
0.4102564102564104
 40
0.435897435897436
 40
0.435897435897436
 40
0.435897435897436
 40
0.435897435897436
 40
0.4615384615384617
 40
0.4615384615384617
 40
0.4615384615384617
 40
0.4615384615384617
 40
0.4871794871794873
 40
0.4871794871794873
 40
0.4871794871794873
 40
0.4871794871794873
 40
0.512820512820513
 40
0.512820512820513
 40
0.512820512820513
 40
0.512820512820513
 40
0.5384615384615387
 40
0.5384615384615387
 40
0.5384615384615387
 40
0.5384615384615387
 40
0.5641025641025643
 40
0.5641025641025643
 40
0.5641025641025643
 40
0.5641025641025643
 40
0.58974358974359
 40
0.58974358974359
 40
0.58974358974359
 40
0.58974358974359
 40
0.6153846153846156
 40
0.6153846153846156
 40
0.6153846153846156
 40
0.6153846153846156
 40
0.6410256410256413
 40
0.6410256410256413
 40
0.6410256410256413
 40
0.6410256410256413
 40
0.666666666666667
 40
0.666666666666667
 40
0.666666666666667
 40
0.666666666666667
 40
0.6923076923076926
 40
0.6923076923076926
 40
0.6923076923076926
 40
0.6923076923076926
 40
0.7179487179487183
 40
0.7179487179487183
 40
0.7179487179487183
 40
0.7179487179487183
 40
0.743589743589744
 40
0.743589743589744
 40
0.743589743589744
 40
0.743589743589744
 40
0.7692307692307696
 40
0.7692307692307696
 40
0.7692307692307696
 40
0.7692307692307696
 40
0.7948717948717953
 40
0.7948717948717953
 40
0.7948717948717953
 40
0.7948717948717953
 40
0.8205128205128209
 40
0.8205128205128209
 40
0.8205128205128209
 40
0.8205128205128209
 40
0.8461538461538466
 40
0.8461538461538466
 40
0.8461538461538466
 40
0.8461538461538466
 40
0.8717948717948723
 40
0.8717948717948723
 40
0.8717948717948723
 40
0.8717948717948723
 40
0.8974358974358979
 40
0.8974358974358979
 40
0.8974358974358979
 40
0.8974358974358979
 40
0.9230769230769236
 40
0.9230769230769236
 40
0.9230769230769236
 40
0.9230769230769236
 40
0.9487179487179492
 40
0.9487179487179492
 40
0.9487179487179492
 40
0.9487179487179492
 40
0.9743589743589749
 40
0.9743589743589749
 40
0.9743589743589749
 40
0.9743589743589749
 40
1.0
 40
1.0
 40
1.0
 40
1.0
 10
-2.0572500000000002
 20
7.0936500000000002
 30
0.0
 10
-0.8329700000000001
 20
7.124130000000001
 30
0.0
 10
-1.20889
 20
5.5772700000000004
 30
0.0
 10
-1.4882900000000001
 20
4.8559100000000006
 30
0.0
 10
-1.4882900000000001
 20
4.8559100000000006
 30
0.0
 10
-1.42225
 20
5.3791500000000001
 30
0.0
 10
-1.3536700000000002
 20
5.9785900000000005
 30
0.0
 10
-1.9454900000000002
 20
6.1513100000000005
 30
0.0
 10
-1.9454900000000002
 20
6.1513100000000005
 30
0.0
 10
-2.5830300000000004
 20
5.4096300000000008
 30
0.0
 10
-2.64907
 20
4.1421700000000001
 30
0.0
 10
-2.3671300000000004
 20
3.3293700000000004
 30
0.0
 10
-2.3671300000000004
 20
3.3293700000000004
 30
0.0
 10
-2.3772900000000003
 20
5.0108500000000005
 30
0.0
 10
-0.24623
 20
4.7924100000000003
 30
0.0
 10
-0.68057
 20
3.4157300000000004
 30
0.0
 10
-0.68057
 20
3.4157300000000004
 30
0.0
 10
-0.72121
 20
3.5097100000000001
 30
0.0
 10
-0.7872500000000001
 20
3.6214700000000004
 30
0.0
 10
-0.8913900000000001
 20
3.6570300000000002
 30
0.0
 10
-0.8913900000000001
 20
3.6570300000000002
 30
0.0
 10
-0.80249
 20
3.4106500000000004
 30
0.0
 10
-0.7974100000000001
 20
3.1947500000000004
 30
0.0
 10
-0.8532900000000001
 20
2.9356700000000004
 30
0.0
 10
-0.8532900000000001
 20
2.9356700000000004
 30
0.0
 10
-0.91171
 20
3.2988900000000001
 30
0.0
 10
-1.0666500000000001
 20
3.6468700000000003
 30
0.0
 10
-1.11999
 20
3.1033100000000005
 30
0.0
 10
-1.11999
 20
3.1033100000000005
 30
0.0
 10
-1.4959100000000001
 20
3.8754700000000004
 30
0.0
 10
-1.9861300000000002
 20
2.7172300000000003
 30
0.0
 10
-1.8591300000000002
 20
2.2955900000000002
 30
0.0
 10
-1.8591300000000002
 20
2.2955900000000002
 30
0.0
 10
0.16778
 20
4.1675700000000004
 30
0.0
 10
3.4697800000000001
 20
0.9392300000000001
 30
0.0
 10
1.7095600000000002
 20
-1.1334000000000002
 30
0.0
 10
1.7095600000000002
 20
-1.1334000000000002
 30
0.0
 10
1.7095600000000002
 20
-1.1334000000000002
 30
0.0
 10
1.0898000000000001
 20
-1.3010400000000002
 30
0.0
 10
1.0898000000000001
 20
-1.3010400000000002
 30
0.0
 10
1.0898000000000001
 20
-1.3010400000000002
 30
0.0
 10
1.0898000000000001
 20
-1.6795000000000002
 30
0.0
 10
1.0898000000000001
 20
-2.0020800000000003
 30
0.0
 10
1.0466200000000001
 20
-2.39324
 30
0.0
 10
1.0466200000000001
 20
-2.39324
 30
0.0
 10
1.3641200000000002
 20
-2.5075400000000001
 30
0.0
 10
1.4936600000000002
 20
-1.9487400000000001
 30
0.0
 10
1.7400400000000003
 20
-1.8623800000000001
 30
0.0
 10
1.7400400000000003
 20
-1.8623800000000001
 30
0.0
 10
1.3946000000000001
 20
-2.5253200000000002
 30
0.0
 10
2.2023200000000003
 20
-2.9037800000000002
 30
0.0
 10
2.6900000000000004
 20
-2.5253200000000002
 30
0.0
 10
2.6900000000000004
 20
-2.5253200000000002
 30
0.0
 10
2.5680800000000001
 20
-2.9266400000000004
 30
0.0
 10
2.7154000000000003
 20
-3.1171400000000005
 30
0.0
 10
2.9465400000000002
 20
-3.1425400000000003
 30
0.0
 10
2.9465400000000002
 20
-3.1425400000000003
 30
0.0
 10
3.0583000000000005
 20
-3.15524
 30
0.0
 10
3.1345000000000001
 20
-3.0511000000000004
 30
0.0
 10
3.2665800000000003
 20
-2.9901400000000002
 30
0.0
 10
3.2665800000000003
 20
-2.9901400000000002
 30
0.0
 10
3.3402400000000001
 20
-2.9545800000000004
 30
0.0
 10
3.4520000000000004
 20
-2.8987000000000003
 30
0.0
 10
3.5409000000000002
 20
-2.9291800000000001
 30
0.0
 10
3.5409000000000002
 20
-2.9291800000000001
 30
0.0
 10
2.6341200000000002
 20
-3.9528000000000003
 30
0.0
 10
3.7593400000000003
 20
-5.6165000000000003
 30
0.0
 10
2.5477600000000002
 20
-6.5842400000000003
 30
0.0
 10
2.5477600000000002
 20
-6.5842400000000003
 30
0.0
 10
1.7095600000000002
 20
-7.353860000000001
 30
0.0
 10
0.31256
 20
-7.219240000000001
 30
0.0
 10
-0.51039
 20
-6.4775600000000004
 30
0.0
 10
-0.51039
 20
-6.4775600000000004
 30
0.0
 10
-1.07935
 20
-6.3200800000000008
 30
0.0
 10
-1.7194300000000002
 20
-6.2921400000000007
 30
0.0
 10
-2.18933
 20
-5.8933600000000004
 30
0.0
 10
-2.18933
 20
-5.8933600000000004
 30
0.0
 10
-2.3747500000000001
 20
-5.6647600000000002
 30
0.0
 10
-2.10297
 20
-5.4971200000000007
 30
0.0
 10
-1.9099300000000001
 20
-5.4666400000000008
 30
0.0
 10
-1.9099300000000001
 20
-5.4666400000000008
 30
0.0
 10
-2.3163300000000002
 20
-5.4514000000000005
 30
0.0
 10
-2.5931900000000003
 20
-4.8748200000000006
 30
0.0
 10
-2.0674100000000002
 20
-4.7808400000000004
 30
0.0
 10
-2.0674100000000002
 20
-4.7808400000000004
 30
0.0
 10
-2.8395700000000001
 20
-4.4912800000000006
 30
0.0
 10
-1.4984500000000001
 20
-4.1052
 30
0.0
 10
-1.9581900000000001
 20
-4.04678
 30
0.0
 10
-1.9581900000000001
 20
-4.04678
 30
0.0
 10
-1.9962900000000001
 20
-3.9985200000000005
 30
0.0
 10
-2.0191500000000002
 20
-3.9426400000000004
 30
0.0
 10
-2.0064500000000001
 20
-3.8791400000000005
 30
0.0
 10
-2.0064500000000001
 20
-3.8791400000000005
 30
0.0
 10
-2.0191500000000002
 20
-3.7851600000000003
 30
0.0
 10
-1.9861300000000002
 20
-3.6988000000000003
 30
0.0
 10
-1.9150100000000001
 20
-3.6353000000000004
 30
0.0
 10
-1.9150100000000001
 20
-3.6353000000000004
 30
0.0
 10
-1.1428500000000001
 20
-3.3889200000000002
 30
0.0
 10
-0.34783
 20
-3.1450800000000001
 30
0.0
 10
0.2389
 20
-2.5685000000000002
 30
0.0
 10
0.2389
 20
-2.5685000000000002
 30
0.0
 10
-0.27671
 20
-2.4389600000000002
 30
0.0
 10
-0.8786900000000001
 20
-3.5083000000000002
 30
0.0
 10
-1.5263900000000001
 20
-3.1323800000000004
 30
0.0
 10
-1.5263900000000001
 20
-3.1323800000000004
 30
0.0
 10
-1.6508500000000002
 20
-3.1806400000000004
 30
0.0
 10
-1.84135
 20
-3.2009600000000002
 30
0.0
 10
-1.9886700000000002
 20
-3.1679400000000002
 30
0.0
 10
-1.9886700000000002
 20
-3.1679400000000002
 30
0.0
 10
-2.0470900000000003
 20
-2.5304000000000002
 30
0.0
 10
-2.3468100000000001
 20
-2.0986000000000002
 30
0.0
 10
-2.22743
 20
-1.4483600000000001
 30
0.0
 10
-2.22743
 20
-1.4483600000000001
 30
0.0
 10
-2.2248900000000003
 20
-1.0648200000000001
 30
0.0
 10
-2.6846300000000003
 20
-1.2629400000000002
 30
0.0
 10
-2.6719300000000001
 20
-0.9175000000000001
 30
0.0
 10
-2.6719300000000001
 20
-0.9175000000000001
 30
0.0
 10
-2.6643100000000004
 20
-0.7498600000000001
 30
0.0
 10
-2.7176500000000003
 20
-0.5187200000000001
 30
0.0
 10
-2.7557500000000004
 20
-0.35108
 30
0.0
 10
-2.7557500000000004
 20
-0.35108
 30
0.0
 10
-2.7862300000000002
 20
-0.21646
 30
0.0
 10
-2.9132300000000004
 20
-0.07168
 30
0.0
 10
-2.9183100000000004
 20
0.06293
 30
0.0
 10
-2.9183100000000004
 20
0.06293
 30
0.0
 10
-2.9259300000000001
 20
0.23565
 30
0.0
 10
-2.8065500000000001
 20
0.4007500000000001
 30
0.0
 10
-2.7811500000000002
 20
0.57601
 30
0.0
 10
-2.7811500000000002
 20
0.57601
 30
0.0
 10
-2.7252700000000001
 20
0.9392300000000001
 30
0.0
 10
-2.64907
 20
1.3075300000000001
 30
0.0
 10
-2.5271500000000002
 20
1.6402700000000001
 30
0.0
 10
-2.5271500000000002
 20
1.6402700000000001
 30
0.0
 10
-2.7481300000000002
 20
2.0746100000000003
 30
0.0
 10
-2.9767300000000003
 20
2.5064100000000002
 30
0.0
 10
-3.1799300000000001
 20
2.9509100000000004
 30
0.0
 10
-3.1799300000000001
 20
2.9509100000000004
 30
0.0
 10
-3.2383500000000001
 20
3.0804500000000004
 30
0.0
 10
-3.3120100000000003
 20
3.1668100000000003
 30
0.0
 10
-3.2612100000000002
 20
2.9483700000000002
 30
0.0
 10
-3.2612100000000002
 20
2.9483700000000002
 30
0.0
 10
-3.2231100000000001
 20
2.7832700000000004
 30
0.0
 10
-3.1748500000000002
 20
2.6181700000000001
 30
0.0
 10
-3.1342100000000004
 20
2.4530700000000003
 30
0.0
 10
-3.1342100000000004
 20
2.4530700000000003
 30
0.0
 10
-3.4237700000000002
 20
2.80105
 30
0.0
 10
-3.7361900000000001
 20
3.4614500000000001
 30
0.0
 10
-3.3729700000000005
 20
3.8576900000000003
 30
0.0
 10
-3.3729700000000005
 20
3.8576900000000003
 30
0.0
 10
-3.1697700000000002
 20
3.9364300000000005
 30
0.0
 10
-3.0554700000000001
 20
3.5909900000000001
 30
0.0
 10
-2.9589500000000002
 20
3.6011500000000001
 30
0.0
 10
-2.9589500000000002
 20
3.6011500000000001
 30
0.0
 10
-3.2053300000000005
 20
4.7695500000000006
 30
0.0
 10
-3.7285700000000004
 20
6.8472700000000009
 30
0.0
 10
-2.0572500000000002
 20
7.0936500000000002
 30
0.0
  0
SPLINE
  5
26
100
AcDbEntity
  8
Ebene 1
100
AcDbSpline
210
0.0
220
0.0
230
1.0
 70
     1
 71
     3
 72
    20
 73
    16
 74
     0
 42
0.0000000001
 43
0.0000000001
 40
0.0
 40
0.0
 40
0.0
 40
0.0
 40
0.25
 40
0.25
 40
0.25
 40
0.25
 40
0.5
 40
0.5
 40
0.5
 40
0.5
 40
0.75
 40
0.75
 40
0.75
 40
0.75
 40
1.0
 40
1.0
 40
1.0
 40
1.0
 10
-0.53579
 20
-1.3112000000000001
 30
0.0
 10
-0.53579
 20
-1.3112000000000001
 30
0.0
 10
-0.71867
 20
-1.3874000000000002
 30
0.0
 10
-0.71867
 20
-1.3874000000000002
 30
0.0
 10
-0.71867
 20
-1.3874000000000002
 30
0.0
 10
-0.67803
 20
-1.5575800000000002
 30
0.0
 10
-0.6500900000000001
 20
-1.7633200000000002
 30
0.0
 10
-0.50785
 20
-1.8877800000000002
 30
0.0
 10
-0.50785
 20
-1.8877800000000002
 30
0.0
 10
-0.34783
 20
-1.7633200000000002
 30
0.0
 10
-0.4062500000000001
 20
-1.4864600000000001
 30
0.0
 10
-0.46721
 20
-1.3137400000000001
 30
0.0
 10
-0.46721
 20
-1.3137400000000001
 30
0.0
 10
-0.46721
 20
-1.3137400000000001
 30
0.0
 10
-0.53579
 20
-1.3112000000000001
 30
0.0
 10
-0.53579
 20
-1.3112000000000001
 30
0.0
  0
SPLINE
  5
27
100
AcDbEntity
  8
Ebene 1
100
AcDbSpline
210
0.0
220
0.0
230
1.0
 70
     1
 71
     3
 72
    20
 73
    16
 74
     0
 42
0.0000000001
 43
0.0000000001
 40
0.0
 40
0.0
 40
0.0
 40
0.0
 40
0.25
 40
0.25
 40
0.25
 40
0.25
 40
0.5
 40
0.5
 40
0.5
 40
0.5
 40
0.75
 40
0.75
 40
0.75
 40
0.75
 40
1.0
 40
1.0
 40
1.0
 40
1.0
 10
-1.3435100000000002
 20
-4.2804600000000006
 30
0.0
 10
-1.3435100000000002
 20
-4.2804600000000006
 30
0.0
 10
-1.5619500000000002
 20
-4.3769800000000005
 30
0.0
 10
-1.5619500000000002
 20
-4.3769800000000005
 30
0.0
 10
-1.5619500000000002
 20
-4.3769800000000005
 30
0.0
 10
-1.6025900000000002
 20
-4.3947600000000007
 30
0.0
 10
-1.6508500000000002
 20
-4.4176200000000003
 30
0.0
 10
-1.67117
 20
-4.4506399999999999
 30
0.0
 10
-1.67117
 20
-4.4506399999999999
 30
0.0
 10
-1.54671
 20
-4.4277800000000003
 30
0.0
 10
-1.3206500000000001
 20
-4.4608000000000008
 30
0.0
 10
-1.2876300000000001
 20
-4.2982400000000007
 30
0.0
 10
-1.2876300000000001
 20
-4.2982400000000007
 30
0.0
 10
-1.3028700000000002
 20
-4.2804600000000006
 30
0.0
 10
-1.3231900000000001
 20
-4.2804600000000006
 30
0.0
 10
-1.3435100000000002
 20
-4.2804600000000006
 30
0.0
  0
SPLINE
  5
28
100
AcDbEntity
  8
Ebene 1
100
AcDbSpline
210
0.0
220
0.0
230
1.0
 70
     1
 71
     3
 72
    20
 73
    16
 74
     0
 42
0.0000000001
 43
0.0000000001
 40
0.0
 40
0.0
 40
0.0
 40
0.0
 40
0.25
 40
0.25
 40
0.25
 40
0.25
 40
0.5
 40
0.5
 40
0.5
 40
0.5
 40
0.75
 40
0.75
 40
0.75
 40
0.75
 40
1.0
 40
1.0
 40
1.0
 40
1.0
 10
-1.41717
 20
-4.8722800000000008
 30
0.0
 10
-1.41717
 20
-4.8722800000000008
 30
0.0
 10
-1.8057900000000002
 20
-4.9586400000000008
 30
0.0
 10
-1.8057900000000002
 20
-4.9586400000000008
 30
0.0
 10
-1.8057900000000002
 20
-4.9586400000000008
 30
0.0
 10
-1.8769100000000001
 20
-4.9764200000000001
 30
0.0
 10
-1.9378700000000002
 20
-5.0145200000000001
 30
0.0
 10
-1.9734300000000002
 20
-5.0704000000000002
 30
0.0
 10
-1.9734300000000002
 20
-5.0704000000000002
 30
0.0
 10
-1.7880100000000001
 20
-5.1466000000000003
 30
0.0
 10
-1.54925
 20
-5.1516800000000007
 30
0.0
 10
-1.3460500000000002
 20
-5.1288200000000002
 30
0.0
 10
-1.3460500000000002
 20
-5.1288200000000002
 30
0.0
 10
-1.3257300000000001
 20
-5.0526200000000001
 30
0.0
 10
-1.33081
 20
-4.9053000000000004
 30
0.0
 10
-1.41717
 20
-4.8722800000000008
 30
0.0
  0
SPLINE
  5
29
100
AcDbEntity
  8
Ebene 1
100
AcDbSpline
210
0.0
220
0.0
230
1.0
 70
     1
 71
     3
 72
    24
 73
    20
 74
     0
 42
0.0000000001
 43
0.0000000001
 40
0.0
 40
0.0
 40
0.0
 40
0.0
 40
0.2
 40
0.2
 40
0.2
 40
0.2
 40
0.4
 40
0.4
 40
0.4
 40
0.4
 40
0.6000000000000001
 40
0.6000000000000001
 40
0.6000000000000001
 40
0.6000000000000001
 40
0.8
 40
0.8
 40
0.8
 40
0.8
 40
1.0
 40
1.0
 40
1.0
 40
1.0
 10
-1.2876300000000001
 20
-5.5936400000000006
 30
0.0
 10
-1.2876300000000001
 20
-5.5936400000000006
 30
0.0
 10
-1.58735
 20
-5.6520600000000005
 30
0.0
 10
-1.58735
 20
-5.6520600000000005
 30
0.0
 10
-1.58735
 20
-5.6520600000000005
 30
0.0
 10
-1.6889500000000002
 20
-5.6596800000000007
 30
0.0
 10
-1.7854700000000001
 20
-5.7003200000000005
 30
0.0
 10
-1.8616700000000002
 20
-5.7536600000000009
 30
0.0
 10
-1.8616700000000002
 20
-5.7536600000000009
 30
0.0
 10
-1.6102100000000001
 20
-5.8781200000000009
 30
0.0
 10
-1.2876300000000001
 20
-5.9517800000000003
 30
0.0
 10
-1.00061
 20
-5.9340000000000002
 30
0.0
 10
-1.00061
 20
-5.9340000000000002
 30
0.0
 10
-1.00061
 20
-5.9340000000000002
 30
0.0
 10
-1.08697
 20
-5.7689000000000004
 30
0.0
 10
-1.08697
 20
-5.7689000000000004
 30
0.0
 10
-1.08697
 20
-5.7689000000000004
 30
0.0
 10
-1.1377700000000002
 20
-5.6952400000000001
 30
0.0
 10
-1.1555500000000001
 20
-5.5530000000000008
 30
0.0
 10
-1.2876300000000001
 20
-5.5936400000000006
 30
0.0
  0
SPLINE
  5
2A
100
AcDbEntity
  8
Ebene 1
 62
     7
100
AcDbSpline
210
0.0
220
0.0
230
1.0
 70
     1
 71
     3
 72
   108
 73
   104
 74
     0
 42
0.0000000001
 43
0.0000000001
 40
0.0
 40
0.0
 40
0.0
 40
0.0
 40
0.0384615384615385
 40
0.0384615384615385
 40
0.0384615384615385
 40
0.0384615384615385
 40
0.0769230769230769
 40
0.0769230769230769
 40
0.0769230769230769
 40
0.0769230769230769
 40
0.1153846153846154
 40
0.1153846153846154
 40
0.1153846153846154
 40
0.1153846153846154
 40
0.1538461538461539
 40
0.1538461538461539
 40
0.1538461538461539
 40
0.1538461538461539
 40
0.1923076923076923
 40
0.1923076923076923
 40
0.1923076923076923
 40
0.1923076923076923
 40
0.2307692307692308
 40
0.2307692307692308
 40
0.2307692307692308
 40
0.2307692307692308
 40
0.2692307692307693
 40
0.2692307692307693
 40
0.2692307692307693
 40
0.2692307692307693
 40
0.3076923076923077
 40
0.3076923076923077
 40
0.3076923076923077
 40
0.3076923076923077
 40
0.3461538461538462
 40
0.3461538461538462
 40
0.3461538461538462
 40
0.3461538461538462
 40
0.3846153846153846
 40
0.3846153846153846
 40
0.3846153846153846
 40
0.3846153846153846
 40
0.423076923076923
 40
0.423076923076923
 40
0.423076923076923
 40
0.423076923076923
 40
0.4615384615384615
 40
0.4615384615384615
 40
0.4615384615384615
 40
0.4615384615384615
 40
0.4999999999999999
 40
0.4999999999999999
 40
0.4999999999999999
 40
0.4999999999999999
 40
0.5384615384615383
 40
0.5384615384615383
 40
0.5384615384615383
 40
0.5384615384615383
 40
0.5769230769230768
 40
0.5769230769230768
 40
0.5769230769230768
 40
0.5769230769230768
 40
0.6153846153846152
 40
0.6153846153846152
 40
0.6153846153846152
 40
0.6153846153846152
 40
0.6538461538461536
 40
0.6538461538461536
 40
0.6538461538461536
 40
0.6538461538461536
 40
0.6923076923076921
 40
0.6923076923076921
 40
0.6923076923076921
 40
0.6923076923076921
 40
0.7307692307692305
 40
0.7307692307692305
 40
0.7307692307692305
 40
0.7307692307692305
 40
0.7692307692307689
 40
0.7692307692307689
 40
0.7692307692307689
 40
0.7692307692307689
 40
0.8076923076923074
 40
0.8076923076923074
 40
0.8076923076923074
 40
0.8076923076923074
 40
0.8461538461538458
 40
0.8461538461538458
 40
0.8461538461538458
 40
0.8461538461538458
 40
0.8846153846153843
 40
0.8846153846153843
 40
0.8846153846153843
 40
0.8846153846153843
 40
0.9230769230769227
 40
0.9230769230769227
 40
0.9230769230769227
 40
0.9230769230769227
 40
0.9615384615384611
 40
0.9615384615384611
 40
0.9615384615384611
 40
0.9615384615384611
 40
1.0
 40
1.0
 40
1.0
 40
1.0
 10
-2.5550900000000003
 20
3.4157300000000004
 30
0.0
 10
-2.5550900000000003
 20
3.4157300000000004
 30
0.0
 10
-2.6795500000000003
 20
3.7586300000000001
 30
0.0
 10
-2.6795500000000003
 20
3.7586300000000001
 30
0.0
 10
-2.6795500000000003
 20
3.7586300000000001
 30
0.0
 10
-2.6998700000000002
 20
3.7433900000000002
 30
0.0
 10
-2.6998700000000002
 20
3.7230700000000003
 30
0.0
 10
-2.6998700000000002
 20
3.7027500000000004
 30
0.0
 10
-2.6998700000000002
 20
3.7027500000000004
 30
0.0
 10
-2.5550900000000003
 20
3.2480900000000004
 30
0.0
 10
-2.3772900000000003
 20
2.80105
 30
0.0
 10
-2.3239500000000004
 20
2.3184500000000003
 30
0.0
 10
-2.3239500000000004
 20
2.3184500000000003
 30
0.0
 10
-2.3239500000000004
 20
2.3184500000000003
 30
0.0
 10
-2.48143
 20
2.6511900000000002
 30
0.0
 10
-2.48143
 20
2.6511900000000002
 30
0.0
 10
-2.48143
 20
2.6511900000000002
 30
0.0
 10
-2.48143
 20
2.6791300000000002
 30
0.0
 10
-2.5093700000000001
 20
2.6486500000000004
 30
0.0
 10
-2.48143
 20
2.6511900000000002
 30
0.0
 10
-2.48143
 20
2.6511900000000002
 30
0.0
 10
-2.40015
 20
2.2092300000000002
 30
0.0
 10
-2.1105900000000002
 20
1.7317100000000001
 30
0.0
 10
-2.1537700000000002
 20
1.31515
 30
0.0
 10
-2.1537700000000002
 20
1.31515
 30
0.0
 10
-2.5525500000000001
 20
2.3082900000000004
 30
0.0
 10
-3.0783300000000002
 20
3.7560900000000004
 30
0.0
 10
-3.0402300000000002
 20
5.0565700000000007
 30
0.0
 10
-3.0402300000000002
 20
5.0565700000000007
 30
0.0
 10
-2.9513300000000005
 20
4.9930700000000003
 30
0.0
 10
-3.0046700000000004
 20
4.6781100000000002
 30
0.0
 10
-2.8751300000000004
 20
4.7593900000000007
 30
0.0
 10
-2.8751300000000004
 20
4.7593900000000007
 30
0.0
 10
-2.86497
 20
4.8584500000000004
 30
0.0
 10
-2.8725900000000002
 20
4.9625900000000005
 30
0.0
 10
-2.8141700000000003
 20
5.0438700000000001
 30
0.0
 10
-2.8141700000000003
 20
5.0438700000000001
 30
0.0
 10
-2.9411700000000001
 20
5.3639100000000006
 30
0.0
 10
-2.85989
 20
5.7347500000000009
 30
0.0
 10
-2.8319500000000004
 20
6.0725700000000007
 30
0.0
 10
-2.8319500000000004
 20
6.0725700000000007
 30
0.0
 10
-2.7506700000000004
 20
6.1792500000000006
 30
0.0
 10
-2.7201900000000001
 20
6.2910100000000009
 30
0.0
 10
-2.6871700000000001
 20
6.4103900000000005
 30
0.0
 10
-2.6871700000000001
 20
6.4103900000000005
 30
0.0
 10
-2.8268700000000004
 20
6.3291100000000009
 30
0.0
 10
-2.8548100000000001
 20
6.1309900000000006
 30
0.0
 10
-2.9106900000000002
 20
5.9938300000000009
 30
0.0
 10
-2.9106900000000002
 20
5.9938300000000009
 30
0.0
 10
-2.9487900000000002
 20
5.7931700000000008
 30
0.0
 10
-3.0300700000000003
 20
5.5899700000000001
 30
0.0
 10
-3.0148300000000003
 20
5.38931
 30
0.0
 10
-3.0148300000000003
 20
5.38931
 30
0.0
 10
-3.03261
 20
5.1149900000000006
 30
0.0
 10
-3.1342100000000004
 20
5.0235500000000002
 30
0.0
 10
-3.1164300000000003
 20
5.3613700000000009
 30
0.0
 10
-3.1164300000000003
 20
5.3613700000000009
 30
0.0
 10
-3.1088100000000001
 20
5.4680500000000007
 30
0.0
 10
-3.1392900000000004
 20
5.6001300000000001
 30
0.0
 10
-3.0630900000000003
 20
5.6763300000000001
 30
0.0
 10
-3.0630900000000003
 20
5.6763300000000001
 30
0.0
 10
-3.0376900000000004
 20
5.5213900000000002
 30
0.0
 10
-3.0249900000000003
 20
5.8185700000000002
 30
0.0
 10
-3.0148300000000003
 20
5.8795300000000008
 30
0.0
 10
-3.0148300000000003
 20
5.8795300000000008
 30
0.0
 10
-2.9665700000000004
 20
6.2046500000000009
 30
0.0
 10
-2.9005300000000003
 20
6.6669300000000007
 30
0.0
 10
-2.52969
 20
6.7710700000000008
 30
0.0
 10
-2.52969
 20
6.7710700000000008
 30
0.0
 10
-2.5423900000000001
 20
6.6897900000000003
 30
0.0
 10
-2.7024100000000004
 20
6.4738900000000008
 30
0.0
 10
-2.6160500000000004
 20
6.4764300000000006
 30
0.0
 10
-2.6160500000000004
 20
6.4764300000000006
 30
0.0
 10
-2.5093700000000001
 20
6.8421900000000004
 30
0.0
 10
-2.11313
 20
7.1495300000000004
 30
0.0
 10
-1.7346700000000002
 20
6.9590300000000003
 30
0.0
 10
-1.7346700000000002
 20
6.9590300000000003
 30
0.0
 10
-1.6762500000000002
 20
6.7177300000000004
 30
0.0
 10
-1.4070100000000001
 20
6.4408700000000003
 30
0.0
 10
-1.41717
 20
6.1259100000000002
 30
0.0
 10
-1.41717
 20
6.1259100000000002
 30
0.0
 10
-1.4832100000000001
 20
5.9912900000000002
 30
0.0
 10
-1.4984500000000001
 20
6.3926100000000003
 30
0.0
 10
-1.6432300000000002
 20
6.3545100000000003
 30
0.0
 10
-1.6432300000000002
 20
6.3545100000000003
 30
0.0
 10
-1.6102100000000001
 20
6.2402100000000003
 30
0.0
 10
-1.4298700000000002
 20
6.0903500000000008
 30
0.0
 10
-1.5136900000000002
 20
5.9557300000000009
 30
0.0
 10
-1.5136900000000002
 20
5.9557300000000009
 30
0.0
 10
-1.5975100000000002
 20
6.2757700000000005
 30
0.0
 10
-1.9658100000000001
 20
6.5754900000000003
 30
0.0
 10
-2.2629900000000003
 20
6.2376700000000005
 30
0.0
 10
-2.2629900000000003
 20
6.2376700000000005
 30
0.0
 10
-2.6795500000000003
 20
5.8058700000000005
 30
0.0
 10
-2.5652500000000003
 20
4.8178100000000006
 30
0.0
 10
-2.5855700000000001
 20
3.9821500000000003
 30
0.0
 10
-2.5855700000000001
 20
3.9821500000000003
 30
0.0
 10
-2.7074900000000004
 20
4.17265
 30
0.0
 10
-2.6998700000000002
 20
4.7060500000000003
 30
0.0
 10
-2.9157700000000002
 20
4.6400100000000002
 30
0.0
 10
-2.9157700000000002
 20
4.6400100000000002
 30
0.0
 10
-2.7811500000000002
 20
4.2361500000000003
 30
0.0
 10
-2.61097
 20
3.8399100000000002
 30
0.0
 10
-2.5550900000000003
 20
3.4157300000000004
 30
0.0
  0
SPLINE
  5
2B
100
AcDbEntity
  8
Ebene 1
 62
     7
100
AcDbSpline
210
0.0
220
0.0
230
1.0
 70
     1
 71
     3
 72
    12
 73
     8
 74
     0
 42
0.0000000001
 43
0.0000000001
 40
0.0
 40
0.0
 40
0.0
 40
0.0
 40
0.5
 40
0.5
 40
0.5
 40
0.5
 40
1.0
 40
1.0
 40
1.0
 40
1.0
 10
-1.6762500000000002
 20
6.903150000000001
 30
0.0
 10
-1.5136900000000002
 20
6.8320300000000005
 30
0.0
 10
-1.3866900000000002
 20
6.6618500000000003
 30
0.0
 10
-1.33335
 20
6.5043700000000007
 30
0.0
 10
-1.33335
 20
6.5043700000000007
 30
0.0
 10
-1.33335
 20
6.5043700000000007
 30
0.0
 10
-1.6762500000000002
 20
6.903150000000001
 30
0.0
 10
-1.6762500000000002
 20
6.903150000000001
 30
0.0
  0
SPLINE
  5
2C
100
AcDbEntity
  8
Ebene 1
 62
     7
100
AcDbSpline
210
0.0
220
0.0
230
1.0
 70
     1
 71
     3
 72
    28
 73
    24
 74
     0
 42
0.0000000001
 43
0.0000000001
 40
0.0
 40
0.0
 40
0.0
 40
0.0
 40
0.1666666666666667
 40
0.1666666666666667
 40
0.1666666666666667
 40
0.1666666666666667
 40
0.3333333333333333
 40
0.3333333333333333
 40
0.3333333333333333
 40
0.3333333333333333
 40
0.5
 40
0.5
 40
0.5
 40
0.5
 40
0.6666666666666666
 40
0.6666666666666666
 40
0.6666666666666666
 40
0.6666666666666666
 40
0.8333333333333333
 40
0.8333333333333333
 40
0.8333333333333333
 40
0.8333333333333333
 40
1.0
 40
1.0
 40
1.0
 40
1.0
 10
-2.1232900000000003
 20
6.8320300000000005
 30
0.0
 10
-2.0039100000000003
 20
6.8320300000000005
 30
0.0
 10
-1.8692900000000001
 20
6.8498100000000006
 30
0.0
 10
-1.7803900000000001
 20
6.7583700000000002
 30
0.0
 10
-1.7803900000000001
 20
6.7583700000000002
 30
0.0
 10
-1.6965700000000001
 20
6.6694700000000005
 30
0.0
 10
-1.6102100000000001
 20
6.5704100000000007
 30
0.0
 10
-1.5771900000000001
 20
6.4611900000000002
 30
0.0
 10
-1.5771900000000001
 20
6.4611900000000002
 30
0.0
 10
-1.7067300000000001
 20
6.5323100000000007
 30
0.0
 10
-1.7600700000000002
 20
6.7202700000000002
 30
0.0
 10
-1.9099300000000001
 20
6.7863100000000003
 30
0.0
 10
-1.9099300000000001
 20
6.7863100000000003
 30
0.0
 10
-2.05979
 20
6.8371100000000009
 30
0.0
 10
-2.1817100000000003
 20
6.7278900000000004
 30
0.0
 10
-2.2985500000000001
 20
6.6491500000000006
 30
0.0
 10
-2.2985500000000001
 20
6.6491500000000006
 30
0.0
 10
-2.3772900000000003
 20
6.5729500000000005
 30
0.0
 10
-2.2807700000000004
 20
6.7278900000000004
 30
0.0
 10
-2.2528300000000003
 20
6.7456700000000005
 30
0.0
 10
-2.2528300000000003
 20
6.7456700000000005
 30
0.0
 10
-2.2528300000000003
 20
6.7456700000000005
 30
0.0
 10
-2.1232900000000003
 20
6.8320300000000005
 30
0.0
 10
-2.1232900000000003
 20
6.8320300000000005
 30
0.0
  0
SPLINE
  5
2D
100
AcDbEntity
  8
Ebene 1
 62
     7
100
AcDbSpline
210
0.0
220
0.0
230
1.0
 70
     1
 71
     3
 72
    20
 73
    16
 74
     0
 42
0.0000000001
 43
0.0000000001
 40
0.0
 40
0.0
 40
0.0
 40
0.0
 40
0.25
 40
0.25
 40
0.25
 40
0.25
 40
0.5
 40
0.5
 40
0.5
 40
0.5
 40
0.75
 40
0.75
 40
0.75
 40
0.75
 40
1.0
 40
1.0
 40
1.0
 40
1.0
 10
-2.1664700000000003
 20
6.1386100000000008
 30
0.0
 10
-2.15123
 20
6.1436900000000003
 30
0.0
 10
-2.14615
 20
6.1233700000000004
 30
0.0
 10
-2.1537700000000002
 20
6.1157500000000002
 30
0.0
 10
-2.1537700000000002
 20
6.1157500000000002
 30
0.0
 10
-2.30871
 20
5.9811300000000003
 30
0.0
 10
-2.3264900000000002
 20
5.7677700000000005
 30
0.0
 10
-2.4484100000000004
 20
5.6255300000000004
 30
0.0
 10
-2.4484100000000004
 20
5.6255300000000004
 30
0.0
 10
-2.4992100000000002
 20
5.7296700000000005
 30
0.0
 10
-2.3671300000000004
 20
5.8515900000000007
 30
0.0
 10
-2.4077700000000002
 20
5.9633500000000002
 30
0.0
 10
-2.4077700000000002
 20
5.9633500000000002
 30
0.0
 10
-2.4077700000000002
 20
5.9633500000000002
 30
0.0
 10
-2.1664700000000003
 20
6.1386100000000008
 30
0.0
 10
-2.1664700000000003
 20
6.1386100000000008
 30
0.0
  0
SPLINE
  5
2E
100
AcDbEntity
  8
Ebene 1
 62
     7
100
AcDbSpline
210
0.0
220
0.0
230
1.0
 70
     1
 71
     3
 72
    96
 73
    92
 74
     0
 42
0.0000000001
 43
0.0000000001
 40
0.0
 40
0.0
 40
0.0
 40
0.0
 40
0.0434782608695652
 40
0.0434782608695652
 40
0.0434782608695652
 40
0.0434782608695652
 40
0.0869565217391304
 40
0.0869565217391304
 40
0.0869565217391304
 40
0.0869565217391304
 40
0.1304347826086957
 40
0.1304347826086957
 40
0.1304347826086957
 40
0.1304347826086957
 40
0.1739130434782609
 40
0.1739130434782609
 40
0.1739130434782609
 40
0.1739130434782609
 40
0.2173913043478261
 40
0.2173913043478261
 40
0.2173913043478261
 40
0.2173913043478261
 40
0.2608695652173913
 40
0.2608695652173913
 40
0.2608695652173913
 40
0.2608695652173913
 40
0.3043478260869565
 40
0.3043478260869565
 40
0.3043478260869565
 40
0.3043478260869565
 40
0.3478260869565217
 40
0.3478260869565217
 40
0.3478260869565217
 40
0.3478260869565217
 40
0.3913043478260869
 40
0.3913043478260869
 40
0.3913043478260869
 40
0.3913043478260869
 40
0.4347826086956521
 40
0.4347826086956521
 40
0.4347826086956521
 40
0.4347826086956521
 40
0.4782608695652173
 40
0.4782608695652173
 40
0.4782608695652173
 40
0.4782608695652173
 40
0.5217391304347825
 40
0.5217391304347825
 40
0.5217391304347825
 40
0.5217391304347825
 40
0.5652173913043477
 40
0.5652173913043477
 40
0.5652173913043477
 40
0.5652173913043477
 40
0.6086956521739129
 40
0.6086956521739129
 40
0.6086956521739129
 40
0.6086956521739129
 40
0.6521739130434781
 40
0.6521739130434781
 40
0.6521739130434781
 40
0.6521739130434781
 40
0.6956521739130432
 40
0.6956521739130432
 40
0.6956521739130432
 40
0.6956521739130432
 40
0.7391304347826084
 40
0.7391304347826084
 40
0.7391304347826084
 40
0.7391304347826084
 40
0.7826086956521736
 40
0.7826086956521736
 40
0.7826086956521736
 40
0.7826086956521736
 40
0.8260869565217388
 40
0.8260869565217388
 40
0.8260869565217388
 40
0.8260869565217388
 40
0.869565217391304
 40
0.869565217391304
 40
0.869565217391304
 40
0.869565217391304
 40
0.9130434782608692
 40
0.9130434782608692
 40
0.9130434782608692
 40
0.9130434782608692
 40
0.9565217391304344
 40
0.9565217391304344
 40
0.9565217391304344
 40
0.9565217391304344
 40
1.0
 40
1.0
 40
1.0
 40
1.0
 10
-0.8837700000000001
 20
3.3852500000000001
 30
0.0
 10
-1.0488700000000002
 20
3.5859100000000002
 30
0.0
 10
-1.3866900000000002
 20
3.9592900000000002
 30
0.0
 10
-1.62799
 20
3.6925900000000005
 30
0.0
 10
-1.62799
 20
3.6925900000000005
 30
0.0
 10
-1.3993900000000001
 20
3.8424500000000004
 30
0.0
 10
-1.20889
 20
3.5859100000000002
 30
0.0
 10
-1.1555500000000001
 20
3.3725500000000004
 30
0.0
 10
-1.1555500000000001
 20
3.3725500000000004
 30
0.0
 10
-1.12507
 20
3.2506300000000001
 30
0.0
 10
-1.1784100000000002
 20
3.2811100000000004
 30
0.0
 10
-1.2393700000000001
 20
3.3471500000000001
 30
0.0
 10
-1.2393700000000001
 20
3.3471500000000001
 30
0.0
 10
-1.2800100000000001
 20
3.3979500000000002
 30
0.0
 10
-1.3409700000000002
 20
3.4208100000000004
 30
0.0
 10
-1.3968500000000001
 20
3.4487500000000004
 30
0.0
 10
-1.3968500000000001
 20
3.4487500000000004
 30
0.0
 10
-1.4501900000000001
 20
3.4919300000000004
 30
0.0
 10
-1.3257300000000001
 20
3.4741500000000003
 30
0.0
 10
-1.3612900000000001
 20
3.5274900000000002
 30
0.0
 10
-1.3612900000000001
 20
3.5274900000000002
 30
0.0
 10
-1.8108700000000002
 20
3.6849700000000003
 30
0.0
 10
-1.9150100000000001
 20
3.1845900000000005
 30
0.0
 10
-1.9886700000000002
 20
2.8721700000000001
 30
0.0
 10
-1.9886700000000002
 20
2.8721700000000001
 30
0.0
 10
-1.9912100000000001
 20
2.9204300000000001
 30
0.0
 10
-1.9988300000000001
 20
2.9712300000000003
 30
0.0
 10
-2.01661
 20
3.0169500000000005
 30
0.0
 10
-2.01661
 20
3.0169500000000005
 30
0.0
 10
-2.0191500000000002
 20
3.1464900000000005
 30
0.0
 10
-2.06995
 20
3.2684100000000003
 30
0.0
 10
-2.1182100000000004
 20
3.3700100000000002
 30
0.0
 10
-2.1182100000000004
 20
3.3700100000000002
 30
0.0
 10
-2.0928100000000001
 20
3.0804500000000004
 30
0.0
 10
-2.1258300000000001
 20
2.7781900000000004
 30
0.0
 10
-2.0369300000000004
 20
2.4911700000000003
 30
0.0
 10
-2.0369300000000004
 20
2.4911700000000003
 30
0.0
 10
-2.02169
 20
2.2422500000000003
 30
0.0
 10
-1.9124700000000001
 20
1.9476100000000001
 30
0.0
 10
-1.9962900000000001
 20
1.7190100000000001
 30
0.0
 10
-1.9962900000000001
 20
1.7190100000000001
 30
0.0
 10
-2.3722100000000004
 20
2.4302100000000002
 30
0.0
 10
-2.5322300000000002
 20
3.9821500000000003
 30
0.0
 10
-1.50607
 20
4.0735900000000003
 30
0.0
 10
-1.50607
 20
4.0735900000000003
 30
0.0
 10
-1.5848100000000001
 20
4.0685100000000007
 30
0.0
 10
-1.6483100000000002
 20
4.1142300000000001
 30
0.0
 10
-1.7194300000000002
 20
4.1370900000000006
 30
0.0
 10
-1.7194300000000002
 20
4.1370900000000006
 30
0.0
 10
-1.7194300000000002
 20
4.1370900000000006
 30
0.0
 10
-1.9150100000000001
 20
4.0532700000000004
 30
0.0
 10
-1.9150100000000001
 20
4.0532700000000004
 30
0.0
 10
-1.9150100000000001
 20
4.0532700000000004
 30
0.0
 10
-1.9124700000000001
 20
4.2996500000000006
 30
0.0
 10
-1.41717
 20
4.5815900000000003
 30
0.0
 10
-1.3460500000000002
 20
4.3275900000000007
 30
0.0
 10
-1.3460500000000002
 20
4.3275900000000007
 30
0.0
 10
-1.33335
 20
4.3987100000000003
 30
0.0
 10
-1.2800100000000001
 20
4.3377500000000007
 30
0.0
 10
-1.2419100000000001
 20
4.3225100000000003
 30
0.0
 10
-1.2419100000000001
 20
4.3225100000000003
 30
0.0
 10
-1.2342900000000001
 20
4.5917500000000002
 30
0.0
 10
-0.6246900000000001
 20
3.9084900000000005
 30
0.0
 10
-0.9421900000000001
 20
4.1320100000000002
 30
0.0
 10
-0.9421900000000001
 20
4.1320100000000002
 30
0.0
 10
-1.0107700000000002
 20
4.16249
 30
0.0
 10
-1.07681
 20
4.2031300000000007
 30
0.0
 10
-1.1504700000000001
 20
4.1904300000000001
 30
0.0
 10
-1.1504700000000001
 20
4.1904300000000001
 30
0.0
 10
-1.1326900000000002
 20
4.0989900000000006
 30
0.0
 10
-0.9574300000000001
 20
4.12439
 30
0.0
 10
-0.9218700000000001
 20
4.0100899999999999
 30
0.0
 10
-0.9218700000000001
 20
4.0100899999999999
 30
0.0
 10
-0.8583700000000001
 20
3.9313500000000001
 30
0.0
 10
-0.8126500000000001
 20
3.8449900000000001
 30
0.0
 10
-0.7974100000000001
 20
3.7510100000000004
 30
0.0
 10
-0.7974100000000001
 20
3.7510100000000004
 30
0.0
 10
-0.7974100000000001
 20
3.7510100000000004
 30
0.0
 10
-1.4120900000000001
 20
4.0888300000000006
 30
0.0
 10
-1.4120900000000001
 20
4.0888300000000006
 30
0.0
 10
-1.4120900000000001
 20
4.0888300000000006
 30
0.0
 10
-1.4552700000000001
 20
4.0583499999999999
 30
0.0
 10
-1.4095500000000001
 20
4.0177100000000001
 30
0.0
 10
-1.3841500000000002
 20
3.9948500000000005
 30
0.0
 10
-1.3841500000000002
 20
3.9948500000000005
 30
0.0
 10
-1.3841500000000002
 20
3.9948500000000005
 30
0.0
 10
-1.2241300000000002
 20
3.8805500000000004
 30
0.0
 10
-1.2241300000000002
 20
3.8805500000000004
 30
0.0
 10
-1.2241300000000002
 20
3.8805500000000004
 30
0.0
 10
-1.08951
 20
3.7256100000000001
 30
0.0
 10
-0.84821
 20
3.6062300000000005
 30
0.0
 10
-0.8837700000000001
 20
3.3852500000000001
 30
0.0
  0
SPLINE
  5
2F
100
AcDbEntity
  8
Ebene 1
 62
     7
100
AcDbSpline
210
0.0
220
0.0
230
1.0
 70
     1
 71
     3
 72
    32
 73
    28
 74
     0
 42
0.0000000001
 43
0.0000000001
 40
0.0
 40
0.0
 40
0.0
 40
0.0
 40
0.1428571428571429
 40
0.1428571428571429
 40
0.1428571428571429
 40
0.1428571428571429
 40
0.2857142857142857
 40
0.2857142857142857
 40
0.2857142857142857
 40
0.2857142857142857
 40
0.4285714285714286
 40
0.4285714285714286
 40
0.4285714285714286
 40
0.4285714285714286
 40
0.5714285714285714
 40
0.5714285714285714
 40
0.5714285714285714
 40
0.5714285714285714
 40
0.7142857142857142
 40
0.7142857142857142
 40
0.7142857142857142
 40
0.7142857142857142
 40
0.857142857142857
 40
0.857142857142857
 40
0.857142857142857
 40
0.857142857142857
 40
1.0
 40
1.0
 40
1.0
 40
1.0
 10
-3.3323300000000002
 20
3.7459300000000004
 30
0.0
 10
-3.2815300000000001
 20
3.7459300000000004
 30
0.0
 10
-3.2358100000000003
 20
3.7103700000000002
 30
0.0
 10
-3.1926300000000003
 20
3.6849700000000003
 30
0.0
 10
-3.1926300000000003
 20
3.6849700000000003
 30
0.0
 10
-3.1926300000000003
 20
3.6849700000000003
 30
0.0
 10
-3.1469100000000001
 20
3.5884500000000004
 30
0.0
 10
-3.1469100000000001
 20
3.5884500000000004
 30
0.0
 10
-3.1469100000000001
 20
3.5884500000000004
 30
0.0
 10
-3.1469100000000001
 20
3.5884500000000004
 30
0.0
 10
-3.2281900000000001
 20
3.5986100000000003
 30
0.0
 10
-3.2281900000000001
 20
3.5986100000000003
 30
0.0
 10
-3.2281900000000001
 20
3.5986100000000003
 30
0.0
 10
-3.1037300000000001
 20
3.3395300000000003
 30
0.0
 10
-2.8929100000000001
 20
3.0779100000000001
 30
0.0
 10
-2.8319500000000004
 20
2.7832700000000004
 30
0.0
 10
-2.8319500000000004
 20
2.7832700000000004
 30
0.0
 10
-3.0300700000000003
 20
2.9991700000000003
 30
0.0
 10
-3.1037300000000001
 20
3.3471500000000001
 30
0.0
 10
-3.3297900000000005
 20
3.5046300000000001
 30
0.0
 10
-3.3297900000000005
 20
3.5046300000000001
 30
0.0
 10
-3.3297900000000005
 20
3.5046300000000001
 30
0.0
 10
-3.4059900000000001
 20
3.6443300000000005
 30
0.0
 10
-3.4059900000000001
 20
3.6443300000000005
 30
0.0
 10
-3.4059900000000001
 20
3.6443300000000005
 30
0.0
 10
-3.4059900000000001
 20
3.6443300000000005
 30
0.0
 10
-3.3323300000000002
 20
3.7459300000000004
 30
0.0
 10
-3.3323300000000002
 20
3.7459300000000004
 30
0.0
  0
SPLINE
  5
30
100
AcDbEntity
  8
Ebene 1
 62
     7
100
AcDbSpline
210
0.0
220
0.0
230
1.0
 70
     1
 71
     3
 72
    16
 73
    12
 74
     0
 42
0.0000000001
 43
0.0000000001
 40
0.0
 40
0.0
 40
0.0
 40
0.0
 40
0.3333333333333333
 40
0.3333333333333333
 40
0.3333333333333333
 40
0.3333333333333333
 40
0.6666666666666666
 40
0.6666666666666666
 40
0.6666666666666666
 40
0.6666666666666666
 40
1.0
 40
1.0
 40
1.0
 40
1.0
 10
-3.4491700000000001
 20
3.5884500000000004
 30
0.0
 10
-3.0173700000000001
 20
3.0220300000000004
 30
0.0
 10
-2.7659100000000003
 20
2.3514700000000004
 30
0.0
 10
-2.4712700000000001
 20
1.7037700000000002
 30
0.0
 10
-2.4712700000000001
 20
1.7037700000000002
 30
0.0
 10
-2.8522700000000003
 20
2.2524100000000002
 30
0.0
 10
-3.0453100000000002
 20
2.9661500000000003
 30
0.0
 10
-3.4593300000000005
 20
3.5046300000000001
 30
0.0
 10
-3.4593300000000005
 20
3.5046300000000001
 30
0.0
 10
-3.4669500000000002
 20
3.5325700000000002
 30
0.0
 10
-3.4669500000000002
 20
3.5655900000000003
 30
0.0
 10
-3.4491700000000001
 20
3.5884500000000004
 30
0.0
  0
SPLINE
  5
31
100
AcDbEntity
  8
Ebene 1
 62
     7
100
AcDbSpline
210
0.0
220
0.0
230
1.0
 70
     1
 71
     3
 72
   116
 73
   112
 74
     0
 42
0.0000000001
 43
0.0000000001
 40
0.0
 40
0.0
 40
0.0
 40
0.0
 40
0.0357142857142857
 40
0.0357142857142857
 40
0.0357142857142857
 40
0.0357142857142857
 40
0.0714285714285714
 40
0.0714285714285714
 40
0.0714285714285714
 40
0.0714285714285714
 40
0.1071428571428571
 40
0.1071428571428571
 40
0.1071428571428571
 40
0.1071428571428571
 40
0.1428571428571429
 40
0.1428571428571429
 40
0.1428571428571429
 40
0.1428571428571429
 40
0.1785714285714286
 40
0.1785714285714286
 40
0.1785714285714286
 40
0.1785714285714286
 40
0.2142857142857143
 40
0.2142857142857143
 40
0.2142857142857143
 40
0.2142857142857143
 40
0.2499999999999999
 40
0.2499999999999999
 40
0.2499999999999999
 40
0.2499999999999999
 40
0.2857142857142856
 40
0.2857142857142856
 40
0.2857142857142856
 40
0.2857142857142856
 40
0.3214285714285713
 40
0.3214285714285713
 40
0.3214285714285713
 40
0.3214285714285713
 40
0.357142857142857
 40
0.357142857142857
 40
0.357142857142857
 40
0.357142857142857
 40
0.3928571428571427
 40
0.3928571428571427
 40
0.3928571428571427
 40
0.3928571428571427
 40
0.4285714285714284
 40
0.4285714285714284
 40
0.4285714285714284
 40
0.4285714285714284
 40
0.4642857142857141
 40
0.4642857142857141
 40
0.4642857142857141
 40
0.4642857142857141
 40
0.4999999999999998
 40
0.4999999999999998
 40
0.4999999999999998
 40
0.4999999999999998
 40
0.5357142857142856
 40
0.5357142857142856
 40
0.5357142857142856
 40
0.5357142857142856
 40
0.5714285714285713
 40
0.5714285714285713
 40
0.5714285714285713
 40
0.5714285714285713
 40
0.607142857142857
 40
0.607142857142857
 40
0.607142857142857
 40
0.607142857142857
 40
0.6428571428571427
 40
0.6428571428571427
 40
0.6428571428571427
 40
0.6428571428571427
 40
0.6785714285714284
 40
0.6785714285714284
 40
0.6785714285714284
 40
0.6785714285714284
 40
0.7142857142857141
 40
0.7142857142857141
 40
0.7142857142857141
 40
0.7142857142857141
 40
0.7499999999999998
 40
0.7499999999999998
 40
0.7499999999999998
 40
0.7499999999999998
 40
0.7857142857142855
 40
0.7857142857142855
 40
0.7857142857142855
 40
0.7857142857142855
 40
0.8214285714285712
 40
0.8214285714285712
 40
0.8214285714285712
 40
0.8214285714285712
 40
0.8571428571428569
 40
0.8571428571428569
 40
0.8571428571428569
 40
0.8571428571428569
 40
0.8928571428571426
 40
0.8928571428571426
 40
0.8928571428571426
 40
0.8928571428571426
 40
0.9285714285714283
 40
0.9285714285714283
 40
0.9285714285714283
 40
0.9285714285714283
 40
0.964285714285714
 40
0.964285714285714
 40
0.964285714285714
 40
0.964285714285714
 40
1.0
 40
1.0
 40
1.0
 40
1.0
 10
-0.4799100000000001
 20
2.7807300000000001
 30
0.0
 10
1.32094
 20
2.8797900000000003
 30
0.0
 10
2.9795600000000002
 20
0.5201300000000001
 30
0.0
 10
1.6384400000000001
 20
-0.9606800000000001
 30
0.0
 10
1.6384400000000001
 20
-0.9606800000000001
 30
0.0
 10
1.5368400000000002
 20
-0.9810000000000001
 30
0.0
 10
1.4352400000000001
 20
-1.11816
 30
0.0
 10
1.3488800000000001
 20
-1.0470400000000002
 30
0.0
 10
1.3488800000000001
 20
-1.0470400000000002
 30
0.0
 10
1.4352400000000001
 20
-0.9149600000000001
 30
0.0
 10
1.7984600000000002
 20
-0.6127
 30
0.0
 10
1.6232000000000002
 20
-0.5644400000000001
 30
0.0
 10
1.6232000000000002
 20
-0.5644400000000001
 30
0.0
 10
1.4504800000000002
 20
-1.16134
 30
0.0
 10
0.51322
 20
-0.7524000000000001
 30
0.0
 10
0.5868800000000001
 20
-0.40696
 30
0.0
 10
0.5868800000000001
 20
-0.40696
 30
0.0
 10
0.48528
 20
-0.3942600000000001
 30
0.0
 10
0.38368
 20
-0.41966
 30
0.0
 10
0.29732
 20
-0.45014
 30
0.0
 10
0.29732
 20
-0.45014
 30
0.0
 10
-0.08875
 20
-0.8921000000000001
 30
0.0
 10
-0.58913
 20
-1.2553200000000002
 30
0.0
 10
-1.1504700000000001
 20
-0.8540000000000001
 30
0.0
 10
-1.1504700000000001
 20
-0.8540000000000001
 30
0.0
 10
-1.2825500000000001
 20
-1.0064000000000002
 30
0.0
 10
-1.1428500000000001
 20
-1.08006
 30
0.0
 10
-1.1834900000000002
 20
-1.2553200000000002
 30
0.0
 10
-1.1834900000000002
 20
-1.2553200000000002
 30
0.0
 10
-1.1834900000000002
 20
-1.2553200000000002
 30
0.0
 10
-1.1834900000000002
 20
-1.3848600000000002
 30
0.0
 10
-1.1834900000000002
 20
-1.3848600000000002
 30
0.0
 10
-1.1834900000000002
 20
-1.3848600000000002
 30
0.0
 10
-1.1149100000000001
 20
-1.5804400000000001
 30
0.0
 10
-1.1758700000000002
 20
-0.9378200000000001
 30
0.0
 10
-1.0133100000000002
 20
-1.0622800000000001
 30
0.0
 10
-1.0133100000000002
 20
-1.0622800000000001
 30
0.0
 10
-1.0133100000000002
 20
-1.0622800000000001
 30
0.0
 10
-1.0260100000000001
 20
-1.2832600000000001
 30
0.0
 10
-1.0260100000000001
 20
-1.2832600000000001
 30
0.0
 10
-1.0260100000000001
 20
-1.2832600000000001
 30
0.0
 10
-1.0209300000000001
 20
-1.37724
 30
0.0
 10
-1.0082300000000002
 20
-1.4686800000000002
 30
0.0
 10
-0.97267
 20
-1.5525000000000002
 30
0.0
 10
-0.97267
 20
-1.5525000000000002
 30
0.0
 10
-1.03617
 20
-1.4534400000000001
 30
0.0
 10
-1.1834900000000002
 20
-1.4763000000000002
 30
0.0
 10
-1.1580900000000001
 20
-1.62616
 30
0.0
 10
-1.1580900000000001
 20
-1.62616
 30
0.0
 10
-1.1885700000000001
 20
-1.5067800000000002
 30
0.0
 10
-1.3562100000000001
 20
-1.4966200000000001
 30
0.0
 10
-1.3181100000000001
 20
-1.6541000000000001
 30
0.0
 10
-1.3181100000000001
 20
-1.6541000000000001
 30
0.0
 10
-1.4527300000000001
 20
-1.5296400000000001
 30
0.0
 10
-1.4857500000000001
 20
-1.6591800000000001
 30
0.0
 10
-1.4908300000000001
 20
-1.7836400000000001
 30
0.0
 10
-1.4908300000000001
 20
-1.7836400000000001
 30
0.0
 10
-1.5594100000000002
 20
-1.5728200000000001
 30
0.0
 10
-1.6406900000000002
 20
-1.6972800000000001
 30
0.0
 10
-1.67117
 20
-1.8420600000000003
 30
0.0
 10
-1.67117
 20
-1.8420600000000003
 30
0.0
 10
-1.67117
 20
-1.8420600000000003
 30
0.0
 10
-1.7626100000000002
 20
-1.67188
 30
0.0
 10
-1.7626100000000002
 20
-1.67188
 30
0.0
 10
-1.7626100000000002
 20
-1.67188
 30
0.0
 10
-1.8591300000000002
 20
-1.8598400000000002
 30
0.0
 10
-1.8489700000000002
 20
-1.8547600000000002
 30
0.0
 10
-1.9785100000000002
 20
-1.6998200000000001
 30
0.0
 10
-1.9785100000000002
 20
-1.6998200000000001
 30
0.0
 10
-2.0394700000000001
 20
-1.7226800000000002
 30
0.0
 10
-1.9962900000000001
 20
-1.8192000000000002
 30
0.0
 10
-2.0445500000000001
 20
-1.8420600000000003
 30
0.0
 10
-2.0445500000000001
 20
-1.8420600000000003
 30
0.0
 10
-2.2071100000000001
 20
-1.6160000000000001
 30
0.0
 10
-2.1588500000000002
 20
-1.2832600000000001
 30
0.0
 10
-2.1969500000000002
 20
-0.9835400000000001
 30
0.0
 10
-2.1969500000000002
 20
-0.9835400000000001
 30
0.0
 10
-2.6770100000000001
 20
-1.3366
 30
0.0
 10
-2.5550900000000003
 20
-0.6203200000000001
 30
0.0
 10
-2.6236700000000002
 20
-0.30536
 30
0.0
 10
-2.6236700000000002
 20
-0.30536
 30
0.0
 10
-2.4636500000000003
 20
-0.27742
 30
0.0
 10
-2.5017500000000004
 20
-0.6254000000000001
 30
0.0
 10
-2.3391900000000003
 20
-0.6635000000000001
 30
0.0
 10
-2.3391900000000003
 20
-0.6635000000000001
 30
0.0
 10
-2.1004300000000002
 20
-0.63556
 30
0.0
 10
-2.0318500000000004
 20
-0.34092
 30
0.0
 10
-2.0445500000000001
 20
-0.1174
 30
0.0
 10
-2.0445500000000001
 20
-0.1174
 30
0.0
 10
-1.9073900000000001
 20
-0.38156
 30
0.0
 10
-1.79817
 20
-0.0031
 30
0.0
 10
-1.7245100000000002
 20
0.11881
 30
0.0
 10
-1.7245100000000002
 20
0.11881
 30
0.0
 10
-1.9454900000000002
 20
0.39567
 30
0.0
 10
-1.7524500000000001
 20
1.32277
 30
0.0
 10
-1.46289
 20
0.76651
 30
0.0
 10
-1.46289
 20
0.76651
 30
0.0
 10
-1.42225
 20
0.85033
 30
0.0
 10
-1.4070100000000001
 20
0.9392300000000001
 30
0.0
 10
-1.41717
 20
1.0357500000000002
 30
0.0
 10
-1.41717
 20
1.0357500000000002
 30
0.0
 10
-1.4374900000000002
 20
1.0967100000000001
 30
0.0
 10
-1.4578100000000001
 20
1.1602100000000002
 30
0.0
 10
-1.5187700000000002
 20
1.19069
 30
0.0
 10
-1.5187700000000002
 20
1.19069
 30
0.0
 10
-1.5949700000000002
 20
1.2160900000000001
 30
0.0
 10
-1.6787900000000002
 20
1.2160900000000001
 30
0.0
 10
-1.7422900000000001
 20
1.1703700000000001
 30
0.0
 10
-1.7422900000000001
 20
1.1703700000000001
 30
0.0
 10
-2.1867900000000002
 20
2.04921
 30
0.0
 10
-1.3028700000000002
 20
2.7883500000000003
 30
0.0
 10
-0.4799100000000001
 20
2.7807300000000001
 30
0.0
  0
SPLINE
  5
32
100
AcDbEntity
  8
Ebene 1
 62
     7
100
AcDbSpline
210
0.0
220
0.0
230
1.0
 70
     1
 71
     3
 72
    12
 73
     8
 74
     0
 42
0.0000000001
 43
0.0000000001
 40
0.0
 40
0.0
 40
0.0
 40
0.0
 40
0.5
 40
0.5
 40
0.5
 40
0.5
 40
1.0
 40
1.0
 40
1.0
 40
1.0
 10
-2.19441
 20
2.1025500000000004
 30
0.0
 10
-2.11313
 20
1.9196700000000002
 30
0.0
 10
-2.05979
 20
1.6783700000000001
 30
0.0
 10
-2.0826500000000001
 20
1.4726300000000001
 30
0.0
 10
-2.0826500000000001
 20
1.4726300000000001
 30
0.0
 10
-2.1664700000000003
 20
1.6783700000000001
 30
0.0
 10
-2.2147300000000003
 20
1.8968100000000001
 30
0.0
 10
-2.19441
 20
2.1025500000000004
 30
0.0
  0
SPLINE
  5
33
100
AcDbEntity
  8
Ebene 1
100
AcDbSpline
210
0.0
220
0.0
230
1.0
 70
     1
 71
     3
 72
    20
 73
    16
 74
     0
 42
0.0000000001
 43
0.0000000001
 40
0.0
 40
0.0
 40
0.0
 40
0.0
 40
0.25
 40
0.25
 40
0.25
 40
0.25
 40
0.5
 40
0.5
 40
0.5
 40
0.5
 40
0.75
 40
0.75
 40
0.75
 40
0.75
 40
1.0
 40
1.0
 40
1.0
 40
1.0
 10
0.9755
 20
1.69869
 30
0.0
 10
1.4504800000000002
 20
1.7875900000000002
 30
0.0
 10
1.65368
 20
1.3278500000000002
 30
0.0
 10
1.8543400000000001
 20
1.0052700000000001
 30
0.0
 10
1.8543400000000001
 20
1.0052700000000001
 30
0.0
 10
1.8543400000000001
 20
0.8985900000000001
 30
0.0
 10
2.0423
 20
0.70555
 30
0.0
 10
1.9280000000000002
 20
0.6750700000000001
 30
0.0
 10
1.9280000000000002
 20
0.6750700000000001
 30
0.0
 10
1.7527400000000002
 20
1.2821300000000002
 30
0.0
 10
1.1202800000000002
 20
1.8002900000000002
 30
0.0
 10
0.47004
 20
1.4726300000000001
 30
0.0
 10
0.47004
 20
1.4726300000000001
 30
0.0
 10
0.57164
 20
1.61233
 30
0.0
 10
0.8154800000000001
 20
1.6453500000000001
 30
0.0
 10
0.9755
 20
1.69869
 30
0.0
  0
SPLINE
  5
34
100
AcDbEntity
  8
Ebene 1
100
AcDbSpline
210
0.0
220
0.0
230
1.0
 70
     1
 71
     3
 72
    24
 73
    20
 74
     0
 42
0.0000000001
 43
0.0000000001
 40
0.0
 40
0.0
 40
0.0
 40
0.0
 40
0.2
 40
0.2
 40
0.2
 40
0.2
 40
0.4
 40
0.4
 40
0.4
 40
0.4
 40
0.6000000000000001
 40
0.6000000000000001
 40
0.6000000000000001
 40
0.6000000000000001
 40
0.8
 40
0.8
 40
0.8
 40
0.8
 40
1.0
 40
1.0
 40
1.0
 40
1.0
 10
0.2389
 20
1.61233
 30
0.0
 10
0.26938
 20
1.5970900000000001
 30
0.0
 10
0.29732
 20
1.5488300000000002
 30
0.0
 10
0.28208
 20
1.5158100000000001
 30
0.0
 10
0.28208
 20
1.5158100000000001
 30
0.0
 10
-0.14717
 20
1.27705
 30
0.0
 10
0.31256
 20
0.8630300000000001
 30
0.0
 10
0.26938
 20
0.5201300000000001
 30
0.0
 10
0.26938
 20
0.5201300000000001
 30
0.0
 10
0.26938
 20
0.5201300000000001
 30
0.0
 10
0.21096
 20
0.5201300000000001
 30
0.0
 10
0.21096
 20
0.5201300000000001
 30
0.0
 10
0.21096
 20
0.5201300000000001
 30
0.0
 10
0.16778
 20
0.74365
 30
0.0
 10
-0.04557
 20
0.8884300000000001
 30
0.0
 10
-0.10399
 20
1.10687
 30
0.0
 10
-0.10399
 20
1.10687
 30
0.0
 10
-0.08875
 20
1.32277
 30
0.0
 10
0.09666
 20
1.4751700000000001
 30
0.0
 10
0.2389
 20
1.61233
 30
0.0
  0
SPLINE
  5
35
100
AcDbEntity
  8
Ebene 1
 62
     7
100
AcDbSpline
210
0.0
220
0.0
230
1.0
 70
     1
 71
     3
 72
    56
 73
    52
 74
     0
 42
0.0000000001
 43
0.0000000001
 40
0.0
 40
0.0
 40
0.0
 40
0.0
 40
0.0769230769230769
 40
0.0769230769230769
 40
0.0769230769230769
 40
0.0769230769230769
 40
0.1538461538461539
 40
0.1538461538461539
 40
0.1538461538461539
 40
0.1538461538461539
 40
0.2307692307692308
 40
0.2307692307692308
 40
0.2307692307692308
 40
0.2307692307692308
 40
0.3076923076923077
 40
0.3076923076923077
 40
0.3076923076923077
 40
0.3076923076923077
 40
0.3846153846153846
 40
0.3846153846153846
 40
0.3846153846153846
 40
0.3846153846153846
 40
0.4615384615384616
 40
0.4615384615384616
 40
0.4615384615384616
 40
0.4615384615384616
 40
0.5384615384615386
 40
0.5384615384615386
 40
0.5384615384615386
 40
0.5384615384615386
 40
0.6153846153846154
 40
0.6153846153846154
 40
0.6153846153846154
 40
0.6153846153846154
 40
0.6923076923076923
 40
0.6923076923076923
 40
0.6923076923076923
 40
0.6923076923076923
 40
0.7692307692307692
 40
0.7692307692307692
 40
0.7692307692307692
 40
0.7692307692307692
 40
0.846153846153846
 40
0.846153846153846
 40
0.846153846153846
 40
0.846153846153846
 40
0.9230769230769229
 40
0.9230769230769229
 40
0.9230769230769229
 40
0.9230769230769229
 40
1.0
 40
1.0
 40
1.0
 40
1.0
 10
-2.4255500000000003
 20
1.3964300000000001
 30
0.0
 10
-2.4255500000000003
 20
1.3964300000000001
 30
0.0
 10
-2.27061
 20
1.0560700000000001
 30
0.0
 10
-2.27061
 20
1.0560700000000001
 30
0.0
 10
-2.27061
 20
1.0560700000000001
 30
0.0
 10
-2.39507
 20
1.0509900000000001
 30
0.0
 10
-2.5144500000000001
 20
1.0078100000000001
 30
0.0
 10
-2.48143
 20
0.84779
 30
0.0
 10
-2.48143
 20
0.84779
 30
0.0
 10
-2.48143
 20
0.84779
 30
0.0
 10
-2.39507
 20
0.74873
 30
0.0
 10
-2.39507
 20
0.74873
 30
0.0
 10
-2.39507
 20
0.74873
 30
0.0
 10
-2.39507
 20
0.74873
 30
0.0
 10
-2.3112500000000002
 20
0.89097
 30
0.0
 10
-2.3112500000000002
 20
0.89097
 30
0.0
 10
-2.3112500000000002
 20
0.89097
 30
0.0
 10
-2.3112500000000002
 20
0.89097
 30
0.0
 10
-2.23759
 20
0.8046100000000001
 30
0.0
 10
-2.23759
 20
0.8046100000000001
 30
0.0
 10
-2.23759
 20
0.8046100000000001
 30
0.0
 10
-2.3264900000000002
 20
0.65729
 30
0.0
 10
-2.3442700000000003
 20
0.45663
 30
0.0
 10
-2.1817100000000003
 20
0.33979
 30
0.0
 10
-2.1817100000000003
 20
0.33979
 30
0.0
 10
-2.2401300000000002
 20
0.18739
 30
0.0
 10
-2.1563100000000004
 20
0.06039
 30
0.0
 10
-2.1258300000000001
 20
-0.0539
 30
0.0
 10
-2.1258300000000001
 20
-0.0539
 30
0.0
 10
-2.30871
 20
-0.0539
 30
0.0
 10
-2.5119100000000003
 20
0.38805
 30
0.0
 10
-2.6693900000000004
 20
0.14167
 30
0.0
 10
-2.6693900000000004
 20
0.14167
 30
0.0
 10
-2.6668500000000002
 20
0.11881
 30
0.0
 10
-2.6211300000000004
 20
0.12389
 30
0.0
 10
-2.6084300000000002
 20
0.13913
 30
0.0
 10
-2.6084300000000002
 20
0.13913
 30
0.0
 10
-2.5601700000000003
 20
0.14675
 30
0.0
 10
-2.5119100000000003
 20
0.10357
 30
0.0
 10
-2.48143
 20
0.07055
 30
0.0
 10
-2.48143
 20
0.07055
 30
0.0
 10
-2.5347700000000004
 20
-0.01834
 30
0.0
 10
-2.6008100000000001
 20
-0.10978
 30
0.0
 10
-2.6262100000000004
 20
-0.20122
 30
0.0
 10
-2.6262100000000004
 20
-0.20122
 30
0.0
 10
-2.8116300000000001
 20
-0.01326
 30
0.0
 10
-2.8624300000000003
 20
0.26613
 30
0.0
 10
-2.6414500000000003
 20
0.4439300000000001
 30
0.0
 10
-2.6414500000000003
 20
0.4439300000000001
 30
0.0
 10
-2.6947900000000002
 20
0.78429
 30
0.0
 10
-2.61097
 20
1.1195700000000002
 30
0.0
 10
-2.4255500000000003
 20
1.3964300000000001
 30
0.0
  0
SPLINE
  5
36
100
AcDbEntity
  8
Ebene 1
100
AcDbSpline
210
0.0
220
0.0
230
1.0
 70
     1
 71
     3
 72
    24
 73
    20
 74
     0
 42
0.0000000001
 43
0.0000000001
 40
0.0
 40
0.0
 40
0.0
 40
0.0
 40
0.2
 40
0.2
 40
0.2
 40
0.2
 40
0.4
 40
0.4
 40
0.4
 40
0.4
 40
0.6000000000000001
 40
0.6000000000000001
 40
0.6000000000000001
 40
0.6000000000000001
 40
0.8
 40
0.8
 40
0.8
 40
0.8
 40
1.0
 40
1.0
 40
1.0
 40
1.0
 10
-0.8532900000000001
 20
1.3684900000000002
 30
0.0
 10
-0.6729500000000001
 20
1.4116700000000002
 30
0.0
 10
-0.53579
 20
1.2414900000000002
 30
0.0
 10
-0.4824500000000001
 20
1.11195
 30
0.0
 10
-0.4824500000000001
 20
1.11195
 30
0.0
 10
-0.4824500000000001
 20
1.11195
 30
0.0
 10
-0.6094500000000001
 20
1.1373500000000001
 30
0.0
 10
-0.6094500000000001
 20
1.1373500000000001
 30
0.0
 10
-0.6094500000000001
 20
1.1373500000000001
 30
0.0
 10
-0.8634500000000001
 20
1.3380100000000001
 30
0.0
 10
-1.0539500000000002
 20
0.9646300000000001
 30
0.0
 10
-1.2673100000000002
 20
0.8808100000000001
 30
0.0
 10
-1.2673100000000002
 20
0.8808100000000001
 30
0.0
 10
-1.2673100000000002
 20
0.8808100000000001
 30
0.0
 10
-1.1149100000000001
 20
1.1398900000000001
 30
0.0
 10
-1.1149100000000001
 20
1.1398900000000001
 30
0.0
 10
-1.1149100000000001
 20
1.1398900000000001
 30
0.0
 10
-1.0260100000000001
 20
1.2211700000000001
 30
0.0
 10
-0.9625100000000001
 20
1.3303900000000002
 30
0.0
 10
-0.8532900000000001
 20
1.3684900000000002
 30
0.0
  0
SPLINE
  5
37
100
AcDbEntity
  8
Ebene 1
 62
     7
100
AcDbSpline
210
0.0
220
0.0
230
1.0
 70
     1
 71
     3
 72
    12
 73
     8
 74
     0
 42
0.0000000001
 43
0.0000000001
 40
0.0
 40
0.0
 40
0.0
 40
0.0
 40
0.5
 40
0.5
 40
0.5
 40
0.5
 40
1.0
 40
1.0
 40
1.0
 40
1.0
 10
-2.0369300000000004
 20
1.2668900000000001
 30
0.0
 10
-2.0140700000000002
 20
1.2643500000000001
 30
0.0
 10
-1.9683500000000003
 20
1.2541900000000001
 30
0.0
 10
-1.9810500000000002
 20
1.2262500000000001
 30
0.0
 10
-1.9810500000000002
 20
1.2262500000000001
 30
0.0
 10
-2.0089900000000003
 20
1.2110100000000001
 30
0.0
 10
-2.06995
 20
1.23387
 30
0.0
 10
-2.0369300000000004
 20
1.2668900000000001
 30
0.0
  0
SPLINE
  5
38
100
AcDbEntity
  8
Ebene 1
 62
     7
100
AcDbSpline
210
0.0
220
0.0
230
1.0
 70
     1
 71
     3
 72
    16
 73
    12
 74
     0
 42
0.0000000001
 43
0.0000000001
 40
0.0
 40
0.0
 40
0.0
 40
0.0
 40
0.3333333333333333
 40
0.3333333333333333
 40
0.3333333333333333
 40
0.3333333333333333
 40
0.6666666666666666
 40
0.6666666666666666
 40
0.6666666666666666
 40
0.6666666666666666
 40
1.0
 40
1.0
 40
1.0
 40
1.0
 10
-2.15123
 20
1.2516500000000002
 30
0.0
 10
-2.06995
 20
1.2643500000000001
 30
0.0
 10
-2.09789
 20
1.1805300000000001
 30
0.0
 10
-2.1613900000000004
 20
1.19069
 30
0.0
 10
-2.1613900000000004
 20
1.19069
 30
0.0
 10
-2.18933
 20
1.14497
 30
0.0
 10
-2.26553
 20
1.11449
 30
0.0
 10
-2.2198100000000003
 20
1.19069
 30
0.0
 10
-2.2198100000000003
 20
1.19069
 30
0.0
 10
-2.2198100000000003
 20
1.19069
 30
0.0
 10
-2.15123
 20
1.2516500000000002
 30
0.0
 10
-2.15123
 20
1.2516500000000002
 30
0.0
  0
SPLINE
  5
39
100
AcDbEntity
  8
Ebene 1
 62
     7
100
AcDbSpline
210
0.0
220
0.0
230
1.0
 70
     1
 71
     3
 72
    12
 73
     8
 74
     0
 42
0.0000000001
 43
0.0000000001
 40
0.0
 40
0.0
 40
0.0
 40
0.0
 40
0.5
 40
0.5
 40
0.5
 40
0.5
 40
1.0
 40
1.0
 40
1.0
 40
1.0
 10
-1.9632700000000001
 20
1.23641
 30
0.0
 10
-1.9023100000000002
 20
1.2516500000000002
 30
0.0
 10
-1.84135
 20
1.2110100000000001
 30
0.0
 10
-1.8362700000000001
 20
1.15513
 30
0.0
 10
-1.8362700000000001
 20
1.15513
 30
0.0
 10
-1.8362700000000001
 20
1.15513
 30
0.0
 10
-1.9632700000000001
 20
1.23641
 30
0.0
 10
-1.9632700000000001
 20
1.23641
 30
0.0
  0
SPLINE
  5
3A
100
AcDbEntity
  8
Ebene 1
 62
     7
100
AcDbSpline
210
0.0
220
0.0
230
1.0
 70
     1
 71
     3
 72
    16
 73
    12
 74
     0
 42
0.0000000001
 43
0.0000000001
 40
0.0
 40
0.0
 40
0.0
 40
0.0
 40
0.3333333333333333
 40
0.3333333333333333
 40
0.3333333333333333
 40
0.3333333333333333
 40
0.6666666666666666
 40
0.6666666666666666
 40
0.6666666666666666
 40
0.6666666666666666
 40
1.0
 40
1.0
 40
1.0
 40
1.0
 10
-2.0369300000000004
 20
1.1805300000000001
 30
0.0
 10
-1.9912100000000001
 20
1.19069
 30
0.0
 10
-1.8896100000000002
 20
1.14497
 30
0.0
 10
-1.9378700000000002
 20
1.0967100000000001
 30
0.0
 10
-1.9378700000000002
 20
1.0967100000000001
 30
0.0
 10
-2.0064500000000001
 20
1.11195
 30
0.0
 10
-2.0775700000000001
 20
1.1348100000000001
 30
0.0
 10
-2.14615
 20
1.11195
 30
0.0
 10
-2.14615
 20
1.11195
 30
0.0
 10
-2.14615
 20
1.11195
 30
0.0
 10
-2.0369300000000004
 20
1.1805300000000001
 30
0.0
 10
-2.0369300000000004
 20
1.1805300000000001
 30
0.0
  0
SPLINE
  5
3B
100
AcDbEntity
  8
Ebene 1
 62
     7
100
AcDbSpline
210
0.0
220
0.0
230
1.0
 70
     1
 71
     3
 72
    16
 73
    12
 74
     0
 42
0.0000000001
 43
0.0000000001
 40
0.0
 40
0.0
 40
0.0
 40
0.0
 40
0.3333333333333333
 40
0.3333333333333333
 40
0.3333333333333333
 40
0.3333333333333333
 40
0.6666666666666666
 40
0.6666666666666666
 40
0.6666666666666666
 40
0.6666666666666666
 40
1.0
 40
1.0
 40
1.0
 40
1.0
 10
-1.6762500000000002
 20
1.15259
 30
0.0
 10
-1.54671
 20
1.1856100000000001
 30
0.0
 10
-1.4120900000000001
 20
1.0408300000000001
 30
0.0
 10
-1.4755900000000002
 20
0.9239900000000001
 30
0.0
 10
-1.4755900000000002
 20
0.9239900000000001
 30
0.0
 10
-1.5238500000000001
 20
1.02305
 30
0.0
 10
-1.67371
 20
1.06115
 30
0.0
 10
-1.75753
 20
0.9824100000000001
 30
0.0
 10
-1.75753
 20
0.9824100000000001
 30
0.0
 10
-1.7803900000000001
 20
1.0560700000000001
 30
0.0
 10
-1.7067300000000001
 20
1.0967100000000001
 30
0.0
 10
-1.6762500000000002
 20
1.15259
 30
0.0
  0
SPLINE
  5
3C
100
AcDbEntity
  8
Ebene 1
 62
     7
100
AcDbSpline
210
0.0
220
0.0
230
1.0
 70
     1
 71
     3
 72
    16
 73
    12
 74
     0
 42
0.0000000001
 43
0.0000000001
 40
0.0
 40
0.0
 40
0.0
 40
0.0
 40
0.3333333333333333
 40
0.3333333333333333
 40
0.3333333333333333
 40
0.3333333333333333
 40
0.6666666666666666
 40
0.6666666666666666
 40
0.6666666666666666
 40
0.6666666666666666
 40
1.0
 40
1.0
 40
1.0
 40
1.0
 10
-2.0928100000000001
 20
1.06369
 30
0.0
 10
-2.0928100000000001
 20
1.06369
 30
0.0
 10
-2.0369300000000004
 20
1.06369
 30
0.0
 10
-2.0369300000000004
 20
1.06369
 30
0.0
 10
-2.0369300000000004
 20
1.06369
 30
0.0
 10
-1.9378700000000002
 20
0.9925700000000001
 30
0.0
 10
-2.0902700000000003
 20
1.03067
 30
0.0
 10
-2.1334500000000003
 20
1.0103500000000001
 30
0.0
 10
-2.1334500000000003
 20
1.0103500000000001
 30
0.0
 10
-2.1334500000000003
 20
1.0103500000000001
 30
0.0
 10
-2.0928100000000001
 20
1.06369
 30
0.0
 10
-2.0928100000000001
 20
1.06369
 30
0.0
  0
SPLINE
  5
3D
100
AcDbEntity
  8
Ebene 1
 62
     7
100
AcDbSpline
210
0.0
220
0.0
230
1.0
 70
     1
 71
     3
 72
    16
 73
    12
 74
     0
 42
0.0000000001
 43
0.0000000001
 40
0.0
 40
0.0
 40
0.0
 40
0.0
 40
0.3333333333333333
 40
0.3333333333333333
 40
0.3333333333333333
 40
0.3333333333333333
 40
0.6666666666666666
 40
0.6666666666666666
 40
0.6666666666666666
 40
0.6666666666666666
 40
1.0
 40
1.0
 40
1.0
 40
1.0
 10
-2.39507
 20
0.9925700000000001
 30
0.0
 10
-2.3442700000000003
 20
1.0001900000000001
 30
0.0
 10
-2.2883900000000001
 20
0.9900300000000001
 30
0.0
 10
-2.27061
 20
0.9392300000000001
 30
0.0
 10
-2.27061
 20
0.9392300000000001
 30
0.0
 10
-2.3264900000000002
 20
0.9697100000000001
 30
0.0
 10
-2.3823700000000003
 20
0.9265300000000001
 30
0.0
 10
-2.4103100000000004
 20
0.8782700000000001
 30
0.0
 10
-2.4103100000000004
 20
0.8782700000000001
 30
0.0
 10
-2.44333
 20
0.9036700000000001
 30
0.0
 10
-2.4230100000000001
 20
0.9646300000000001
 30
0.0
 10
-2.39507
 20
0.9925700000000001
 30
0.0
  0
SPLINE
  5
3E
100
AcDbEntity
  8
Ebene 1
 62
     7
100
AcDbSpline
210
0.0
220
0.0
230
1.0
 70
     1
 71
     3
 72
     8
 73
     4
 74
     0
 42
0.0000000001
 43
0.0000000001
 40
0.0
 40
0.0
 40
0.0
 40
0.0
 40
1.0
 40
1.0
 40
1.0
 40
1.0
 10
-2.10805
 20
0.9646300000000001
 30
0.0
 10
-1.9404100000000002
 20
0.9519300000000001
 30
0.0
 10
-2.23251
 20
0.8757300000000001
 30
0.0
 10
-2.10805
 20
0.9646300000000001
 30
0.0
  0
SPLINE
  5
3F
100
AcDbEntity
  8
Ebene 1
 62
     7
100
AcDbSpline
210
0.0
220
0.0
230
1.0
 70
     1
 71
     3
 72
    12
 73
     8
 74
     0
 42
0.0000000001
 43
0.0000000001
 40
0.0
 40
0.0
 40
0.0
 40
0.0
 40
0.5
 40
0.5
 40
0.5
 40
0.5
 40
1.0
 40
1.0
 40
1.0
 40
1.0
 10
-2.1232900000000003
 20
0.8630300000000001
 30
0.0
 10
-2.0369300000000004
 20
0.8604900000000001
 30
0.0
 10
-2.1791700000000001
 20
0.7944500000000001
 30
0.0
 10
-2.1537700000000002
 20
0.8376300000000001
 30
0.0
 10
-2.1537700000000002
 20
0.8376300000000001
 30
0.0
 10
-2.1537700000000002
 20
0.8376300000000001
 30
0.0
 10
-2.1232900000000003
 20
0.8630300000000001
 30
0.0
 10
-2.1232900000000003
 20
0.8630300000000001
 30
0.0
  0
SPLINE
  5
40
100
AcDbEntity
  8
Ebene 1
100
AcDbSpline
210
0.0
220
0.0
230
1.0
 70
     1
 71
     3
 72
    52
 73
    48
 74
     0
 42
0.0000000001
 43
0.0000000001
 40
0.0
 40
0.0
 40
0.0
 40
0.0
 40
0.0833333333333333
 40
0.0833333333333333
 40
0.0833333333333333
 40
0.0833333333333333
 40
0.1666666666666667
 40
0.1666666666666667
 40
0.1666666666666667
 40
0.1666666666666667
 40
0.25
 40
0.25
 40
0.25
 40
0.25
 40
0.3333333333333333
 40
0.3333333333333333
 40
0.3333333333333333
 40
0.3333333333333333
 40
0.4166666666666666
 40
0.4166666666666666
 40
0.4166666666666666
 40
0.4166666666666666
 40
0.4999999999999999
 40
0.4999999999999999
 40
0.4999999999999999
 40
0.4999999999999999
 40
0.5833333333333333
 40
0.5833333333333333
 40
0.5833333333333333
 40
0.5833333333333333
 40
0.6666666666666666
 40
0.6666666666666666
 40
0.6666666666666666
 40
0.6666666666666666
 40
0.75
 40
0.75
 40
0.75
 40
0.75
 40
0.8333333333333334
 40
0.8333333333333334
 40
0.8333333333333334
 40
0.8333333333333334
 40
0.9166666666666667
 40
0.9166666666666667
 40
0.9166666666666667
 40
0.9166666666666667
 40
1.0
 40
1.0
 40
1.0
 40
1.0
 10
-0.50785
 20
0.8198500000000001
 30
0.0
 10
-0.45451
 20
0.80969
 30
0.0
 10
-0.33513
 20
0.84779
 30
0.0
 10
-0.33513
 20
0.76651
 30
0.0
 10
-0.33513
 20
0.76651
 30
0.0
 10
-0.47229
 20
0.8046100000000001
 30
0.0
 10
-0.6018300000000001
 20
0.7182500000000001
 30
0.0
 10
-0.6907300000000001
 20
0.6293500000000001
 30
0.0
 10
-0.6907300000000001
 20
0.6293500000000001
 30
0.0
 10
-0.6907300000000001
 20
0.6293500000000001
 30
0.0
 10
-0.7339100000000001
 20
0.57855
 30
0.0
 10
-0.7339100000000001
 20
0.57855
 30
0.0
 10
-0.7339100000000001
 20
0.57855
 30
0.0
 10
-0.5586500000000001
 20
0.5429900000000001
 30
0.0
 10
-0.4062500000000001
 20
0.4617100000000001
 30
0.0
 10
-0.26147
 20
0.37027
 30
0.0
 10
-0.26147
 20
0.37027
 30
0.0
 10
-0.44435
 20
0.25343
 30
0.0
 10
-0.37831
 20
-0.06152
 30
0.0
 10
-0.5027700000000001
 20
-0.23932
 30
0.0
 10
-0.5027700000000001
 20
-0.23932
 30
0.0
 10
-0.46721
 20
-0.2952
 30
0.0
 10
-0.34783
 20
-0.22154
 30
0.0
 10
-0.33513
 20
-0.28504
 30
0.0
 10
-0.33513
 20
-0.28504
 30
0.0
 10
-0.33513
 20
-0.28504
 30
0.0
 10
-0.8964700000000001
 20
-0.53396
 30
0.0
 10
-0.8964700000000001
 20
-0.53396
 30
0.0
 10
-0.8964700000000001
 20
-0.53396
 30
0.0
 10
-1.0742700000000001
 20
-0.4907800000000001
 30
0.0
 10
-1.2368300000000001
 20
-0.38664
 30
0.0
 10
-1.4019300000000001
 20
-0.30282
 30
0.0
 10
-1.4019300000000001
 20
-0.30282
 30
0.0
 10
-1.4679700000000002
 20
-0.29012
 30
0.0
 10
-1.4349500000000002
 20
-0.41204
 30
0.0
 10
-1.4984500000000001
 20
-0.3841000000000001
 30
0.0
 10
-1.4984500000000001
 20
-0.3841000000000001
 30
0.0
 10
-1.46543
 20
-0.2063
 30
0.0
 10
-1.5695700000000001
 20
-0.0539
 30
0.0
 10
-1.7041900000000001
 20
0.02737
 30
0.0
 10
-1.7041900000000001
 20
0.02737
 30
0.0
 10
-1.6559300000000001
 20
0.06293
 30
0.0
 10
-1.5924300000000002
 20
-0.02088
 30
0.0
 10
-1.5314700000000001
 20
-0.0031
 30
0.0
 10
-1.5314700000000001
 20
-0.0031
 30
0.0
 10
-1.1606300000000001
 20
0.22803
 30
0.0
 10
-0.9218700000000001
 20
0.6750700000000001
 30
0.0
 10
-0.50785
 20
0.8198500000000001
 30
0.0
  0
SPLINE
  5
41
100
AcDbEntity
  8
Ebene 1
 62
     7
100
AcDbSpline
210
0.0
220
0.0
230
1.0
 70
     1
 71
     3
 72
    12
 73
     8
 74
     0
 42
0.0000000001
 43
0.0000000001
 40
0.0
 40
0.0
 40
0.0
 40
0.0
 40
0.5
 40
0.5
 40
0.5
 40
0.5
 40
1.0
 40
1.0
 40
1.0
 40
1.0
 10
-2.1232900000000003
 20
0.7766700000000001
 30
0.0
 10
-2.0470900000000003
 20
0.7817500000000001
 30
0.0
 10
-2.0775700000000001
 20
0.7385700000000001
 30
0.0
 10
-2.1105900000000002
 20
0.7080900000000001
 30
0.0
 10
-2.1105900000000002
 20
0.7080900000000001
 30
0.0
 10
-2.18933
 20
0.68523
 30
0.0
 10
-2.1537700000000002
 20
0.74619
 30
0.0
 10
-2.1232900000000003
 20
0.7766700000000001
 30
0.0
  0
SPLINE
  5
42
100
AcDbEntity
  8
Ebene 1
 62
     7
100
AcDbSpline
210
0.0
220
0.0
230
1.0
 70
     1
 71
     3
 72
    28
 73
    24
 74
     0
 42
0.0000000001
 43
0.0000000001
 40
0.0
 40
0.0
 40
0.0
 40
0.0
 40
0.1666666666666667
 40
0.1666666666666667
 40
0.1666666666666667
 40
0.1666666666666667
 40
0.3333333333333333
 40
0.3333333333333333
 40
0.3333333333333333
 40
0.3333333333333333
 40
0.5
 40
0.5
 40
0.5
 40
0.5
 40
0.6666666666666666
 40
0.6666666666666666
 40
0.6666666666666666
 40
0.6666666666666666
 40
0.8333333333333333
 40
0.8333333333333333
 40
0.8333333333333333
 40
0.8333333333333333
 40
1.0
 40
1.0
 40
1.0
 40
1.0
 10
-2.2071100000000001
 20
0.6903100000000001
 30
0.0
 10
-2.2680700000000003
 20
0.5836300000000001
 30
0.0
 10
-2.1258300000000001
 20
0.3474100000000001
 30
0.0
 10
-2.0953500000000003
 20
0.55061
 30
0.0
 10
-2.0953500000000003
 20
0.55061
 30
0.0
 10
-2.0851900000000003
 20
0.5633100000000001
 30
0.0
 10
-2.0623300000000002
 20
0.5887100000000001
 30
0.0
 10
-2.0445500000000001
 20
0.5633100000000001
 30
0.0
 10
-2.0445500000000001
 20
0.5633100000000001
 30
0.0
 10
-1.9302500000000002
 20
0.25343
 30
0.0
 10
-1.7803900000000001
 20
0.7741300000000001
 30
0.0
 10
-2.0445500000000001
 20
0.76651
 30
0.0
 10
-2.0445500000000001
 20
0.76651
 30
0.0
 10
-1.9937500000000001
 20
0.7944500000000001
 30
0.0
 10
-1.8997700000000002
 20
0.7817500000000001
 30
0.0
 10
-1.8718300000000001
 20
0.72079
 30
0.0
 10
-1.8718300000000001
 20
0.72079
 30
0.0
 10
-1.7829300000000001
 20
0.57601
 30
0.0
 10
-1.9531100000000001
 20
0.36265
 30
0.0
 10
-2.10805
 20
0.38805
 30
0.0
 10
-2.10805
 20
0.38805
 30
0.0
 10
-2.2299700000000002
 20
0.41853
 30
0.0
 10
-2.3112500000000002
 20
0.6039500000000001
 30
0.0
 10
-2.2071100000000001
 20
0.6903100000000001
 30
0.0
  0
SPLINE
  5
43
100
AcDbEntity
  8
Ebene 1
100
AcDbSpline
210
0.0
220
0.0
230
1.0
 70
     1
 71
     3
 72
    28
 73
    24
 74
     0
 42
0.0000000001
 43
0.0000000001
 40
0.0
 40
0.0
 40
0.0
 40
0.0
 40
0.1666666666666667
 40
0.1666666666666667
 40
0.1666666666666667
 40
0.1666666666666667
 40
0.3333333333333333
 40
0.3333333333333333
 40
0.3333333333333333
 40
0.3333333333333333
 40
0.5
 40
0.5
 40
0.5
 40
0.5
 40
0.6666666666666666
 40
0.6666666666666666
 40
0.6666666666666666
 40
0.6666666666666666
 40
0.8333333333333333
 40
0.8333333333333333
 40
0.8333333333333333
 40
0.8333333333333333
 40
1.0
 40
1.0
 40
1.0
 40
1.0
 10
0.25414
 20
0.4007500000000001
 30
0.0
 10
0.25414
 20
0.4007500000000001
 30
0.0
 10
0.3405
 20
0.31185
 30
0.0
 10
0.3405
 20
0.31185
 30
0.0
 10
0.3405
 20
0.31185
 30
0.0
 10
0.31256
 20
-0.07168
 30
0.0
 10
0.83072
 20
-0.21646
 30
0.0
 10
0.8739000000000001
 20
-0.5873
 30
0.0
 10
0.8739000000000001
 20
-0.5873
 30
0.0
 10
0.8739000000000001
 20
-0.5873
 30
0.0
 10
1.06186
 20
-0.7320800000000001
 30
0.0
 10
1.06186
 20
-0.7320800000000001
 30
0.0
 10
1.06186
 20
-0.7320800000000001
 30
0.0
 10
0.8154800000000001
 20
-0.7549400000000001
 30
0.0
 10
0.7596000000000001
 20
-0.4603
 30
0.0
 10
0.64276
 20
-0.30536
 30
0.0
 10
0.64276
 20
-0.30536
 30
0.0
 10
0.42686
 20
-0.2063
 30
0.0
 10
0.03824
 20
-0.0793
 30
0.0
 10
0.26938
 20
0.21279
 30
0.0
 10
0.26938
 20
0.21279
 30
0.0
 10
0.26938
 20
0.21279
 30
0.0
 10
0.25414
 20
0.4007500000000001
 30
0.0
 10
0.25414
 20
0.4007500000000001
 30
0.0
  0
SPLINE
  5
44
100
AcDbEntity
  8
Ebene 1
 62
     7
100
AcDbSpline
210
0.0
220
0.0
230
1.0
 70
     1
 71
     3
 72
    24
 73
    20
 74
     0
 42
0.0000000001
 43
0.0000000001
 40
0.0
 40
0.0
 40
0.0
 40
0.0
 40
0.2
 40
0.2
 40
0.2
 40
0.2
 40
0.4
 40
0.4
 40
0.4
 40
0.4
 40
0.6000000000000001
 40
0.6000000000000001
 40
0.6000000000000001
 40
0.6000000000000001
 40
0.8
 40
0.8
 40
0.8
 40
0.8
 40
1.0
 40
1.0
 40
1.0
 40
1.0
 10
-1.9480300000000002
 20
0.34487
 30
0.0
 10
-1.7626100000000002
 20
0.24327
 30
0.0
 10
-1.8286500000000001
 20
-0.0031
 30
0.0
 10
-1.9480300000000002
 20
-0.1301
 30
0.0
 10
-1.9480300000000002
 20
-0.1301
 30
0.0
 10
-1.9480300000000002
 20
-0.1301
 30
0.0
 10
-2.0826500000000001
 20
0.05277
 30
0.0
 10
-2.0826500000000001
 20
0.05277
 30
0.0
 10
-2.0826500000000001
 20
0.05277
 30
0.0
 10
-2.1258300000000001
 20
0.10103
 30
0.0
 10
-2.1715500000000003
 20
0.16199
 30
0.0
 10
-2.1334500000000003
 20
0.22549
 30
0.0
 10
-2.1334500000000003
 20
0.22549
 30
0.0
 10
-2.0953500000000003
 20
0.15437
 30
0.0
 10
-2.05979
 20
0.03753
 30
0.0
 10
-1.9658100000000001
 20
0.00197
 30
0.0
 10
-1.9658100000000001
 20
0.00197
 30
0.0
 10
-1.8845300000000003
 20
0.11627
 30
0.0
 10
-1.8972300000000002
 20
0.22041
 30
0.0
 10
-1.9480300000000002
 20
0.34487
 30
0.0
  0
SPLINE
  5
45
100
AcDbEntity
  8
Ebene 1
100
AcDbSpline
210
0.0
220
0.0
230
1.0
 70
     1
 71
     3
 72
    40
 73
    36
 74
     0
 42
0.0000000001
 43
0.0000000001
 40
0.0
 40
0.0
 40
0.0
 40
0.0
 40
0.1111111111111111
 40
0.1111111111111111
 40
0.1111111111111111
 40
0.1111111111111111
 40
0.2222222222222222
 40
0.2222222222222222
 40
0.2222222222222222
 40
0.2222222222222222
 40
0.3333333333333333
 40
0.3333333333333333
 40
0.3333333333333333
 40
0.3333333333333333
 40
0.4444444444444444
 40
0.4444444444444444
 40
0.4444444444444444
 40
0.4444444444444444
 40
0.5555555555555556
 40
0.5555555555555556
 40
0.5555555555555556
 40
0.5555555555555556
 40
0.6666666666666667
 40
0.6666666666666667
 40
0.6666666666666667
 40
0.6666666666666667
 40
0.7777777777777779
 40
0.7777777777777779
 40
0.7777777777777779
 40
0.7777777777777779
 40
0.8888888888888891
 40
0.8888888888888891
 40
0.8888888888888891
 40
0.8888888888888891
 40
1.0
 40
1.0
 40
1.0
 40
1.0
 10
-1.9785100000000002
 20
-0.53396
 30
0.0
 10
-1.9785100000000002
 20
-0.53396
 30
0.0
 10
-1.8794500000000001
 20
-0.5365000000000001
 30
0.0
 10
-1.8794500000000001
 20
-0.5365000000000001
 30
0.0
 10
-1.8794500000000001
 20
-0.5365000000000001
 30
0.0
 10
-1.71435
 20
-0.7397
 30
0.0
 10
-1.54671
 20
-0.9886200000000001
 30
0.0
 10
-1.54925
 20
-1.2629400000000002
 30
0.0
 10
-1.54925
 20
-1.2629400000000002
 30
0.0
 10
-1.6203700000000001
 20
-1.4509000000000001
 30
0.0
 10
-1.7956300000000001
 20
-1.2731000000000001
 30
0.0
 10
-1.9023100000000002
 20
-1.3010400000000002
 30
0.0
 10
-1.9023100000000002
 20
-1.3010400000000002
 30
0.0
 10
-1.8565900000000002
 20
-1.3924800000000002
 30
0.0
 10
-1.8108700000000002
 20
-1.54742
 30
0.0
 10
-1.8718300000000001
 20
-1.6388600000000002
 30
0.0
 10
-1.8718300000000001
 20
-1.6388600000000002
 30
0.0
 10
-1.8794500000000001
 20
-1.5398000000000001
 30
0.0
 10
-1.8896100000000002
 20
-1.4432800000000001
 30
0.0
 10
-1.9378700000000002
 20
-1.3594600000000001
 30
0.0
 10
-1.9378700000000002
 20
-1.3594600000000001
 30
0.0
 10
-1.9378700000000002
 20
-1.3594600000000001
 30
0.0
 10
-2.05979
 20
-1.3518400000000002
 30
0.0
 10
-2.05979
 20
-1.3518400000000002
 30
0.0
 10
-2.05979
 20
-1.3518400000000002
 30
0.0
 10
-2.1334500000000003
 20
-1.11816
 30
0.0
 10
-2.2071100000000001
 20
-0.8616200000000001
 30
0.0
 10
-2.1613900000000004
 20
-0.6076200000000001
 30
0.0
 10
-2.1613900000000004
 20
-0.6076200000000001
 30
0.0
 10
-2.1613900000000004
 20
-0.6076200000000001
 30
0.0
 10
-2.0521700000000003
 20
-0.61524
 30
0.0
 10
-2.0521700000000003
 20
-0.61524
 30
0.0
 10
-2.0521700000000003
 20
-0.61524
 30
0.0
 10
-2.0521700000000003
 20
-0.61524
 30
0.0
 10
-1.9785100000000002
 20
-0.53396
 30
0.0
 10
-1.9785100000000002
 20
-0.53396
 30
0.0
  0
SPLINE
  5
46
100
AcDbEntity
  8
Ebene 1
 62
     7
100
AcDbSpline
210
0.0
220
0.0
230
1.0
 70
     1
 71
     3
 72
    84
 73
    80
 74
     0
 42
0.0000000001
 43
0.0000000001
 40
0.0
 40
0.0
 40
0.0
 40
0.0
 40
0.05
 40
0.05
 40
0.05
 40
0.05
 40
0.1
 40
0.1
 40
0.1
 40
0.1
 40
0.15
 40
0.15
 40
0.15
 40
0.15
 40
0.2
 40
0.2
 40
0.2
 40
0.2
 40
0.25
 40
0.25
 40
0.25
 40
0.25
 40
0.3
 40
0.3
 40
0.3
 40
0.3
 40
0.35
 40
0.35
 40
0.35
 40
0.35
 40
0.4
 40
0.4
 40
0.4
 40
0.4
 40
0.45
 40
0.45
 40
0.45
 40
0.45
 40
0.4999999999999999
 40
0.4999999999999999
 40
0.4999999999999999
 40
0.4999999999999999
 40
0.5499999999999999
 40
0.5499999999999999
 40
0.5499999999999999
 40
0.5499999999999999
 40
0.6
 40
0.6
 40
0.6
 40
0.6
 40
0.65
 40
0.65
 40
0.65
 40
0.65
 40
0.7000000000000001
 40
0.7000000000000001
 40
0.7000000000000001
 40
0.7000000000000001
 40
0.7500000000000001
 40
0.7500000000000001
 40
0.7500000000000001
 40
0.7500000000000001
 40
0.8000000000000002
 40
0.8000000000000002
 40
0.8000000000000002
 40
0.8000000000000002
 40
0.8500000000000002
 40
0.8500000000000002
 40
0.8500000000000002
 40
0.8500000000000002
 40
0.9000000000000002
 40
0.9000000000000002
 40
0.9000000000000002
 40
0.9000000000000002
 40
0.9500000000000003
 40
0.9500000000000003
 40
0.9500000000000003
 40
0.9500000000000003
 40
1.0
 40
1.0
 40
1.0
 40
1.0
 10
0.41162
 20
-0.8794000000000001
 30
0.0
 10
0.5564
 20
-0.82352
 30
0.0
 10
0.09666
 20
-1.2578600000000002
 30
0.0
 10
0.3989200000000001
 20
-1.07752
 30
0.0
 10
0.3989200000000001
 20
-1.07752
 30
0.0
 10
0.5005200000000001
 20
-0.9860800000000001
 30
0.0
 10
0.61482
 20
-0.9937
 30
0.0
 10
0.7164200000000001
 20
-1.0114800000000002
 30
0.0
 10
0.7164200000000001
 20
-1.0114800000000002
 30
0.0
 10
0.3405
 20
-1.3543800000000001
 30
0.0
 10
0.09666
 20
-1.8750800000000001
 30
0.0
 10
0.06618
 20
-2.4034
 30
0.0
 10
0.06618
 20
-2.4034
 30
0.0
 10
-0.34783
 20
-2.6269200000000001
 30
0.0
 10
-0.71613
 20
-2.9139400000000002
 30
0.0
 10
-1.0996700000000001
 20
-3.1730200000000002
 30
0.0
 10
-1.0996700000000001
 20
-3.1730200000000002
 30
0.0
 10
-1.2850900000000001
 20
-3.0917400000000002
 30
0.0
 10
-1.4806700000000002
 20
-3.0053800000000002
 30
0.0
 10
-1.6889500000000002
 20
-2.9698200000000003
 30
0.0
 10
-1.6889500000000002
 20
-2.9698200000000003
 30
0.0
 10
-1.8235700000000001
 20
-2.9317200000000003
 30
0.0
 10
-1.8210300000000001
 20
-3.0587200000000001
 30
0.0
 10
-1.7219700000000002
 20
-3.0815800000000002
 30
0.0
 10
-1.7219700000000002
 20
-3.0815800000000002
 30
0.0
 10
-1.79817
 20
-3.0942800000000004
 30
0.0
 10
-1.8845300000000003
 20
-3.1933400000000001
 30
0.0
 10
-1.9454900000000002
 20
-3.0942800000000004
 30
0.0
 10
-1.9454900000000002
 20
-3.0942800000000004
 30
0.0
 10
-1.9378700000000002
 20
-2.8834600000000004
 30
0.0
 10
-2.0775700000000001
 20
-2.2967200000000001
 30
0.0
 10
-1.7930900000000001
 20
-2.5481800000000003
 30
0.0
 10
-1.7930900000000001
 20
-2.5481800000000003
 30
0.0
 10
-1.7397500000000001
 20
-2.2230600000000003
 30
0.0
 10
-1.7499100000000001
 20
-2.4618200000000003
 30
0.0
 10
-1.58735
 20
-2.56596
 30
0.0
 10
-1.58735
 20
-2.56596
 30
0.0
 10
-1.50099
 20
-2.5050000000000003
 30
0.0
 10
-1.5619500000000002
 20
-2.3627600000000002
 30
0.0
 10
-1.50607
 20
-2.2967200000000001
 30
0.0
 10
-1.50607
 20
-2.2967200000000001
 30
0.0
 10
-1.4730500000000002
 20
-2.4770600000000003
 30
0.0
 10
-1.3257300000000001
 20
-2.4389600000000002
 30
0.0
 10
-1.3282700000000001
 20
-2.27894
 30
0.0
 10
-1.3282700000000001
 20
-2.27894
 30
0.0
 10
-1.2317500000000001
 20
-2.4796
 30
0.0
 10
-1.1149100000000001
 20
-2.3449800000000001
 30
0.0
 10
-1.1098300000000001
 20
-2.1798800000000003
 30
0.0
 10
-1.1098300000000001
 20
-2.1798800000000003
 30
0.0
 10
-1.03871
 20
-2.36022
 30
0.0
 10
-0.9040900000000001
 20
-2.23576
 30
0.0
 10
-0.8837700000000001
 20
-2.1087600000000002
 30
0.0
 10
-0.8837700000000001
 20
-2.1087600000000002
 30
0.0
 10
-0.80249
 20
-2.1900400000000002
 30
0.0
 10
-0.7974100000000001
 20
-2.3678400000000002
 30
0.0
 10
-0.69835
 20
-2.4034
 30
0.0
 10
-0.69835
 20
-2.4034
 30
0.0
 10
-0.6831100000000001
 20
-2.2916400000000001
 30
0.0
 10
-0.86853
 20
-2.1671800000000001
 30
0.0
 10
-0.7339100000000001
 20
-2.0503400000000003
 30
0.0
 10
-0.7339100000000001
 20
-2.0503400000000003
 30
0.0
 10
-0.5637300000000001
 20
-2.1798800000000003
 30
0.0
 10
-0.46721
 20
-2.4516600000000004
 30
0.0
 10
-0.53071
 20
-2.0503400000000003
 30
0.0
 10
-0.53071
 20
-2.0503400000000003
 30
0.0
 10
-0.04557
 20
-1.9157200000000001
 30
0.0
 10
-0.5611900000000001
 20
-1.3696200000000001
 30
0.0
 10
-0.37831
 20
-1.0699000000000001
 30
0.0
 10
-0.37831
 20
-1.0699000000000001
 30
0.0
 10
-0.24877
 20
-1.1080000000000001
 30
0.0
 10
-0.34783
 20
-1.49916
 30
0.0
 10
-0.23353
 20
-1.6541000000000001
 30
0.0
 10
-0.23353
 20
-1.6541000000000001
 30
0.0
 10
-0.23353
 20
-1.4382000000000001
 30
0.0
 10
-0.29195
 20
-1.16642
 30
0.0
 10
-0.08875
 20
-0.9987800000000001
 30
0.0
 10
-0.08875
 20
-0.9987800000000001
 30
0.0
 10
-0.04557
 20
-1.3670800000000001
 30
0.0
 10
0.28208
 20
-1.00386
 30
0.0
 10
0.41162
 20
-0.8794000000000001
 30
0.0
  0
SPLINE
  5
47
100
AcDbEntity
  8
Ebene 1
 62
     7
100
AcDbSpline
210
0.0
220
0.0
230
1.0
 70
     1
 71
     3
 72
    16
 73
    12
 74
     0
 42
0.0000000001
 43
0.0000000001
 40
0.0
 40
0.0
 40
0.0
 40
0.0
 40
0.3333333333333333
 40
0.3333333333333333
 40
0.3333333333333333
 40
0.3333333333333333
 40
0.6666666666666666
 40
0.6666666666666666
 40
0.6666666666666666
 40
0.6666666666666666
 40
1.0
 40
1.0
 40
1.0
 40
1.0
 10
-0.8126500000000001
 20
-1.4255000000000002
 30
0.0
 10
-0.8558300000000001
 20
-1.3874000000000002
 30
0.0
 10
-0.88631
 20
-1.2553200000000002
 30
0.0
 10
-0.9650500000000001
 20
-1.3239000000000001
 30
0.0
 10
-0.9650500000000001
 20
-1.3239000000000001
 30
0.0
 10
-0.9752100000000001
 20
-1.2553200000000002
 30
0.0
 10
-0.9599700000000001
 20
-1.1715
 30
0.0
 10
-0.90917
 20
-1.12578
 30
0.0
 10
-0.90917
 20
-1.12578
 30
0.0
 10
-0.90917
 20
-1.12578
 30
0.0
 10
-0.8126500000000001
 20
-1.4255000000000002
 30
0.0
 10
-0.8126500000000001
 20
-1.4255000000000002
 30
0.0
  0
SPLINE
  5
48
100
AcDbEntity
  8
Ebene 1
 62
     7
100
AcDbSpline
210
0.0
220
0.0
230
1.0
 70
     1
 71
     3
 72
    20
 73
    16
 74
     0
 42
0.0000000001
 43
0.0000000001
 40
0.0
 40
0.0
 40
0.0
 40
0.0
 40
0.25
 40
0.25
 40
0.25
 40
0.25
 40
0.5
 40
0.5
 40
0.5
 40
0.5
 40
0.75
 40
0.75
 40
0.75
 40
0.75
 40
1.0
 40
1.0
 40
1.0
 40
1.0
 10
0.9043800000000001
 20
-1.2248400000000002
 30
0.0
 10
0.9450200000000001
 20
-1.2223000000000002
 30
0.0
 10
0.9755
 20
-1.24516
 30
0.0
 10
1.0034400000000001
 20
-1.2705600000000001
 30
0.0
 10
1.0034400000000001
 20
-1.2705600000000001
 30
0.0
 10
1.06186
 20
-1.5525000000000002
 30
0.0
 10
0.7596000000000001
 20
-1.8293600000000001
 30
0.0
 10
0.48528
 20
-1.8420600000000003
 30
0.0
 10
0.48528
 20
-1.8420600000000003
 30
0.0
 10
0.3989200000000001
 20
-1.79634
 30
0.0
 10
0.3252600000000001
 20
-1.6820400000000002
 30
0.0
 10
0.3989200000000001
 20
-1.58806
 30
0.0
 10
0.3989200000000001
 20
-1.58806
 30
0.0
 10
0.61482
 20
-1.54488
 30
0.0
 10
0.7748400000000001
 20
-1.3950200000000001
 30
0.0
 10
0.9043800000000001
 20
-1.2248400000000002
 30
0.0
  0
SPLINE
  5
49
100
AcDbEntity
  8
Ebene 1
 62
     7
100
AcDbSpline
210
0.0
220
0.0
230
1.0
 70
     1
 71
     3
 72
    12
 73
     8
 74
     0
 42
0.0000000001
 43
0.0000000001
 40
0.0
 40
0.0
 40
0.0
 40
0.0
 40
0.5
 40
0.5
 40
0.5
 40
0.5
 40
1.0
 40
1.0
 40
1.0
 40
1.0
 10
-0.91171
 20
-1.4128000000000001
 30
0.0
 10
-0.82535
 20
-1.4890000000000001
 30
0.0
 10
-0.7135900000000001
 20
-1.6947400000000001
 30
0.0
 10
-0.8532900000000001
 20
-1.7582400000000002
 30
0.0
 10
-0.8532900000000001
 20
-1.7582400000000002
 30
0.0
 10
-0.8939300000000001
 20
-1.6642600000000001
 30
0.0
 10
-0.9650500000000001
 20
-1.5169400000000002
 30
0.0
 10
-0.91171
 20
-1.4128000000000001
 30
0.0
  0
SPLINE
  5
4A
100
AcDbEntity
  8
Ebene 1
 62
     7
100
AcDbSpline
210
0.0
220
0.0
230
1.0
 70
     1
 71
     3
 72
    12
 73
     8
 74
     0
 42
0.0000000001
 43
0.0000000001
 40
0.0
 40
0.0
 40
0.0
 40
0.0
 40
0.5
 40
0.5
 40
0.5
 40
0.5
 40
1.0
 40
1.0
 40
1.0
 40
1.0
 10
-0.7796300000000001
 20
-1.4839200000000001
 30
0.0
 10
-0.74407
 20
-1.5194800000000002
 30
0.0
 10
-0.6932700000000001
 20
-1.58806
 30
0.0
 10
-0.7262900000000001
 20
-1.6388600000000002
 30
0.0
 10
-0.7262900000000001
 20
-1.6388600000000002
 30
0.0
 10
-0.7796300000000001
 20
-1.6109200000000001
 30
0.0
 10
-0.7669300000000001
 20
-1.5347200000000001
 30
0.0
 10
-0.7796300000000001
 20
-1.4839200000000001
 30
0.0
  0
SPLINE
  5
4B
100
AcDbEntity
  8
Ebene 1
 62
     7
100
AcDbSpline
210
0.0
220
0.0
230
1.0
 70
     1
 71
     3
 72
    12
 73
     8
 74
     0
 42
0.0000000001
 43
0.0000000001
 40
0.0
 40
0.0
 40
0.0
 40
0.0
 40
0.5
 40
0.5
 40
0.5
 40
0.5
 40
1.0
 40
1.0
 40
1.0
 40
1.0
 10
-1.08443
 20
-1.54234
 30
0.0
 10
-0.99299
 20
-1.5931400000000002
 30
0.0
 10
-0.82789
 20
-1.8217400000000001
 30
0.0
 10
-1.0260100000000001
 20
-1.8446000000000002
 30
0.0
 10
-1.0260100000000001
 20
-1.8446000000000002
 30
0.0
 10
-1.0488700000000002
 20
-1.7607800000000002
 30
0.0
 10
-1.1174500000000001
 20
-1.6464800000000002
 30
0.0
 10
-1.08443
 20
-1.54234
 30
0.0
  0
SPLINE
  5
4C
100
AcDbEntity
  8
Ebene 1
 62
     7
100
AcDbSpline
210
0.0
220
0.0
230
1.0
 70
     1
 71
     3
 72
    12
 73
     8
 74
     0
 42
0.0000000001
 43
0.0000000001
 40
0.0
 40
0.0
 40
0.0
 40
0.0
 40
0.5
 40
0.5
 40
0.5
 40
0.5
 40
1.0
 40
1.0
 40
1.0
 40
1.0
 10
-1.2571500000000002
 20
-1.58552
 30
0.0
 10
-1.2165100000000002
 20
-1.6795000000000002
 30
0.0
 10
-1.00569
 20
-1.8700000000000001
 30
0.0
 10
-1.1834900000000002
 20
-1.9182600000000001
 30
0.0
 10
-1.1834900000000002
 20
-1.9182600000000001
 30
0.0
 10
-1.1961900000000001
 20
-1.8115800000000002
 30
0.0
 10
-1.3231900000000001
 20
-1.7099800000000001
 30
0.0
 10
-1.2571500000000002
 20
-1.58552
 30
0.0
  0
SPLINE
  5
4D
100
AcDbEntity
  8
Ebene 1
 62
     7
100
AcDbSpline
210
0.0
220
0.0
230
1.0
 70
     1
 71
     3
 72
    12
 73
     8
 74
     0
 42
0.0000000001
 43
0.0000000001
 40
0.0
 40
0.0
 40
0.0
 40
0.0
 40
0.5
 40
0.5
 40
0.5
 40
0.5
 40
1.0
 40
1.0
 40
1.0
 40
1.0
 10
-1.4298700000000002
 20
-1.6591800000000001
 30
0.0
 10
-1.3130300000000001
 20
-1.7049000000000001
 30
0.0
 10
-1.24699
 20
-1.8649200000000001
 30
0.0
 10
-1.2596900000000002
 20
-1.9716000000000002
 30
0.0
 10
-1.2596900000000002
 20
-1.9716000000000002
 30
0.0
 10
-1.4349500000000002
 20
-2.0859000000000001
 30
0.0
 10
-1.46035
 20
-1.7684000000000002
 30
0.0
 10
-1.4298700000000002
 20
-1.6591800000000001
 30
0.0
  0
SPLINE
  5
4E
100
AcDbEntity
  8
Ebene 1
 62
     7
100
AcDbSpline
210
0.0
220
0.0
230
1.0
 70
     1
 71
     3
 72
    12
 73
     8
 74
     0
 42
0.0000000001
 43
0.0000000001
 40
0.0
 40
0.0
 40
0.0
 40
0.0
 40
0.5
 40
0.5
 40
0.5
 40
0.5
 40
1.0
 40
1.0
 40
1.0
 40
1.0
 10
-1.58735
 20
-1.7303000000000002
 30
0.0
 10
-1.58735
 20
-1.7303000000000002
 30
0.0
 10
-1.46289
 20
-2.01478
 30
0.0
 10
-1.46289
 20
-2.01478
 30
0.0
 10
-1.46289
 20
-2.01478
 30
0.0
 10
-1.6381500000000002
 20
-2.1036800000000002
 30
0.0
 10
-1.6330700000000002
 20
-1.8319000000000001
 30
0.0
 10
-1.58735
 20
-1.7303000000000002
 30
0.0
  0
SPLINE
  5
4F
100
AcDbEntity
  8
Ebene 1
 62
     7
100
AcDbSpline
210
0.0
220
0.0
230
1.0
 70
     1
 71
     3
 72
    20
 73
    16
 74
     0
 42
0.0000000001
 43
0.0000000001
 40
0.0
 40
0.0
 40
0.0
 40
0.0
 40
0.25
 40
0.25
 40
0.25
 40
0.25
 40
0.5
 40
0.5
 40
0.5
 40
0.5
 40
0.75
 40
0.75
 40
0.75
 40
0.75
 40
1.0
 40
1.0
 40
1.0
 40
1.0
 10
0.93232
 20
-1.7303000000000002
 30
0.0
 10
0.9602600000000001
 20
-1.7328400000000002
 30
0.0
 10
0.9907400000000001
 20
-1.7226800000000002
 30
0.0
 10
1.0034400000000001
 20
-1.7480800000000001
 30
0.0
 10
1.0034400000000001
 20
-1.7480800000000001
 30
0.0
 10
1.0034400000000001
 20
-1.8065000000000002
 30
0.0
 10
1.0034400000000001
 20
-1.8700000000000001
 30
0.0
 10
0.9755
 20
-1.9182600000000001
 30
0.0
 10
0.9755
 20
-1.9182600000000001
 30
0.0
 10
0.9602600000000001
 20
-2.2560800000000003
 30
0.0
 10
0.2389
 20
-2.3881600000000001
 30
0.0
 10
0.28208
 20
-1.9487400000000001
 30
0.0
 10
0.28208
 20
-1.9487400000000001
 30
0.0
 10
0.5005200000000001
 20
-2.0833600000000003
 30
0.0
 10
0.7748400000000001
 20
-1.9055600000000001
 30
0.0
 10
0.93232
 20
-1.7303000000000002
 30
0.0
  0
SPLINE
  5
50
100
AcDbEntity
  8
Ebene 1
 62
     7
100
AcDbSpline
210
0.0
220
0.0
230
1.0
 70
     1
 71
     3
 72
    16
 73
    12
 74
     0
 42
0.0000000001
 43
0.0000000001
 40
0.0
 40
0.0
 40
0.0
 40
0.0
 40
0.3333333333333333
 40
0.3333333333333333
 40
0.3333333333333333
 40
0.3333333333333333
 40
0.6666666666666666
 40
0.6666666666666666
 40
0.6666666666666666
 40
0.6666666666666666
 40
1.0
 40
1.0
 40
1.0
 40
1.0
 10
-1.7753100000000002
 20
-1.7582400000000002
 30
0.0
 10
-1.6991100000000001
 20
-1.8141200000000002
 30
0.0
 10
-1.6889500000000002
 20
-1.9512800000000001
 30
0.0
 10
-1.6635500000000001
 20
-2.0427200000000001
 30
0.0
 10
-1.6635500000000001
 20
-2.0427200000000001
 30
0.0
 10
-1.7067300000000001
 20
-2.0706600000000002
 30
0.0
 10
-1.7626100000000002
 20
-2.0808200000000001
 30
0.0
 10
-1.8159500000000002
 20
-2.0706600000000002
 30
0.0
 10
-1.8159500000000002
 20
-2.0706600000000002
 30
0.0
 10
-1.8388100000000001
 20
-1.9741400000000002
 30
0.0
 10
-1.79817
 20
-1.8598400000000002
 30
0.0
 10
-1.7753100000000002
 20
-1.7582400000000002
 30
0.0
  0
SPLINE
  5
51
100
AcDbEntity
  8
Ebene 1
 62
     7
100
AcDbSpline
210
0.0
220
0.0
230
1.0
 70
     1
 71
     3
 72
    12
 73
     8
 74
     0
 42
0.0000000001
 43
0.0000000001
 40
0.0
 40
0.0
 40
0.0
 40
0.0
 40
0.5
 40
0.5
 40
0.5
 40
0.5
 40
1.0
 40
1.0
 40
1.0
 40
1.0
 10
-0.7085100000000001
 20
-1.7582400000000002
 30
0.0
 10
-0.6018300000000001
 20
-1.7938000000000001
 30
0.0
 10
-0.6856500000000001
 20
-1.9208000000000001
 30
0.0
 10
-0.6831100000000001
 20
-1.9995400000000001
 30
0.0
 10
-0.6831100000000001
 20
-1.9995400000000001
 30
0.0
 10
-0.7567700000000001
 20
-1.9385800000000002
 30
0.0
 10
-0.8151900000000001
 20
-1.8141200000000002
 30
0.0
 10
-0.7085100000000001
 20
-1.7582400000000002
 30
0.0
  0
SPLINE
  5
52
100
AcDbEntity
  8
Ebene 1
 62
     7
100
AcDbSpline
210
0.0
220
0.0
230
1.0
 70
     1
 71
     3
 72
    16
 73
    12
 74
     0
 42
0.0000000001
 43
0.0000000001
 40
0.0
 40
0.0
 40
0.0
 40
0.0
 40
0.3333333333333333
 40
0.3333333333333333
 40
0.3333333333333333
 40
0.3333333333333333
 40
0.6666666666666666
 40
0.6666666666666666
 40
0.6666666666666666
 40
0.6666666666666666
 40
1.0
 40
1.0
 40
1.0
 40
1.0
 10
-1.9785100000000002
 20
-1.7887200000000001
 30
0.0
 10
-1.9607300000000001
 20
-1.7836400000000001
 30
0.0
 10
-1.9480300000000002
 20
-1.7938000000000001
 30
0.0
 10
-1.9378700000000002
 20
-1.8039600000000002
 30
0.0
 10
-1.9378700000000002
 20
-1.8039600000000002
 30
0.0
 10
-1.92517
 20
-1.8979400000000002
 30
0.0
 10
-1.79817
 20
-2.0884400000000003
 30
0.0
 10
-1.9581900000000001
 20
-2.10114
 30
0.0
 10
-1.9581900000000001
 20
-2.10114
 30
0.0
 10
-2.0394700000000001
 20
-2.01478
 30
0.0
 10
-1.9556500000000001
 20
-1.8928600000000002
 30
0.0
 10
-1.9785100000000002
 20
-1.7887200000000001
 30
0.0
  0
SPLINE
  5
53
100
AcDbEntity
  8
Ebene 1
 62
     7
100
AcDbSpline
210
0.0
220
0.0
230
1.0
 70
     1
 71
     3
 72
    12
 73
     8
 74
     0
 42
0.0000000001
 43
0.0000000001
 40
0.0
 40
0.0
 40
0.0
 40
0.0
 40
0.5
 40
0.5
 40
0.5
 40
0.5
 40
1.0
 40
1.0
 40
1.0
 40
1.0
 10
-2.1232900000000003
 20
-1.8014200000000002
 30
0.0
 10
-2.0775700000000001
 20
-1.8573000000000002
 30
0.0
 10
-2.0191500000000002
 20
-1.9944600000000001
 30
0.0
 10
-2.0826500000000001
 20
-2.0427200000000001
 30
0.0
 10
-2.0826500000000001
 20
-2.0427200000000001
 30
0.0
 10
-2.1918700000000002
 20
-2.0046200000000001
 30
0.0
 10
-2.1588500000000002
 20
-1.8877800000000002
 30
0.0
 10
-2.1232900000000003
 20
-1.8014200000000002
 30
0.0
  0
SPLINE
  5
54
100
AcDbEntity
  8
Ebene 1
 62
     7
100
AcDbSpline
210
0.0
220
0.0
230
1.0
 70
     1
 71
     3
 72
    12
 73
     8
 74
     0
 42
0.0000000001
 43
0.0000000001
 40
0.0
 40
0.0
 40
0.0
 40
0.0
 40
0.5
 40
0.5
 40
0.5
 40
0.5
 40
1.0
 40
1.0
 40
1.0
 40
1.0
 10
-0.8837700000000001
 20
-1.8598400000000002
 30
0.0
 10
-0.7796300000000001
 20
-1.8446000000000002
 30
0.0
 10
-0.7770900000000001
 20
-2.0122400000000003
 30
0.0
 10
-0.8126500000000001
 20
-2.0706600000000002
 30
0.0
 10
-0.8126500000000001
 20
-2.0706600000000002
 30
0.0
 10
-0.8329700000000001
 20
-2.0122400000000003
 30
0.0
 10
-0.9828300000000001
 20
-1.9258800000000003
 30
0.0
 10
-0.8837700000000001
 20
-1.8598400000000002
 30
0.0
  0
SPLINE
  5
55
100
AcDbEntity
  8
Ebene 1
 62
     7
100
AcDbSpline
210
0.0
220
0.0
230
1.0
 70
     1
 71
     3
 72
    16
 73
    12
 74
     0
 42
0.0000000001
 43
0.0000000001
 40
0.0
 40
0.0
 40
0.0
 40
0.0
 40
0.3333333333333333
 40
0.3333333333333333
 40
0.3333333333333333
 40
0.3333333333333333
 40
0.6666666666666666
 40
0.6666666666666666
 40
0.6666666666666666
 40
0.6666666666666666
 40
1.0
 40
1.0
 40
1.0
 40
1.0
 10
-1.0133100000000002
 20
-1.9335000000000002
 30
0.0
 10
-0.91171
 20
-1.9716000000000002
 30
0.0
 10
-0.93203
 20
-2.1773400000000001
 30
0.0
 10
-1.0133100000000002
 20
-2.22052
 30
0.0
 10
-1.0133100000000002
 20
-2.22052
 30
0.0
 10
-1.0133100000000002
 20
-2.22052
 30
0.0
 10
-1.12253
 20
-1.9919200000000001
 30
0.0
 10
-1.12253
 20
-1.9919200000000001
 30
0.0
 10
-1.12253
 20
-1.9919200000000001
 30
0.0
 10
-1.12253
 20
-1.9919200000000001
 30
0.0
 10
-1.0133100000000002
 20
-1.9335000000000002
 30
0.0
 10
-1.0133100000000002
 20
-1.9335000000000002
 30
0.0
  0
SPLINE
  5
56
100
AcDbEntity
  8
Ebene 1
 62
     7
100
AcDbSpline
210
0.0
220
0.0
230
1.0
 70
     1
 71
     3
 72
    12
 73
     8
 74
     0
 42
0.0000000001
 43
0.0000000001
 40
0.0
 40
0.0
 40
0.0
 40
0.0
 40
0.5
 40
0.5
 40
0.5
 40
0.5
 40
1.0
 40
1.0
 40
1.0
 40
1.0
 10
-1.2292100000000001
 20
-2.0173200000000002
 30
0.0
 10
-1.1072900000000001
 20
-2.0401800000000003
 30
0.0
 10
-1.1530100000000001
 20
-2.2560800000000003
 30
0.0
 10
-1.21397
 20
-2.3221200000000004
 30
0.0
 10
-1.21397
 20
-2.3221200000000004
 30
0.0
 10
-1.3003300000000002
 20
-2.2560800000000003
 30
0.0
 10
-1.3841500000000002
 20
-2.0300200000000004
 30
0.0
 10
-1.2292100000000001
 20
-2.0173200000000002
 30
0.0
  0
SPLINE
  5
57
100
AcDbEntity
  8
Ebene 1
 62
     7
100
AcDbSpline
210
0.0
220
0.0
230
1.0
 70
     1
 71
     3
 72
    12
 73
     8
 74
     0
 42
0.0000000001
 43
0.0000000001
 40
0.0
 40
0.0
 40
0.0
 40
0.0
 40
0.5
 40
0.5
 40
0.5
 40
0.5
 40
1.0
 40
1.0
 40
1.0
 40
1.0
 10
-1.4451100000000001
 20
-2.06304
 30
0.0
 10
-1.3054100000000002
 20
-2.0554200000000002
 30
0.0
 10
-1.3638300000000001
 20
-2.2611600000000003
 30
0.0
 10
-1.41717
 20
-2.3221200000000004
 30
0.0
 10
-1.41717
 20
-2.3221200000000004
 30
0.0
 10
-1.4679700000000002
 20
-2.2560800000000003
 30
0.0
 10
-1.5797300000000001
 20
-2.0808200000000001
 30
0.0
 10
-1.4451100000000001
 20
-2.06304
 30
0.0
  0
SPLINE
  5
58
100
AcDbEntity
  8
Ebene 1
 62
     7
100
AcDbSpline
210
0.0
220
0.0
230
1.0
 70
     1
 71
     3
 72
    16
 73
    12
 74
     0
 42
0.0000000001
 43
0.0000000001
 40
0.0
 40
0.0
 40
0.0
 40
0.0
 40
0.3333333333333333
 40
0.3333333333333333
 40
0.3333333333333333
 40
0.3333333333333333
 40
0.6666666666666666
 40
0.6666666666666666
 40
0.6666666666666666
 40
0.6666666666666666
 40
1.0
 40
1.0
 40
1.0
 40
1.0
 10
-1.7041900000000001
 20
-2.1036800000000002
 30
0.0
 10
-1.7041900000000001
 20
-2.1036800000000002
 30
0.0
 10
-1.5771900000000001
 20
-2.1087600000000002
 30
0.0
 10
-1.5771900000000001
 20
-2.1087600000000002
 30
0.0
 10
-1.5771900000000001
 20
-2.1087600000000002
 30
0.0
 10
-1.54417
 20
-2.2230600000000003
 30
0.0
 10
-1.54925
 20
-2.3729200000000001
 30
0.0
 10
-1.6051300000000002
 20
-2.4745200000000001
 30
0.0
 10
-1.6051300000000002
 20
-2.4745200000000001
 30
0.0
 10
-1.6864100000000002
 20
-2.3881600000000001
 30
0.0
 10
-1.75753
 20
-2.2052800000000001
 30
0.0
 10
-1.7041900000000001
 20
-2.1036800000000002
 30
0.0
  0
SPLINE
  5
59
100
AcDbEntity
  8
Ebene 1
 62
     7
100
AcDbSpline
210
0.0
220
0.0
230
1.0
 70
     1
 71
     3
 72
    92
 73
    88
 74
     0
 42
0.0000000001
 43
0.0000000001
 40
0.0
 40
0.0
 40
0.0
 40
0.0
 40
0.0454545454545455
 40
0.0454545454545455
 40
0.0454545454545455
 40
0.0454545454545455
 40
0.0909090909090909
 40
0.0909090909090909
 40
0.0909090909090909
 40
0.0909090909090909
 40
0.1363636363636364
 40
0.1363636363636364
 40
0.1363636363636364
 40
0.1363636363636364
 40
0.1818181818181818
 40
0.1818181818181818
 40
0.1818181818181818
 40
0.1818181818181818
 40
0.2272727272727273
 40
0.2272727272727273
 40
0.2272727272727273
 40
0.2272727272727273
 40
0.2727272727272728
 40
0.2727272727272728
 40
0.2727272727272728
 40
0.2727272727272728
 40
0.3181818181818182
 40
0.3181818181818182
 40
0.3181818181818182
 40
0.3181818181818182
 40
0.3636363636363637
 40
0.3636363636363637
 40
0.3636363636363637
 40
0.3636363636363637
 40
0.4090909090909092
 40
0.4090909090909092
 40
0.4090909090909092
 40
0.4090909090909092
 40
0.4545454545454546
 40
0.4545454545454546
 40
0.4545454545454546
 40
0.4545454545454546
 40
0.5000000000000001
 40
0.5000000000000001
 40
0.5000000000000001
 40
0.5000000000000001
 40
0.5454545454545455
 40
0.5454545454545455
 40
0.5454545454545455
 40
0.5454545454545455
 40
0.5909090909090909
 40
0.5909090909090909
 40
0.5909090909090909
 40
0.5909090909090909
 40
0.6363636363636364
 40
0.6363636363636364
 40
0.6363636363636364
 40
0.6363636363636364
 40
0.6818181818181818
 40
0.6818181818181818
 40
0.6818181818181818
 40
0.6818181818181818
 40
0.7272727272727272
 40
0.7272727272727272
 40
0.7272727272727272
 40
0.7272727272727272
 40
0.7727272727272726
 40
0.7727272727272726
 40
0.7727272727272726
 40
0.7727272727272726
 40
0.818181818181818
 40
0.818181818181818
 40
0.818181818181818
 40
0.818181818181818
 40
0.8636363636363634
 40
0.8636363636363634
 40
0.8636363636363634
 40
0.8636363636363634
 40
0.9090909090909088
 40
0.9090909090909088
 40
0.9090909090909088
 40
0.9090909090909088
 40
0.9545454545454543
 40
0.9545454545454543
 40
0.9545454545454543
 40
0.9545454545454543
 40
1.0
 40
1.0
 40
1.0
 40
1.0
 10
2.5757000000000003
 20
-3.8740600000000005
 30
0.0
 10
2.5757000000000003
 20
-3.8385000000000002
 30
0.0
 10
2.5807800000000003
 20
-3.8080200000000004
 30
0.0
 10
2.5858600000000003
 20
-3.7775400000000001
 30
0.0
 10
2.5858600000000003
 20
-3.7775400000000001
 30
0.0
 10
2.6519000000000004
 20
-3.4829000000000003
 30
0.0
 10
3.0176600000000002
 20
-3.3482800000000004
 30
0.0
 10
3.2538800000000001
 20
-3.1882600000000001
 30
0.0
 10
3.2538800000000001
 20
-3.1882600000000001
 30
0.0
 10
3.2538800000000001
 20
-3.1882600000000001
 30
0.0
 10
3.0075000000000003
 20
-3.7292800000000002
 30
0.0
 10
3.0075000000000003
 20
-3.7292800000000002
 30
0.0
 10
3.0075000000000003
 20
-3.7292800000000002
 30
0.0
 10
2.9363800000000002
 20
-3.9121600000000005
 30
0.0
 10
2.7916000000000003
 20
-4.0112200000000007
 30
0.0
 10
2.6773000000000002
 20
-4.1229800000000001
 30
0.0
 10
2.6773000000000002
 20
-4.1229800000000001
 30
0.0
 10
2.6773000000000002
 20
-4.1229800000000001
 30
0.0
 10
3.0075000000000003
 20
-4.0544000000000002
 30
0.0
 10
3.0075000000000003
 20
-4.0544000000000002
 30
0.0
 10
3.0075000000000003
 20
-4.0544000000000002
 30
0.0
 10
3.1091000000000002
 20
-4.8926000000000007
 30
0.0
 10
2.8500200000000002
 20
-5.8501800000000008
 30
0.0
 10
2.0981800000000002
 20
-6.2972200000000003
 30
0.0
 10
2.0981800000000002
 20
-6.2972200000000003
 30
0.0
 10
1.1761600000000001
 20
-6.7518800000000008
 30
0.0
 10
0.08142
 20
-6.3505600000000006
 30
0.0
 10
-0.5611900000000001
 20
-5.6038000000000006
 30
0.0
 10
-0.5611900000000001
 20
-5.6038000000000006
 30
0.0
 10
-1.3435100000000002
 20
-4.4328600000000007
 30
0.0
 10
-0.30465
 20
-2.9164800000000004
 30
0.0
 10
0.93232
 20
-2.6675600000000004
 30
0.0
 10
0.93232
 20
-2.6675600000000004
 30
0.0
 10
0.8459600000000001
 20
-2.8377400000000002
 30
0.0
 10
1.1202800000000002
 20
-3.1958800000000003
 30
0.0
 10
1.1202800000000002
 20
-2.9698200000000003
 30
0.0
 10
1.1202800000000002
 20
-2.9698200000000003
 30
0.0
 10
0.9602600000000001
 20
-2.9215600000000004
 30
0.0
 10
1.1761600000000001
 20
-2.5989800000000001
 30
0.0
 10
1.1202800000000002
 20
-2.7717000000000001
 30
0.0
 10
1.1202800000000002
 20
-2.7717000000000001
 30
0.0
 10
1.14822
 20
-2.8504400000000003
 30
0.0
 10
1.14822
 20
-3.0155400000000001
 30
0.0
 10
1.27776
 20
-2.9952200000000002
 30
0.0
 10
1.27776
 20
-2.9952200000000002
 30
0.0
 10
1.2066400000000002
 20
-2.8783800000000004
 30
0.0
 10
1.2625200000000001
 20
-2.7412200000000002
 30
0.0
 10
1.3361800000000001
 20
-2.6345400000000003
 30
0.0
 10
1.3361800000000001
 20
-2.6345400000000003
 30
0.0
 10
1.4073000000000002
 20
-2.4592800000000001
 30
0.0
 10
1.5089000000000001
 20
-2.2865600000000001
 30
0.0
 10
1.6105
 20
-2.1214600000000003
 30
0.0
 10
1.6105
 20
-2.1214600000000003
 30
0.0
 10
1.6105
 20
-2.1214600000000003
 30
0.0
 10
1.5368400000000002
 20
-2.7640800000000003
 30
0.0
 10
1.5368400000000002
 20
-2.7640800000000003
 30
0.0
 10
1.5368400000000002
 20
-2.7640800000000003
 30
0.0
 10
1.7679800000000001
 20
-2.6599400000000002
 30
0.0
 10
1.7679800000000001
 20
-3.1273000000000004
 30
0.0
 10
1.4784200000000001
 20
-3.1527000000000003
 30
0.0
 10
1.4784200000000001
 20
-3.1527000000000003
 30
0.0
 10
1.5749400000000002
 20
-3.2365200000000001
 30
0.0
 10
1.7349600000000001
 20
-3.1755600000000004
 30
0.0
 10
1.8111600000000001
 20
-2.9571200000000002
 30
0.0
 10
1.8111600000000001
 20
-2.9571200000000002
 30
0.0
 10
1.8391000000000002
 20
-2.8352000000000004
 30
0.0
 10
1.7095600000000002
 20
-2.7564600000000001
 30
0.0
 10
1.7248000000000001
 20
-2.6421600000000001
 30
0.0
 10
1.7248000000000001
 20
-2.6421600000000001
 30
0.0
 10
2.08548
 20
-2.6955
 30
0.0
 10
2.4461600000000003
 20
-2.9774400000000001
 30
0.0
 10
2.6468200000000004
 20
-3.2873200000000002
 30
0.0
 10
2.6468200000000004
 20
-3.2873200000000002
 30
0.0
 10
2.5604600000000004
 20
-3.3584400000000003
 30
0.0
 10
2.38774
 20
-3.3254200000000003
 30
0.0
 10
2.34456
 20
-3.4600400000000002
 30
0.0
 10
2.34456
 20
-3.4600400000000002
 30
0.0
 10
2.3166200000000003
 20
-3.5616400000000001
 30
0.0
 10
2.30138
 20
-3.6784800000000004
 30
0.0
 10
2.34456
 20
-3.7800800000000003
 30
0.0
 10
2.34456
 20
-3.7800800000000003
 30
0.0
 10
2.33948
 20
-3.8029400000000004
 30
0.0
 10
2.3547200000000004
 20
-3.8283400000000003
 30
0.0
 10
2.3750400000000003
 20
-3.8461200000000004
 30
0.0
 10
2.3750400000000003
 20
-3.8461200000000004
 30
0.0
 10
2.3979000000000004
 20
-3.8664400000000003
 30
0.0
 10
2.54522
 20
-3.8842200000000005
 30
0.0
 10
2.5757000000000003
 20
-3.8740600000000005
 30
0.0
  0
SPLINE
  5
5A
100
AcDbEntity
  8
Ebene 1
 62
     7
100
AcDbSpline
210
0.0
220
0.0
230
1.0
 70
     1
 71
     3
 72
    16
 73
    12
 74
     0
 42
0.0000000001
 43
0.0000000001
 40
0.0
 40
0.0
 40
0.0
 40
0.0
 40
0.3333333333333333
 40
0.3333333333333333
 40
0.3333333333333333
 40
0.3333333333333333
 40
0.6666666666666666
 40
0.6666666666666666
 40
0.6666666666666666
 40
0.6666666666666666
 40
1.0
 40
1.0
 40
1.0
 40
1.0
 10
-2.0928100000000001
 20
-2.1341600000000001
 30
0.0
 10
-2.0724900000000002
 20
-2.1316200000000003
 30
0.0
 10
-2.0521700000000003
 20
-2.1316200000000003
 30
0.0
 10
-2.0394700000000001
 20
-2.1519400000000002
 30
0.0
 10
-2.0394700000000001
 20
-2.1519400000000002
 30
0.0
 10
-2.0521700000000003
 20
-2.26878
 30
0.0
 10
-1.9581900000000001
 20
-2.3881600000000001
 30
0.0
 10
-2.0064500000000001
 20
-2.4948400000000004
 30
0.0
 10
-2.0064500000000001
 20
-2.4948400000000004
 30
0.0
 10
-2.06487
 20
-2.3957800000000002
 30
0.0
 10
-2.18425
 20
-2.2408400000000004
 30
0.0
 10
-2.0928100000000001
 20
-2.1341600000000001
 30
0.0
  0
SPLINE
  5
5B
100
AcDbEntity
  8
Ebene 1
 62
     7
100
AcDbSpline
210
0.0
220
0.0
230
1.0
 70
     1
 71
     3
 72
    16
 73
    12
 74
     0
 42
0.0000000001
 43
0.0000000001
 40
0.0
 40
0.0
 40
0.0
 40
0.0
 40
0.3333333333333333
 40
0.3333333333333333
 40
0.3333333333333333
 40
0.3333333333333333
 40
0.6666666666666666
 40
0.6666666666666666
 40
0.6666666666666666
 40
0.6666666666666666
 40
1.0
 40
1.0
 40
1.0
 40
1.0
 10
-1.9353300000000002
 20
-2.1341600000000001
 30
0.0
 10
-1.9353300000000002
 20
-2.1341600000000001
 30
0.0
 10
-1.8083300000000002
 20
-2.1519400000000002
 30
0.0
 10
-1.8083300000000002
 20
-2.1519400000000002
 30
0.0
 10
-1.8083300000000002
 20
-2.1519400000000002
 30
0.0
 10
-1.8210300000000001
 20
-2.2637
 30
0.0
 10
-1.7499100000000001
 20
-2.3856200000000003
 30
0.0
 10
-1.8362700000000001
 20
-2.4745200000000001
 30
0.0
 10
-1.8362700000000001
 20
-2.4745200000000001
 30
0.0
 10
-1.8896100000000002
 20
-2.3856200000000003
 30
0.0
 10
-1.9835900000000002
 20
-2.23576
 30
0.0
 10
-1.9353300000000002
 20
-2.1341600000000001
 30
0.0
  0
SPLINE
  5
5C
100
AcDbEntity
  8
Ebene 1
 62
     7
100
AcDbSpline
210
0.0
220
0.0
230
1.0
 70
     1
 71
     3
 72
    24
 73
    20
 74
     0
 42
0.0000000001
 43
0.0000000001
 40
0.0
 40
0.0
 40
0.0
 40
0.0
 40
0.2
 40
0.2
 40
0.2
 40
0.2
 40
0.4
 40
0.4
 40
0.4
 40
0.4
 40
0.6000000000000001
 40
0.6000000000000001
 40
0.6000000000000001
 40
0.6000000000000001
 40
0.8
 40
0.8
 40
0.8
 40
0.8
 40
1.0
 40
1.0
 40
1.0
 40
1.0
 10
0.83072
 20
-2.2332200000000002
 30
0.0
 10
0.9043800000000001
 20
-2.2484600000000001
 30
0.0
 10
0.9450200000000001
 20
-2.3449800000000001
 30
0.0
 10
0.9043800000000001
 20
-2.4034
 30
0.0
 10
0.9043800000000001
 20
-2.4034
 30
0.0
 10
0.7291200000000001
 20
-2.4592800000000001
 30
0.0
 10
0.5564
 20
-2.5126200000000001
 30
0.0
 10
0.38368
 20
-2.5380200000000004
 30
0.0
 10
0.38368
 20
-2.5380200000000004
 30
0.0
 10
0.31256
 20
-2.4719800000000003
 30
0.0
 10
0.19572
 20
-2.3957800000000002
 30
0.0
 10
0.2262
 20
-2.2814800000000002
 30
0.0
 10
0.2262
 20
-2.2814800000000002
 30
0.0
 10
0.2389
 20
-2.2637
 30
0.0
 10
0.25414
 20
-2.2560800000000003
 30
0.0
 10
0.28208
 20
-2.2662400000000003
 30
0.0
 10
0.28208
 20
-2.2662400000000003
 30
0.0
 10
0.38368
 20
-2.4592800000000001
 30
0.0
 10
0.70118
 20
-2.3576800000000002
 30
0.0
 10
0.83072
 20
-2.2332200000000002
 30
0.0
  0
SPLINE
  5
5D
100
AcDbEntity
  8
Ebene 1
 62
     7
100
AcDbSpline
210
0.0
220
0.0
230
1.0
 70
     1
 71
     3
 72
    12
 73
     8
 74
     0
 42
0.0000000001
 43
0.0000000001
 40
0.0
 40
0.0
 40
0.0
 40
0.0
 40
0.5
 40
0.5
 40
0.5
 40
0.5
 40
1.0
 40
1.0
 40
1.0
 40
1.0
 10
2.5604600000000004
 20
-2.7234400000000001
 30
0.0
 10
2.6036400000000004
 20
-2.7463000000000002
 30
0.0
 10
2.6036400000000004
 20
-2.8479000000000001
 30
0.0
 10
2.5604600000000004
 20
-2.8682200000000004
 30
0.0
 10
2.5604600000000004
 20
-2.8682200000000004
 30
0.0
 10
2.4893400000000003
 20
-2.8352000000000004
 30
0.0
 10
2.5477600000000002
 20
-2.7818600000000004
 30
0.0
 10
2.5604600000000004
 20
-2.7234400000000001
 30
0.0
  0
SPLINE
  5
5E
100
AcDbEntity
  8
Ebene 1
 62
     7
100
AcDbSpline
210
0.0
220
0.0
230
1.0
 70
     1
 71
     3
 72
    12
 73
     8
 74
     0
 42
0.0000000001
 43
0.0000000001
 40
0.0
 40
0.0
 40
0.0
 40
0.0
 40
0.5
 40
0.5
 40
0.5
 40
0.5
 40
1.0
 40
1.0
 40
1.0
 40
1.0
 10
0.26938
 20
-2.7539200000000004
 30
0.0
 10
0.3557400000000001
 20
-2.7742400000000003
 30
0.0
 10
0.1246
 20
-2.8682200000000004
 30
0.0
 10
0.2262
 20
-2.7844000000000002
 30
0.0
 10
0.2262
 20
-2.7844000000000002
 30
0.0
 10
0.2262
 20
-2.7844000000000002
 30
0.0
 10
0.26938
 20
-2.7539200000000004
 30
0.0
 10
0.26938
 20
-2.7539200000000004
 30
0.0
  0
SPLINE
  5
5F
100
AcDbEntity
  8
Ebene 1
 62
     7
100
AcDbSpline
210
0.0
220
0.0
230
1.0
 70
     1
 71
     3
 72
     8
 73
     4
 74
     0
 42
0.0000000001
 43
0.0000000001
 40
0.0
 40
0.0
 40
0.0
 40
0.0
 40
1.0
 40
1.0
 40
1.0
 40
1.0
 10
0.09666
 20
-2.8529800000000001
 30
0.0
 10
0.2389
 20
-2.8402800000000004
 30
0.0
 10
0.03824
 20
-2.9799800000000003
 30
0.0
 10
0.09666
 20
-2.8529800000000001
 30
0.0
  0
SPLINE
  5
60
100
AcDbEntity
  8
Ebene 1
100
AcDbSpline
210
0.0
220
0.0
230
1.0
 70
     1
 71
     3
 72
    20
 73
    16
 74
     0
 42
0.0000000001
 43
0.0000000001
 40
0.0
 40
0.0
 40
0.0
 40
0.0
 40
0.25
 40
0.25
 40
0.25
 40
0.25
 40
0.5
 40
0.5
 40
0.5
 40
0.5
 40
0.75
 40
0.75
 40
0.75
 40
0.75
 40
1.0
 40
1.0
 40
1.0
 40
1.0
 10
0.70118
 20
-2.8682200000000004
 30
0.0
 10
0.8027800000000001
 20
-2.8656800000000002
 30
0.0
 10
0.78754
 20
-3.0409400000000004
 30
0.0
 10
0.8586600000000001
 20
-3.1095200000000003
 30
0.0
 10
0.8586600000000001
 20
-3.1095200000000003
 30
0.0
 10
0.658
 20
-3.1755600000000004
 30
0.0
 10
0.4421000000000001
 20
-3.2644600000000001
 30
0.0
 10
0.31256
 20
-3.4575000000000005
 30
0.0
 10
0.31256
 20
-3.4575000000000005
 30
0.0
 10
0.31256
 20
-3.4575000000000005
 30
0.0
 10
0.25414
 20
-3.4575000000000005
 30
0.0
 10
0.25414
 20
-3.4575000000000005
 30
0.0
 10
0.25414
 20
-3.4575000000000005
 30
0.0
 10
0.05348
 20
-3.1857200000000003
 30
0.0
 10
0.48528
 20
-2.9215600000000004
 30
0.0
 10
0.70118
 20
-2.8682200000000004
 30
0.0
  0
SPLINE
  5
61
100
AcDbEntity
  8
Ebene 1
100
AcDbSpline
210
0.0
220
0.0
230
1.0
 70
     1
 71
     3
 72
    80
 73
    76
 74
     0
 42
0.0000000001
 43
0.0000000001
 40
0.0
 40
0.0
 40
0.0
 40
0.0
 40
0.0526315789473684
 40
0.0526315789473684
 40
0.0526315789473684
 40
0.0526315789473684
 40
0.1052631578947368
 40
0.1052631578947368
 40
0.1052631578947368
 40
0.1052631578947368
 40
0.1578947368421053
 40
0.1578947368421053
 40
0.1578947368421053
 40
0.1578947368421053
 40
0.2105263157894737
 40
0.2105263157894737
 40
0.2105263157894737
 40
0.2105263157894737
 40
0.2631578947368421
 40
0.2631578947368421
 40
0.2631578947368421
 40
0.2631578947368421
 40
0.3157894736842105
 40
0.3157894736842105
 40
0.3157894736842105
 40
0.3157894736842105
 40
0.3684210526315789
 40
0.3684210526315789
 40
0.3684210526315789
 40
0.3684210526315789
 40
0.4210526315789474
 40
0.4210526315789474
 40
0.4210526315789474
 40
0.4210526315789474
 40
0.4736842105263158
 40
0.4736842105263158
 40
0.4736842105263158
 40
0.4736842105263158
 40
0.5263157894736842
 40
0.5263157894736842
 40
0.5263157894736842
 40
0.5263157894736842
 40
0.5789473684210527
 40
0.5789473684210527
 40
0.5789473684210527
 40
0.5789473684210527
 40
0.631578947368421
 40
0.631578947368421
 40
0.631578947368421
 40
0.631578947368421
 40
0.6842105263157894
 40
0.6842105263157894
 40
0.6842105263157894
 40
0.6842105263157894
 40
0.7368421052631577
 40
0.7368421052631577
 40
0.7368421052631577
 40
0.7368421052631577
 40
0.7894736842105261
 40
0.7894736842105261
 40
0.7894736842105261
 40
0.7894736842105261
 40
0.8421052631578945
 40
0.8421052631578945
 40
0.8421052631578945
 40
0.8421052631578945
 40
0.8947368421052628
 40
0.8947368421052628
 40
0.8947368421052628
 40
0.8947368421052628
 40
0.9473684210526312
 40
0.9473684210526312
 40
0.9473684210526312
 40
0.9473684210526312
 40
1.0
 40
1.0
 40
1.0
 40
1.0
 10
1.9127600000000002
 20
-2.8682200000000004
 30
0.0
 10
2.0981800000000002
 20
-2.9266400000000004
 30
0.0
 10
2.3166200000000003
 20
-3.03078
 30
0.0
 10
2.4309200000000004
 20
-3.2009600000000002
 30
0.0
 10
2.4309200000000004
 20
-3.2009600000000002
 30
0.0
 10
2.3725000000000001
 20
-3.4016200000000003
 30
0.0
 10
2.1134200000000001
 20
-3.6099000000000001
 30
0.0
 10
1.9991200000000002
 20
-3.3051000000000004
 30
0.0
 10
1.9991200000000002
 20
-3.3051000000000004
 30
0.0
 10
1.6663800000000002
 20
-3.5921200000000004
 30
0.0
 10
2.0423
 20
-4.05694
 30
0.0
 10
1.7527400000000002
 20
-4.30586
 30
0.0
 10
1.7527400000000002
 20
-4.30586
 30
0.0
 10
1.6816200000000001
 20
-4.3592000000000004
 30
0.0
 10
1.6105
 20
-4.4049200000000006
 30
0.0
 10
1.5241400000000001
 20
-4.3769800000000005
 30
0.0
 10
1.5241400000000001
 20
-4.3769800000000005
 30
0.0
 10
1.5520800000000001
 20
-4.2931600000000003
 30
0.0
 10
1.65368
 20
-4.2830000000000004
 30
0.0
 10
1.69432
 20
-4.2093400000000001
 30
0.0
 10
1.69432
 20
-4.2093400000000001
 30
0.0
 10
1.7832200000000002
 20
-4.1483800000000004
 30
0.0
 10
1.7679800000000001
 20
-4.04678
 30
0.0
 10
1.7679800000000001
 20
-3.9502600000000001
 30
0.0
 10
1.7679800000000001
 20
-3.9502600000000001
 30
0.0
 10
1.7832200000000002
 20
-3.7419800000000003
 30
0.0
 10
1.4936600000000002
 20
-3.9350200000000002
 30
0.0
 10
1.6232000000000002
 20
-3.7496000000000005
 30
0.0
 10
1.6232000000000002
 20
-3.7496000000000005
 30
0.0
 10
1.6232000000000002
 20
-3.7496000000000005
 30
0.0
 10
1.69432
 20
-3.6200600000000005
 30
0.0
 10
1.69432
 20
-3.6200600000000005
 30
0.0
 10
1.69432
 20
-3.6200600000000005
 30
0.0
 10
1.4784200000000001
 20
-3.7496000000000005
 30
0.0
 10
1.1634600000000002
 20
-3.9883600000000001
 30
0.0
 10
1.27776
 20
-4.2626800000000005
 30
0.0
 10
1.27776
 20
-4.2626800000000005
 30
0.0
 10
1.10504
 20
-4.3033200000000003
 30
0.0
 10
1.0339200000000002
 20
-4.1179000000000006
 30
0.0
 10
1.0771000000000002
 20
-3.9832800000000002
 30
0.0
 10
1.0771000000000002
 20
-3.9832800000000002
 30
0.0
 10
1.0771000000000002
 20
-3.9832800000000002
 30
0.0
 10
1.3946000000000001
 20
-3.7292800000000002
 30
0.0
 10
1.3946000000000001
 20
-3.7292800000000002
 30
0.0
 10
1.3946000000000001
 20
-3.7292800000000002
 30
0.0
 10
1.4504800000000002
 20
-3.6835600000000004
 30
0.0
 10
1.5368400000000002
 20
-3.6530800000000001
 30
0.0
 10
1.5647800000000001
 20
-3.5794200000000003
 30
0.0
 10
1.5647800000000001
 20
-3.5794200000000003
 30
0.0
 10
1.5647800000000001
 20
-3.5794200000000003
 30
0.0
 10
1.3057000000000001
 20
-3.7292800000000002
 30
0.0
 10
1.3057000000000001
 20
-3.7292800000000002
 30
0.0
 10
1.3057000000000001
 20
-3.7292800000000002
 30
0.0
 10
1.3057000000000001
 20
-3.7292800000000002
 30
0.0
 10
1.1914
 20
-3.8308800000000005
 30
0.0
 10
1.1914
 20
-3.8308800000000005
 30
0.0
 10
1.1914
 20
-3.8308800000000005
 30
0.0
 10
0.9043800000000001
 20
-3.9451800000000001
 30
0.0
 10
0.9907400000000001
 20
-4.2169600000000003
 30
0.0
 10
1.1329800000000001
 20
-4.3490400000000005
 30
0.0
 10
1.1329800000000001
 20
-4.3490400000000005
 30
0.0
 10
1.06186
 20
-4.3261799999999999
 30
0.0
 10
0.9907400000000001
 20
-4.3134800000000002
 30
0.0
 10
0.93232
 20
-4.2474400000000001
 30
0.0
 10
0.93232
 20
-4.2474400000000001
 30
0.0
 10
0.74436
 20
-3.6480000000000001
 30
0.0
 10
1.5952600000000001
 20
-3.6022800000000004
 30
0.0
 10
1.8822800000000002
 20
-3.2111200000000002
 30
0.0
 10
1.8822800000000002
 20
-3.2111200000000002
 30
0.0
 10
1.8695800000000002
 20
-3.1628600000000002
 30
0.0
 10
1.7679800000000001
 20
-3.1882600000000001
 30
0.0
 10
1.7984600000000002
 20
-3.1171400000000005
 30
0.0
 10
1.7984600000000002
 20
-3.1171400000000005
 30
0.0
 10
1.8975200000000001
 20
-3.0587200000000001
 30
0.0
 10
1.9559400000000002
 20
-2.9799800000000003
 30
0.0
 10
1.9127600000000002
 20
-2.8682200000000004
 30
0.0
  0
SPLINE
  5
62
100
AcDbEntity
  8
Ebene 1
 62
     7
100
AcDbSpline
210
0.0
220
0.0
230
1.0
 70
     1
 71
     3
 72
    12
 73
     8
 74
     0
 42
0.0000000001
 43
0.0000000001
 40
0.0
 40
0.0
 40
0.0
 40
0.0
 40
0.5
 40
0.5
 40
0.5
 40
0.5
 40
1.0
 40
1.0
 40
1.0
 40
1.0
 10
-0.00239
 20
-2.9114000000000004
 30
0.0
 10
0.023
 20
-2.8987000000000003
 30
0.0
 10
0.08142
 20
-2.9418800000000003
 30
0.0
 10
0.03824
 20
-2.9647400000000004
 30
0.0
 10
0.03824
 20
-2.9647400000000004
 30
0.0
 10
-0.00239
 20
-2.9850600000000003
 30
0.0
 10
-0.01763
 20
-2.9418800000000003
 30
0.0
 10
-0.00239
 20
-2.9114000000000004
 30
0.0
  0
SPLINE
  5
63
100
AcDbEntity
  8
Ebene 1
 62
     7
100
AcDbSpline
210
0.0
220
0.0
230
1.0
 70
     1
 71
     3
 72
    12
 73
     8
 74
     0
 42
0.0000000001
 43
0.0000000001
 40
0.0
 40
0.0
 40
0.0
 40
0.0
 40
0.5
 40
0.5
 40
0.5
 40
0.5
 40
1.0
 40
1.0
 40
1.0
 40
1.0
 10
-0.07605
 20
-2.9698200000000003
 30
0.0
 10
-0.04557
 20
-2.9774400000000001
 30
0.0
 10
-0.06081
 20
-3.0384000000000002
 30
0.0
 10
-0.08875
 20
-3.0384000000000002
 30
0.0
 10
-0.08875
 20
-3.0384000000000002
 30
0.0
 10
-0.11923
 20
-3.0180800000000003
 30
0.0
 10
-0.08875
 20
-2.9926800000000005
 30
0.0
 10
-0.07605
 20
-2.9698200000000003
 30
0.0
  0
SPLINE
  5
64
100
AcDbEntity
  8
Ebene 1
 62
     7
100
AcDbSpline
210
0.0
220
0.0
230
1.0
 70
     1
 71
     3
 72
    12
 73
     8
 74
     0
 42
0.0000000001
 43
0.0000000001
 40
0.0
 40
0.0
 40
0.0
 40
0.0
 40
0.5
 40
0.5
 40
0.5
 40
0.5
 40
1.0
 40
1.0
 40
1.0
 40
1.0
 10
-0.17511
 20
-3.0282400000000003
 30
0.0
 10
-0.13193
 20
-3.0231600000000003
 30
0.0
 10
-0.11923
 20
-3.0917400000000002
 30
0.0
 10
-0.15987
 20
-3.1095200000000003
 30
0.0
 10
-0.15987
 20
-3.1095200000000003
 30
0.0
 10
-0.20559
 20
-3.1044400000000003
 30
0.0
 10
-0.19035
 20
-3.0511000000000004
 30
0.0
 10
-0.17511
 20
-3.0282400000000003
 30
0.0
  0
SPLINE
  5
65
100
AcDbEntity
  8
Ebene 1
 62
     7
100
AcDbSpline
210
0.0
220
0.0
230
1.0
 70
     1
 71
     3
 72
    12
 73
     8
 74
     0
 42
0.0000000001
 43
0.0000000001
 40
0.0
 40
0.0
 40
0.0
 40
0.0
 40
0.5
 40
0.5
 40
0.5
 40
0.5
 40
1.0
 40
1.0
 40
1.0
 40
1.0
 10
-0.30465
 20
-3.1577800000000003
 30
0.0
 10
-0.29195
 20
-3.1679400000000002
 30
0.0
 10
-0.26147
 20
-3.2085800000000004
 30
0.0
 10
-0.29195
 20
-3.2238200000000004
 30
0.0
 10
-0.29195
 20
-3.2238200000000004
 30
0.0
 10
-0.33513
 20
-3.2212800000000001
 30
0.0
 10
-0.31989
 20
-3.1755600000000004
 30
0.0
 10
-0.30465
 20
-3.1577800000000003
 30
0.0
  0
SPLINE
  5
66
100
AcDbEntity
  8
Ebene 1
100
AcDbSpline
210
0.0
220
0.0
230
1.0
 70
     1
 71
     3
 72
    68
 73
    64
 74
     0
 42
0.0000000001
 43
0.0000000001
 40
0.0
 40
0.0
 40
0.0
 40
0.0
 40
0.0625
 40
0.0625
 40
0.0625
 40
0.0625
 40
0.125
 40
0.125
 40
0.125
 40
0.125
 40
0.1875
 40
0.1875
 40
0.1875
 40
0.1875
 40
0.25
 40
0.25
 40
0.25
 40
0.25
 40
0.3125
 40
0.3125
 40
0.3125
 40
0.3125
 40
0.375
 40
0.375
 40
0.375
 40
0.375
 40
0.4375
 40
0.4375
 40
0.4375
 40
0.4375
 40
0.5
 40
0.5
 40
0.5
 40
0.5
 40
0.5625
 40
0.5625
 40
0.5625
 40
0.5625
 40
0.625
 40
0.625
 40
0.625
 40
0.625
 40
0.6875
 40
0.6875
 40
0.6875
 40
0.6875
 40
0.75
 40
0.75
 40
0.75
 40
0.75
 40
0.8125
 40
0.8125
 40
0.8125
 40
0.8125
 40
0.875
 40
0.875
 40
0.875
 40
0.875
 40
0.9375
 40
0.9375
 40
0.9375
 40
0.9375
 40
1.0
 40
1.0
 40
1.0
 40
1.0
 10
-0.00239
 20
-3.1577800000000003
 30
0.0
 10
0.05348
 20
-3.1374600000000004
 30
0.0
 10
0.06618
 20
-3.1908000000000003
 30
0.0
 10
0.08142
 20
-3.2289000000000003
 30
0.0
 10
0.08142
 20
-3.2289000000000003
 30
0.0
 10
0.15254
 20
-3.5845000000000002
 30
0.0
 10
0.2389
 20
-4.1534599999999999
 30
0.0
 10
0.658
 20
-4.2271200000000002
 30
0.0
 10
0.658
 20
-4.2271200000000002
 30
0.0
 10
0.658
 20
-4.2271200000000002
 30
0.0
 10
0.7291200000000001
 20
-4.3820600000000001
 30
0.0
 10
0.7291200000000001
 20
-4.3820600000000001
 30
0.0
 10
0.7291200000000001
 20
-4.3820600000000001
 30
0.0
 10
0.6859400000000001
 20
-4.5522400000000003
 30
0.0
 10
0.51322
 20
-4.7097200000000008
 30
0.0
 10
0.3405
 20
-4.7249600000000003
 30
0.0
 10
0.3405
 20
-4.7249600000000003
 30
0.0
 10
0.4421000000000001
 20
-4.6360600000000005
 30
0.0
 10
0.7748400000000001
 20
-4.3947600000000007
 30
0.0
 10
0.5005200000000001
 20
-4.2855400000000001
 30
0.0
 10
0.5005200000000001
 20
-4.2855400000000001
 30
0.0
 10
0.38368
 20
-4.2169600000000003
 30
0.0
 10
0.25414
 20
-4.1306000000000003
 30
0.0
 10
0.21096
 20
-3.9959800000000003
 30
0.0
 10
0.21096
 20
-3.9959800000000003
 30
0.0
 10
0.15254
 20
-3.8639000000000001
 30
0.0
 10
0.08142
 20
-3.7115000000000005
 30
0.0
 10
-0.00239
 20
-3.5921200000000004
 30
0.0
 10
-0.00239
 20
-3.5921200000000004
 30
0.0
 10
-0.07605
 20
-3.9274000000000004
 30
0.0
 10
-0.08875
 20
-4.2906200000000005
 30
0.0
 10
0.03824
 20
-4.6106600000000002
 30
0.0
 10
0.03824
 20
-4.6106600000000002
 30
0.0
 10
-0.03033
 20
-4.5979600000000005
 30
0.0
 10
-0.11923
 20
-4.5979600000000005
 30
0.0
 10
-0.17511
 20
-4.5446200000000001
 30
0.0
 10
-0.17511
 20
-4.5446200000000001
 30
0.0
 10
-0.21829
 20
-4.4481000000000002
 30
0.0
 10
-0.36307
 20
-4.4811200000000007
 30
0.0
 10
-0.27671
 20
-4.3719000000000001
 30
0.0
 10
-0.27671
 20
-4.3719000000000001
 30
0.0
 10
-0.20559
 20
-4.30586
 30
0.0
 10
-0.08875
 20
-4.0925000000000002
 30
0.0
 10
-0.14717
 20
-4.0798000000000005
 30
0.0
 10
-0.14717
 20
-4.0798000000000005
 30
0.0
 10
-0.14717
 20
-4.0798000000000005
 30
0.0
 10
-0.21829
 20
-4.2118800000000007
 30
0.0
 10
-0.21829
 20
-4.2118800000000007
 30
0.0
 10
-0.21829
 20
-4.2118800000000007
 30
0.0
 10
-0.5459500000000001
 20
-4.4277800000000003
 30
0.0
 10
-0.26147
 20
-4.7935400000000001
 30
0.0
 10
0.03824
 20
-4.7732200000000002
 30
0.0
 10
0.03824
 20
-4.7732200000000002
 30
0.0
 10
-0.01763
 20
-4.8672000000000004
 30
0.0
 10
-0.21829
 20
-4.7986200000000006
 30
0.0
 10
-0.33513
 20
-4.7960800000000008
 30
0.0
 10
-0.33513
 20
-4.7960800000000008
 30
0.0
 10
-0.5815100000000001
 20
-4.5750999999999999
 30
0.0
 10
-0.42149
 20
-4.2195
 30
0.0
 10
-0.20559
 20
-4.0315400000000006
 30
0.0
 10
-0.20559
 20
-4.0315400000000006
 30
0.0
 10
-0.20559
 20
-4.0315400000000006
 30
0.0
 10
-0.00239
 20
-3.1577800000000003
 30
0.0
 10
-0.00239
 20
-3.1577800000000003
 30
0.0
  0
SPLINE
  5
67
100
AcDbEntity
  8
Ebene 1
 62
     7
100
AcDbSpline
210
0.0
220
0.0
230
1.0
 70
     1
 71
     3
 72
    12
 73
     8
 74
     0
 42
0.0000000001
 43
0.0000000001
 40
0.0
 40
0.0
 40
0.0
 40
0.0
 40
0.5
 40
0.5
 40
0.5
 40
0.5
 40
1.0
 40
1.0
 40
1.0
 40
1.0
 10
-0.4494300000000001
 20
-3.2568400000000004
 30
0.0
 10
-0.39101
 20
-3.2568400000000004
 30
0.0
 10
-0.39101
 20
-3.3381200000000004
 30
0.0
 10
-0.43419
 20
-3.3584400000000003
 30
0.0
 10
-0.43419
 20
-3.3584400000000003
 30
0.0
 10
-0.4799100000000001
 20
-3.3457400000000002
 30
0.0
 10
-0.4697500000000001
 20
-3.2847800000000005
 30
0.0
 10
-0.4494300000000001
 20
-3.2568400000000004
 30
0.0
  0
SPLINE
  5
68
100
AcDbEntity
  8
Ebene 1
 62
     7
100
AcDbSpline
210
0.0
220
0.0
230
1.0
 70
     1
 71
     3
 72
    12
 73
     8
 74
     0
 42
0.0000000001
 43
0.0000000001
 40
0.0
 40
0.0
 40
0.0
 40
0.0
 40
0.5
 40
0.5
 40
0.5
 40
0.5
 40
1.0
 40
1.0
 40
1.0
 40
1.0
 10
-0.5205500000000001
 20
-3.3584400000000003
 30
0.0
 10
-0.4900700000000001
 20
-3.3660600000000005
 30
0.0
 10
-0.48753
 20
-3.4041600000000001
 30
0.0
 10
-0.49515
 20
-3.4270200000000002
 30
0.0
 10
-0.49515
 20
-3.4270200000000002
 30
0.0
 10
-0.52817
 20
-3.4244800000000004
 30
0.0
 10
-0.5205500000000001
 20
-3.3813000000000004
 30
0.0
 10
-0.5205500000000001
 20
-3.3584400000000003
 30
0.0
  0
SPLINE
  5
69
100
AcDbEntity
  8
Ebene 1
 62
     7
100
AcDbSpline
210
0.0
220
0.0
230
1.0
 70
     1
 71
     3
 72
    16
 73
    12
 74
     0
 42
0.0000000001
 43
0.0000000001
 40
0.0
 40
0.0
 40
0.0
 40
0.0
 40
0.3333333333333333
 40
0.3333333333333333
 40
0.3333333333333333
 40
0.3333333333333333
 40
0.6666666666666666
 40
0.6666666666666666
 40
0.6666666666666666
 40
0.6666666666666666
 40
1.0
 40
1.0
 40
1.0
 40
1.0
 10
2.4410800000000004
 20
-3.8029400000000004
 30
0.0
 10
2.2074000000000003
 20
-3.5972000000000004
 30
0.0
 10
2.5477600000000002
 20
-3.3635200000000003
 30
0.0
 10
2.7763600000000004
 20
-3.3609800000000001
 30
0.0
 10
2.7763600000000004
 20
-3.3609800000000001
 30
0.0
 10
2.6341200000000002
 20
-3.4448000000000003
 30
0.0
 10
2.34456
 20
-3.5387800000000005
 30
0.0
 10
2.4614000000000003
 20
-3.7623000000000002
 30
0.0
 10
2.4614000000000003
 20
-3.7623000000000002
 30
0.0
 10
2.4614000000000003
 20
-3.7623000000000002
 30
0.0
 10
2.4410800000000004
 20
-3.8029400000000004
 30
0.0
 10
2.4410800000000004
 20
-3.8029400000000004
 30
0.0
  0
SPLINE
  5
6A
100
AcDbEntity
  8
Ebene 1
 62
     7
100
AcDbSpline
210
0.0
220
0.0
230
1.0
 70
     1
 71
     3
 72
    12
 73
     8
 74
     0
 42
0.0000000001
 43
0.0000000001
 40
0.0
 40
0.0
 40
0.0
 40
0.0
 40
0.5
 40
0.5
 40
0.5
 40
0.5
 40
1.0
 40
1.0
 40
1.0
 40
1.0
 10
-0.6094500000000001
 20
-3.4168600000000002
 30
0.0
 10
-0.5586500000000001
 20
-3.4219400000000002
 30
0.0
 10
-0.50531
 20
-3.5133800000000002
 30
0.0
 10
-0.5789700000000001
 20
-3.5311600000000003
 30
0.0
 10
-0.5789700000000001
 20
-3.5311600000000003
 30
0.0
 10
-0.6272300000000001
 20
-3.5159200000000004
 30
0.0
 10
-0.63485
 20
-3.4524200000000005
 30
0.0
 10
-0.6094500000000001
 20
-3.4168600000000002
 30
0.0
  0
SPLINE
  5
6B
100
AcDbEntity
  8
Ebene 1
 62
     7
100
AcDbSpline
210
0.0
220
0.0
230
1.0
 70
     1
 71
     3
 72
    16
 73
    12
 74
     0
 42
0.0000000001
 43
0.0000000001
 40
0.0
 40
0.0
 40
0.0
 40
0.0
 40
0.3333333333333333
 40
0.3333333333333333
 40
0.3333333333333333
 40
0.3333333333333333
 40
0.6666666666666666
 40
0.6666666666666666
 40
0.6666666666666666
 40
0.6666666666666666
 40
1.0
 40
1.0
 40
1.0
 40
1.0
 10
-0.9828300000000001
 20
-3.5032200000000002
 30
0.0
 10
-0.9828300000000001
 20
-3.5032200000000002
 30
0.0
 10
-0.92949
 20
-3.5057600000000004
 30
0.0
 10
-0.92949
 20
-3.5057600000000004
 30
0.0
 10
-0.92949
 20
-3.5057600000000004
 30
0.0
 10
-1.08951
 20
-3.6124400000000003
 30
0.0
 10
-1.3028700000000002
 20
-3.6607000000000003
 30
0.0
 10
-1.4832100000000001
 20
-3.7292800000000002
 30
0.0
 10
-1.4832100000000001
 20
-3.7292800000000002
 30
0.0
 10
-1.33843
 20
-3.6353000000000004
 30
0.0
 10
-1.1453900000000001
 20
-3.5641800000000003
 30
0.0
 10
-0.9828300000000001
 20
-3.5032200000000002
 30
0.0
  0
SPLINE
  5
6C
100
AcDbEntity
  8
Ebene 1
 62
     7
100
AcDbSpline
210
0.0
220
0.0
230
1.0
 70
     1
 71
     3
 72
    12
 73
     8
 74
     0
 42
0.0000000001
 43
0.0000000001
 40
0.0
 40
0.0
 40
0.0
 40
0.0
 40
0.5
 40
0.5
 40
0.5
 40
0.5
 40
1.0
 40
1.0
 40
1.0
 40
1.0
 10
-0.69581
 20
-3.5032200000000002
 30
0.0
 10
-0.65771
 20
-3.5083000000000002
 30
0.0
 10
-0.63485
 20
-3.5692600000000003
 30
0.0
 10
-0.6246900000000001
 20
-3.5997400000000002
 30
0.0
 10
-0.6246900000000001
 20
-3.5997400000000002
 30
0.0
 10
-0.66025
 20
-3.5845000000000002
 30
0.0
 10
-0.6907300000000001
 20
-3.5438600000000005
 30
0.0
 10
-0.69581
 20
-3.5032200000000002
 30
0.0
  0
SPLINE
  5
6D
100
AcDbEntity
  8
Ebene 1
 62
     7
100
AcDbSpline
210
0.0
220
0.0
230
1.0
 70
     1
 71
     3
 72
    12
 73
     8
 74
     0
 42
0.0000000001
 43
0.0000000001
 40
0.0
 40
0.0
 40
0.0
 40
0.0
 40
0.5
 40
0.5
 40
0.5
 40
0.5
 40
1.0
 40
1.0
 40
1.0
 40
1.0
 10
-0.7669300000000001
 20
-3.5768800000000005
 30
0.0
 10
-0.71613
 20
-3.5667200000000001
 30
0.0
 10
-0.68057
 20
-3.6353000000000004
 30
0.0
 10
-0.6678700000000001
 20
-3.6734000000000004
 30
0.0
 10
-0.6678700000000001
 20
-3.6734000000000004
 30
0.0
 10
-0.72121
 20
-3.7267400000000004
 30
0.0
 10
-0.7694700000000001
 20
-3.6200600000000005
 30
0.0
 10
-0.7669300000000001
 20
-3.5768800000000005
 30
0.0
  0
SPLINE
  5
6E
100
AcDbEntity
  8
Ebene 1
 62
     7
100
AcDbSpline
210
0.0
220
0.0
230
1.0
 70
     1
 71
     3
 72
    12
 73
     8
 74
     0
 42
0.0000000001
 43
0.0000000001
 40
0.0
 40
0.0
 40
0.0
 40
0.0
 40
0.5
 40
0.5
 40
0.5
 40
0.5
 40
1.0
 40
1.0
 40
1.0
 40
1.0
 10
-0.82535
 20
-3.6480000000000001
 30
0.0
 10
-0.7872500000000001
 20
-3.6581600000000001
 30
0.0
 10
-0.7542300000000001
 20
-3.7242000000000002
 30
0.0
 10
-0.74153
 20
-3.7572200000000002
 30
0.0
 10
-0.74153
 20
-3.7572200000000002
 30
0.0
 10
-0.7872500000000001
 20
-3.7623000000000002
 30
0.0
 10
-0.86853
 20
-3.6988000000000003
 30
0.0
 10
-0.82535
 20
-3.6480000000000001
 30
0.0
  0
SPLINE
  5
6F
100
AcDbEntity
  8
Ebene 1
 62
     7
100
AcDbSpline
210
0.0
220
0.0
230
1.0
 70
     1
 71
     3
 72
    24
 73
    20
 74
     0
 42
0.0000000001
 43
0.0000000001
 40
0.0
 40
0.0
 40
0.0
 40
0.0
 40
0.2
 40
0.2
 40
0.2
 40
0.2
 40
0.4
 40
0.4
 40
0.4
 40
0.4
 40
0.6000000000000001
 40
0.6000000000000001
 40
0.6000000000000001
 40
0.6000000000000001
 40
0.8
 40
0.8
 40
0.8
 40
0.8
 40
1.0
 40
1.0
 40
1.0
 40
1.0
 10
-1.0539500000000002
 20
-3.7343600000000001
 30
0.0
 10
-1.1072900000000001
 20
-4.0823400000000003
 30
0.0
 10
-1.6965700000000001
 20
-4.1255200000000007
 30
0.0
 10
-1.9454900000000002
 20
-3.9172400000000005
 30
0.0
 10
-1.9454900000000002
 20
-3.9172400000000005
 30
0.0
 10
-1.9581900000000001
 20
-3.8893000000000004
 30
0.0
 10
-1.9734300000000002
 20
-3.8588200000000001
 30
0.0
 10
-1.9581900000000001
 20
-3.8232600000000003
 30
0.0
 10
-1.9581900000000001
 20
-3.8232600000000003
 30
0.0
 10
-1.9581900000000001
 20
-3.8232600000000003
 30
0.0
 10
-1.8921500000000002
 20
-3.7623000000000002
 30
0.0
 10
-1.8921500000000002
 20
-3.7623000000000002
 30
0.0
 10
-1.8921500000000002
 20
-3.7623000000000002
 30
0.0
 10
-1.8921500000000002
 20
-3.7623000000000002
 30
0.0
 10
-1.8438900000000003
 20
-3.8588200000000001
 30
0.0
 10
-1.8438900000000003
 20
-3.8588200000000001
 30
0.0
 10
-1.8438900000000003
 20
-3.8588200000000001
 30
0.0
 10
-1.5771900000000001
 20
-3.9020000000000001
 30
0.0
 10
-1.29779
 20
-3.8105600000000002
 30
0.0
 10
-1.0539500000000002
 20
-3.7343600000000001
 30
0.0
  0
SPLINE
  5
70
100
AcDbEntity
  8
Ebene 1
 62
     7
100
AcDbSpline
210
0.0
220
0.0
230
1.0
 70
     1
 71
     3
 72
    12
 73
     8
 74
     0
 42
0.0000000001
 43
0.0000000001
 40
0.0
 40
0.0
 40
0.0
 40
0.0
 40
0.5
 40
0.5
 40
0.5
 40
0.5
 40
1.0
 40
1.0
 40
1.0
 40
1.0
 10
-0.8964700000000001
 20
-3.7343600000000001
 30
0.0
 10
-0.8964700000000001
 20
-3.7343600000000001
 30
0.0
 10
-0.7694700000000001
 20
-3.8308800000000005
 30
0.0
 10
-0.7694700000000001
 20
-3.8308800000000005
 30
0.0
 10
-0.7694700000000001
 20
-3.8308800000000005
 30
0.0
 10
-0.8101100000000001
 20
-3.8537400000000002
 30
0.0
 10
-0.9396500000000001
 20
-3.7902400000000003
 30
0.0
 10
-0.8964700000000001
 20
-3.7343600000000001
 30
0.0
  0
SPLINE
  5
71
100
AcDbEntity
  8
Ebene 1
 62
     7
100
AcDbSpline
210
0.0
220
0.0
230
1.0
 70
     1
 71
     3
 72
    16
 73
    12
 74
     0
 42
0.0000000001
 43
0.0000000001
 40
0.0
 40
0.0
 40
0.0
 40
0.0
 40
0.3333333333333333
 40
0.3333333333333333
 40
0.3333333333333333
 40
0.3333333333333333
 40
0.6666666666666666
 40
0.6666666666666666
 40
0.6666666666666666
 40
0.6666666666666666
 40
1.0
 40
1.0
 40
1.0
 40
1.0
 10
-0.9396500000000001
 20
-3.8054800000000002
 30
0.0
 10
-0.9396500000000001
 20
-3.8054800000000002
 30
0.0
 10
-0.9142500000000001
 20
-3.8080200000000004
 30
0.0
 10
-0.9142500000000001
 20
-3.8080200000000004
 30
0.0
 10
-0.9142500000000001
 20
-3.8080200000000004
 30
0.0
 10
-0.9244100000000001
 20
-3.8766000000000003
 30
0.0
 10
-0.7770900000000001
 20
-3.8740600000000005
 30
0.0
 10
-0.82789
 20
-3.9451800000000001
 30
0.0
 10
-0.82789
 20
-3.9451800000000001
 30
0.0
 10
-0.8913900000000001
 20
-3.9502600000000001
 30
0.0
 10
-0.9853700000000001
 20
-3.8766000000000003
 30
0.0
 10
-0.9396500000000001
 20
-3.8054800000000002
 30
0.0
  0
SPLINE
  5
72
100
AcDbEntity
  8
Ebene 1
 62
     7
100
AcDbSpline
210
0.0
220
0.0
230
1.0
 70
     1
 71
     3
 72
    12
 73
     8
 74
     0
 42
0.0000000001
 43
0.0000000001
 40
0.0
 40
0.0
 40
0.0
 40
0.0
 40
0.5
 40
0.5
 40
0.5
 40
0.5
 40
1.0
 40
1.0
 40
1.0
 40
1.0
 10
-0.9980700000000001
 20
-3.9350200000000002
 30
0.0
 10
-0.9447300000000001
 20
-3.9451800000000001
 30
0.0
 10
-0.8736100000000001
 20
-3.9756600000000004
 30
0.0
 10
-0.8558300000000001
 20
-4.0315400000000006
 30
0.0
 10
-0.8558300000000001
 20
-4.0315400000000006
 30
0.0
 10
-0.9066300000000001
 20
-4.0239200000000004
 30
0.0
 10
-1.00061
 20
-4.0010600000000007
 30
0.0
 10
-0.9980700000000001
 20
-3.9350200000000002
 30
0.0
  0
SPLINE
  5
73
100
AcDbEntity
  8
Ebene 1
 62
     7
100
AcDbSpline
210
0.0
220
0.0
230
1.0
 70
     1
 71
     3
 72
    24
 73
    20
 74
     0
 42
0.0000000001
 43
0.0000000001
 40
0.0
 40
0.0
 40
0.0
 40
0.0
 40
0.2
 40
0.2
 40
0.2
 40
0.2
 40
0.4
 40
0.4
 40
0.4
 40
0.4
 40
0.6000000000000001
 40
0.6000000000000001
 40
0.6000000000000001
 40
0.6000000000000001
 40
0.8
 40
0.8
 40
0.8
 40
0.8
 40
1.0
 40
1.0
 40
1.0
 40
1.0
 10
-1.0691900000000001
 20
-4.0798000000000005
 30
0.0
 10
-1.00061
 20
-4.0874200000000007
 30
0.0
 10
-0.8837700000000001
 20
-4.1102800000000004
 30
0.0
 10
-0.8837700000000001
 20
-4.1941000000000006
 30
0.0
 10
-0.8837700000000001
 20
-4.1941000000000006
 30
0.0
 10
-1.4451100000000001
 20
-6.0203600000000002
 30
0.0
 10
1.2625200000000001
 20
-7.343700000000001
 30
0.0
 10
2.5172800000000004
 20
-6.1321200000000005
 30
0.0
 10
2.5172800000000004
 20
-6.1321200000000005
 30
0.0
 10
2.5909400000000002
 20
-6.1194200000000007
 30
0.0
 10
2.6468200000000004
 20
-6.0000400000000003
 30
0.0
 10
2.7204800000000002
 20
-6.0584600000000002
 30
0.0
 10
2.7204800000000002
 20
-6.0584600000000002
 30
0.0
 10
2.4461600000000003
 20
-6.9931800000000006
 30
0.0
 10
1.3641200000000002
 20
-7.1227200000000002
 30
0.0
 10
0.52846
 20
-6.9779400000000003
 30
0.0
 10
0.52846
 20
-6.9779400000000003
 30
0.0
 10
-0.55103
 20
-6.5461400000000003
 30
0.0
 10
-1.6889500000000002
 20
-5.2863000000000007
 30
0.0
 10
-1.0691900000000001
 20
-4.0798000000000005
 30
0.0
  0
SPLINE
  5
74
100
AcDbEntity
  8
Ebene 1
 62
     7
100
AcDbSpline
210
0.0
220
0.0
230
1.0
 70
     1
 71
     3
 72
    12
 73
     8
 74
     0
 42
0.0000000001
 43
0.0000000001
 40
0.0
 40
0.0
 40
0.0
 40
0.0
 40
0.5
 40
0.5
 40
0.5
 40
0.5
 40
1.0
 40
1.0
 40
1.0
 40
1.0
 10
-1.8337300000000001
 20
-4.2245800000000004
 30
0.0
 10
-1.7524500000000001
 20
-4.2449000000000003
 30
0.0
 10
-2.06487
 20
-4.3617400000000002
 30
0.0
 10
-1.9302500000000002
 20
-4.2703000000000007
 30
0.0
 10
-1.9302500000000002
 20
-4.2703000000000007
 30
0.0
 10
-1.8946900000000002
 20
-4.2652200000000002
 30
0.0
 10
-1.8540500000000002
 20
-4.2474400000000001
 30
0.0
 10
-1.8337300000000001
 20
-4.2245800000000004
 30
0.0
  0
SPLINE
  5
75
100
AcDbEntity
  8
Ebene 1
100
AcDbSpline
210
0.0
220
0.0
230
1.0
 70
     1
 71
     3
 72
    20
 73
    16
 74
     0
 42
0.0000000001
 43
0.0000000001
 40
0.0
 40
0.0
 40
0.0
 40
0.0
 40
0.25
 40
0.25
 40
0.25
 40
0.25
 40
0.5
 40
0.5
 40
0.5
 40
0.5
 40
0.75
 40
0.75
 40
0.75
 40
0.75
 40
1.0
 40
1.0
 40
1.0
 40
1.0
 10
2.8347800000000003
 20
-4.2957000000000001
 30
0.0
 10
2.8347800000000003
 20
-4.2957000000000001
 30
0.0
 10
2.9059000000000004
 20
-4.3109400000000004
 30
0.0
 10
2.9059000000000004
 20
-4.3109400000000004
 30
0.0
 10
2.9059000000000004
 20
-4.3109400000000004
 30
0.0
 10
2.9363800000000002
 20
-5.1237400000000006
 30
0.0
 10
2.4309200000000004
 20
-6.0584600000000002
 30
0.0
 10
1.5952600000000001
 20
-6.2388000000000003
 30
0.0
 10
1.5952600000000001
 20
-6.2388000000000003
 30
0.0
 10
2.30138
 20
-5.8984400000000008
 30
0.0
 10
2.6620600000000003
 20
-5.0856400000000006
 30
0.0
 10
2.6036400000000004
 20
-4.3287200000000006
 30
0.0
 10
2.6036400000000004
 20
-4.3287200000000006
 30
0.0
 10
2.6036400000000004
 20
-4.3287200000000006
 30
0.0
 10
2.8347800000000003
 20
-4.2957000000000001
 30
0.0
 10
2.8347800000000003
 20
-4.2957000000000001
 30
0.0
  0
SPLINE
  5
76
100
AcDbEntity
  8
Ebene 1
 62
     7
100
AcDbSpline
210
0.0
220
0.0
230
1.0
 70
     1
 71
     3
 72
    24
 73
    20
 74
     0
 42
0.0000000001
 43
0.0000000001
 40
0.0
 40
0.0
 40
0.0
 40
0.0
 40
0.2
 40
0.2
 40
0.2
 40
0.2
 40
0.4
 40
0.4
 40
0.4
 40
0.4
 40
0.6000000000000001
 40
0.6000000000000001
 40
0.6000000000000001
 40
0.6000000000000001
 40
0.8
 40
0.8
 40
0.8
 40
0.8
 40
1.0
 40
1.0
 40
1.0
 40
1.0
 10
-2.1791700000000001
 20
-4.44048
 30
0.0
 10
-2.1791700000000001
 20
-4.44048
 30
0.0
 10
-2.0953500000000003
 20
-4.4430200000000006
 30
0.0
 10
-2.0953500000000003
 20
-4.4430200000000006
 30
0.0
 10
-2.0953500000000003
 20
-4.4430200000000006
 30
0.0
 10
-1.8896100000000002
 20
-4.6106600000000002
 30
0.0
 10
-1.5644900000000002
 20
-4.4354000000000005
 30
0.0
 10
-1.3460500000000002
 20
-4.5141400000000003
 30
0.0
 10
-1.3460500000000002
 20
-4.5141400000000003
 30
0.0
 10
-1.3460500000000002
 20
-4.5141400000000003
 30
0.0
 10
-1.37653
 20
-4.6233600000000008
 30
0.0
 10
-1.37653
 20
-4.6233600000000008
 30
0.0
 10
-1.37653
 20
-4.6233600000000008
 30
0.0
 10
-1.6152900000000001
 20
-4.7910000000000004
 30
0.0
 10
-2.0242300000000002
 20
-4.7630600000000003
 30
0.0
 10
-2.2071100000000001
 20
-4.52684
 30
0.0
 10
-2.2071100000000001
 20
-4.52684
 30
0.0
 10
-2.2198100000000003
 20
-4.4912800000000006
 30
0.0
 10
-2.1994900000000004
 20
-4.4658800000000003
 30
0.0
 10
-2.1791700000000001
 20
-4.44048
 30
0.0
  0
SPLINE
  5
77
100
AcDbEntity
  8
Ebene 1
100
AcDbSpline
210
0.0
220
0.0
230
1.0
 70
     1
 71
     3
 72
    20
 73
    16
 74
     0
 42
0.0000000001
 43
0.0000000001
 40
0.0
 40
0.0
 40
0.0
 40
0.0
 40
0.25
 40
0.25
 40
0.25
 40
0.25
 40
0.5
 40
0.5
 40
0.5
 40
0.5
 40
0.75
 40
0.75
 40
0.75
 40
0.75
 40
1.0
 40
1.0
 40
1.0
 40
1.0
 10
-0.6500900000000001
 20
-4.4557200000000003
 30
0.0
 10
-0.5865900000000001
 20
-4.4811200000000007
 30
0.0
 10
-0.5637300000000001
 20
-4.6132
 30
0.0
 10
-0.46721
 20
-4.6436800000000007
 30
0.0
 10
-0.46721
 20
-4.6436800000000007
 30
0.0
 10
-0.4062500000000001
 20
-5.11104
 30
0.0
 10
-0.19035
 20
-5.6342800000000004
 30
0.0
 10
0.26938
 20
-5.8425600000000006
 30
0.0
 10
0.26938
 20
-5.8425600000000006
 30
0.0
 10
0.26938
 20
-5.8425600000000006
 30
0.0
 10
0.28208
 20
-5.9060600000000001
 30
0.0
 10
0.28208
 20
-5.9060600000000001
 30
0.0
 10
0.28208
 20
-5.9060600000000001
 30
0.0
 10
-0.26147
 20
-5.6749200000000002
 30
0.0
 10
-0.7745500000000001
 20
-5.0958000000000006
 30
0.0
 10
-0.6500900000000001
 20
-4.4557200000000003
 30
0.0
  0
SPLINE
  5
78
100
AcDbEntity
  8
Ebene 1
100
AcDbSpline
210
0.0
220
0.0
230
1.0
 70
     1
 71
     3
 72
    44
 73
    40
 74
     0
 42
0.0000000001
 43
0.0000000001
 40
0.0
 40
0.0
 40
0.0
 40
0.0
 40
0.1
 40
0.1
 40
0.1
 40
0.1
 40
0.2
 40
0.2
 40
0.2
 40
0.2
 40
0.3
 40
0.3
 40
0.3
 40
0.3
 40
0.4
 40
0.4
 40
0.4
 40
0.4
 40
0.5
 40
0.5
 40
0.5
 40
0.5
 40
0.6
 40
0.6
 40
0.6
 40
0.6
 40
0.7
 40
0.7
 40
0.7
 40
0.7
 40
0.7999999999999999
 40
0.7999999999999999
 40
0.7999999999999999
 40
0.7999999999999999
 40
0.8999999999999999
 40
0.8999999999999999
 40
0.8999999999999999
 40
0.8999999999999999
 40
1.0
 40
1.0
 40
1.0
 40
1.0
 10
1.9127600000000002
 20
-4.6132
 30
0.0
 10
1.9559400000000002
 20
-4.5979600000000005
 30
0.0
 10
1.9559400000000002
 20
-4.6386000000000003
 30
0.0
 10
1.9559400000000002
 20
-4.6716200000000008
 30
0.0
 10
1.9559400000000002
 20
-4.6716200000000008
 30
0.0
 10
1.7095600000000002
 20
-5.0450000000000008
 30
0.0
 10
2.2302600000000004
 20
-5.6215800000000007
 30
0.0
 10
1.6816200000000001
 20
-5.8197000000000001
 30
0.0
 10
1.6816200000000001
 20
-5.8197000000000001
 30
0.0
 10
1.6663800000000002
 20
-5.8095400000000001
 30
0.0
 10
1.6663800000000002
 20
-5.7892200000000003
 30
0.0
 10
1.6663800000000002
 20
-5.7689000000000004
 30
0.0
 10
1.6663800000000002
 20
-5.7689000000000004
 30
0.0
 10
1.9991200000000002
 20
-5.5987200000000001
 30
0.0
 10
1.8264000000000002
 20
-5.2151800000000001
 30
0.0
 10
1.7400400000000003
 20
-4.9637200000000004
 30
0.0
 10
1.7400400000000003
 20
-4.9637200000000004
 30
0.0
 10
1.69432
 20
-5.0196000000000005
 30
0.0
 10
1.65368
 20
-5.07294
 30
0.0
 10
1.5952600000000001
 20
-5.1135800000000007
 30
0.0
 10
1.5952600000000001
 20
-5.1135800000000007
 30
0.0
 10
1.4073000000000002
 20
-5.3142400000000007
 30
0.0
 10
1.0898000000000001
 20
-5.4514000000000005
 30
0.0
 10
1.14822
 20
-5.7638200000000008
 30
0.0
 10
1.14822
 20
-5.7638200000000008
 30
0.0
 10
1.14822
 20
-5.7638200000000008
 30
0.0
 10
1.06186
 20
-5.7638200000000008
 30
0.0
 10
1.06186
 20
-5.7638200000000008
 30
0.0
 10
1.06186
 20
-5.7638200000000008
 30
0.0
 10
1.06186
 20
-5.7638200000000008
 30
0.0
 10
1.1634600000000002
 20
-5.8197000000000001
 30
0.0
 10
1.1634600000000002
 20
-5.8197000000000001
 30
0.0
 10
1.1634600000000002
 20
-5.8197000000000001
 30
0.0
 10
0.8739000000000001
 20
-5.8476400000000002
 30
0.0
 10
0.8154800000000001
 20
-5.5098200000000004
 30
0.0
 10
0.9170800000000001
 20
-5.3091600000000003
 30
0.0
 10
0.9170800000000001
 20
-5.3091600000000003
 30
0.0
 10
1.27776
 20
-5.1618400000000007
 30
0.0
 10
1.65368
 20
-4.9357800000000003
 30
0.0
 10
1.9127600000000002
 20
-4.6132
 30
0.0
  0
SPLINE
  5
79
100
AcDbEntity
  8
Ebene 1
 62
     7
100
AcDbSpline
210
0.0
220
0.0
230
1.0
 70
     1
 71
     3
 72
    20
 73
    16
 74
     0
 42
0.0000000001
 43
0.0000000001
 40
0.0
 40
0.0
 40
0.0
 40
0.0
 40
0.25
 40
0.25
 40
0.25
 40
0.25
 40
0.5
 40
0.5
 40
0.5
 40
0.5
 40
0.75
 40
0.75
 40
0.75
 40
0.75
 40
1.0
 40
1.0
 40
1.0
 40
1.0
 10
-2.2020300000000002
 20
-4.9891200000000007
 30
0.0
 10
-1.9683500000000003
 20
-5.2050200000000002
 30
0.0
 10
-1.6229100000000001
 20
-5.1821600000000005
 30
0.0
 10
-1.3130300000000001
 20
-5.2075600000000009
 30
0.0
 10
-1.3130300000000001
 20
-5.2075600000000009
 30
0.0
 10
-1.3130300000000001
 20
-5.2075600000000009
 30
0.0
 10
-1.2749300000000001
 20
-5.3599600000000001
 30
0.0
 10
-1.2749300000000001
 20
-5.3599600000000001
 30
0.0
 10
-1.2749300000000001
 20
-5.3599600000000001
 30
0.0
 10
-1.5822700000000001
 20
-5.4996600000000004
 30
0.0
 10
-2.0724900000000002
 20
-5.4437800000000003
 30
0.0
 10
-2.2553700000000001
 20
-5.1034200000000007
 30
0.0
 10
-2.2553700000000001
 20
-5.1034200000000007
 30
0.0
 10
-2.27061
 20
-5.0475400000000006
 30
0.0
 10
-2.2198100000000003
 20
-5.0272200000000007
 30
0.0
 10
-2.2020300000000002
 20
-4.9891200000000007
 30
0.0
  0
SPLINE
  5
7A
100
AcDbEntity
  8
Ebene 1
 62
     7
100
AcDbSpline
210
0.0
220
0.0
230
1.0
 70
     1
 71
     3
 72
    20
 73
    16
 74
     0
 42
0.0000000001
 43
0.0000000001
 40
0.0
 40
0.0
 40
0.0
 40
0.0
 40
0.25
 40
0.25
 40
0.25
 40
0.25
 40
0.5
 40
0.5
 40
0.5
 40
0.5
 40
0.75
 40
0.75
 40
0.75
 40
0.75
 40
1.0
 40
1.0
 40
1.0
 40
1.0
 10
1.1761600000000001
 20
-5.2761400000000007
 30
0.0
 10
1.1761600000000001
 20
-5.2761400000000007
 30
0.0
 10
1.2193400000000001
 20
-5.2863000000000007
 30
0.0
 10
1.2193400000000001
 20
-5.2863000000000007
 30
0.0
 10
1.2193400000000001
 20
-5.2863000000000007
 30
0.0
 10
1.1761600000000001
 20
-5.2964600000000006
 30
0.0
 10
1.0339200000000002
 20
-5.4158400000000002
 30
0.0
 10
1.06186
 20
-5.32186
 30
0.0
 10
1.06186
 20
-5.32186
 30
0.0
 10
1.06186
 20
-5.32186
 30
0.0
 10
1.10504
 20
-5.2939200000000008
 30
0.0
 10
1.10504
 20
-5.2939200000000008
 30
0.0
 10
1.10504
 20
-5.2939200000000008
 30
0.0
 10
1.10504
 20
-5.2939200000000008
 30
0.0
 10
1.1761600000000001
 20
-5.2761400000000007
 30
0.0
 10
1.1761600000000001
 20
-5.2761400000000007
 30
0.0
  0
SPLINE
  5
7B
100
AcDbEntity
  8
Ebene 1
 62
     7
100
AcDbSpline
210
0.0
220
0.0
230
1.0
 70
     1
 71
     3
 72
    20
 73
    16
 74
     0
 42
0.0000000001
 43
0.0000000001
 40
0.0
 40
0.0
 40
0.0
 40
0.0
 40
0.25
 40
0.25
 40
0.25
 40
0.25
 40
0.5
 40
0.5
 40
0.5
 40
0.5
 40
0.75
 40
0.75
 40
0.75
 40
0.75
 40
1.0
 40
1.0
 40
1.0
 40
1.0
 10
-2.1359900000000001
 20
-5.6215800000000007
 30
0.0
 10
-1.8388100000000001
 20
-6.0533800000000006
 30
0.0
 10
-1.1098300000000001
 20
-5.8044600000000006
 30
0.0
 10
-0.8101100000000001
 20
-6.2134000000000009
 30
0.0
 10
-0.8101100000000001
 20
-6.2134000000000009
 30
0.0
 10
-0.82789
 20
-6.2591200000000002
 30
0.0
 10
-0.8710700000000001
 20
-6.2718200000000008
 30
0.0
 10
-0.91171
 20
-6.2870600000000003
 30
0.0
 10
-0.91171
 20
-6.2870600000000003
 30
0.0
 10
-1.3511300000000002
 20
-6.1676800000000007
 30
0.0
 10
-1.9658100000000001
 20
-6.2159400000000007
 30
0.0
 10
-2.2071100000000001
 20
-5.7384200000000005
 30
0.0
 10
-2.2071100000000001
 20
-5.7384200000000005
 30
0.0
 10
-2.2172700000000001
 20
-5.6850800000000001
 30
0.0
 10
-2.1690100000000001
 20
-5.6495200000000008
 30
0.0
 10
-2.1359900000000001
 20
-5.6215800000000007
 30
0.0
  0
ENDSEC
  0
SECTION
  2
OBJECTS
  0
DICTIONARY
  5
19
100
AcDbDictionary
280
     0
281
     1
  3
ACAD_GROUP
350
1A
  3
ACAD_MLINESTYLE
350
1B
  3
ACAD_LAYOUT
350
1E
  3
ACAD_PLOTSETTINGS
350
22
  3
ACAD_PLOTSTYLENAME
350
1F
  3
ACAD_WIPEOUT_VARS
350
23
  0
DICTIONARY
  5
1A
102
{ACAD_REACTORS
330
19
102
}
100
AcDbDictionary
280
     0
281
     1
  0
DICTIONARY
  5
1B
102
{ACAD_REACTORS
330
19
102
}
100
AcDbDictionary
280
     0
281
     1
  3
Standard
350
1C
  0
MLINESTYLE
  5
1C
102
{ACAD_REACTORS
330
1B
102
}
100
AcDbMlineStyle
  2
Standard
 70
     0
  3

 62
     0
 51
90.0
 52
90.0
 71
     2
 49
0.5
 62
   256
  6
BYLAYER
 49
-0.5
 62
   256
  6
BYLAYER
  0
ACDBDICTIONARYWDFLT
  5
1F
102
{ACAD_REACTORS
330
19
102
}
100
AcDbDictionary
281
     1
  3
Normal
350
1D
100
AcDbDictionaryWithDefault
340
1D
  0
ACDBPLACEHOLDER
  5
1D
102
{ACAD_REACTORS
330
1F
102
}
  0
LAYOUT
  5
20
102
{ACAD_REACTORS
330
1E
102
}
100
AcDbPlotSettings
  1

  2

  4

  6

 40
0.0
 41
0.0
 42
0.0
 43
0.0
 44
0.0
 45
0.0
 46
0.0
 47
0.0
 48
0.0
 49
0.0
140
0.0
141
0.0
142
1.0
143
1.0
 70
  1024
 72
     0
 73
     0
 74
     0
  7

 75
     0
147
1.0
148
0.0
149
0.0
100
AcDbLayout
  1
Model
 70
     0
 71
     0
 10
0.0
 20
0.0
 11
0.0
 21
0.0
 12
0.0
 22
0.0
 32
0.0
 14
0.0
 24
0.0
 34
0.0
 15
0.0
 25
0.0
 35
0.0
146
0.0
 13
0.0
 23
0.0
 33
0.0
 16
0.0
 26
0.0
 36
0.0
 17
0.0
 27
0.0
 37
0.0
 76
     0
330
A
331
0
345
0
346
0
  0
LAYOUT
  5
21
102
{ACAD_REACTORS
330
1E
102
}
100
AcDbPlotSettings
  1

  2

  4

  6

 40
0.0
 41
0.0
 42
0.0
 43
0.0
 44
0.0
 45
0.0
 46
0.0
 47
0.0
 48
0.0
 49
0.0
140
0.0
141
0.0
142
1.0
143
1.0
 70
     0
 72
     0
 73
     0
 74
     0
  7

 75
     0
147
1.0
148
0.0
149
0.0
100
AcDbLayout
  1
Layout1
 70
     0
 71
     0
 10
0.0
 20
0.0
 11
0.0
 21
0.0
 12
0.0
 22
0.0
 32
0.0
 14
0.0
 24
0.0
 34
0.0
 15
0.0
 25
0.0
 35
0.0
146
0.0
 13
0.0
 23
0.0
 33
0.0
 16
0.0
 26
0.0
 36
0.0
 17
0.0
 27
0.0
 37
0.0
 76
     0
330
B
331
0
345
0
346
0
  0
DICTIONARY
  5
1E
102
{ACAD_REACTORS
330
19
102
}
100
AcDbDictionary
280
     0
281
     1
  3
Layout1
350
21
  3
Model
350
20
  0
DICTIONARY
  5
22
102
{ACAD_REACTORS
330
19
102
}
100
AcDbDictionary
280
     0
281
     1
  0
WIPEOUTVARIABLES
  5
23
100
AcDbWipeoutVariables
 70
     1
  0
ENDSEC
  0
EOF
