  0
SECTION
  2
HEADER
  9
$ACADVER
  1
AC1015
  9
$ACADMAINTVER
 70
     6
  9
$DWGCODEPAGE
  3
DOS850
  9
$INSBASE
 10
0.0
 20
0.0
 30
0.0
  9
$EXTMIN
 10
-4.94777
 20
-6.36072
 30
1.000000E+20
  9
$EXTMAX
 10
4.95279
 20
6.35451
 30
-1.000000E+20
  9
$LIMMIN
 10
0.0
 20
0.0
  9
$LIMMAX
 10
0.0
 20
0.0
  9
$ORTHOMODE
 70
     0
  9
$REGENMODE
 70
     1
  9
$FILLMODE
 70
     1
  9
$QTEXTMODE
 70
     0
  9
$MIRRTEXT
 70
     1
  9
$LTSCALE
 40
1.0
  9
$ATTMODE
 70
     1
  9
$TEXTSIZE
 40
0.2
  9
$TRACEWID
 40
0.05
  9
$TEXTSTYLE
  7
Standard
  9
$CLAYER
  8
0
  9
$CELTYPE
  6
Continuous
  9
$CECOLOR
 62
   256
  9
$CELTSCALE
 40
1.0
  9
$DISPSILH
 70
     0
  9
$DIMSCALE
 40
1.0
  9
$DIMASZ
 40
0.18
  9
$DIMEXO
 40
0.0625
  9
$DIMDLI
 40
0.38
  9
$DIMRND
 40
0.0
  9
$DIMDLE
 40
0.0
  9
$DIMEXE
 40
0.18
  9
$DIMTP
 40
0.0
  9
$DIMTM
 40
0.0
  9
$DIMTXT
 40
0.18
  9
$DIMCEN
 40
0.09
  9
$DIMTSZ
 40
0.0
  9
$DIMTOL
 70
     0
  9
$DIMLIM
 70
     0
  9
$DIMTIH
 70
     1
  9
$DIMTOH
 70
     1
  9
$DIMSE1
 70
     0
  9
$DIMSE2
 70
     0
  9
$DIMTAD
 70
     0
  9
$DIMZIN
 70
     0
  9
$DIMBLK
  1

  9
$DIMASO
 70
     1
  9
$DIMSHO
 70
     1
  9
$DIMPOST
  1

  9
$DIMAPOST
  1

  9
$DIMALT
 70
     0
  9
$DIMALTD
 70
     2
  9
$DIMALTF
 40
25.4
  9
$DIMLFAC
 40
1.0
  9
$DIMTOFL
 70
     0
  9
$DIMTVP
 40
0.0
  9
$DIMTIX
 70
     0
  9
$DIMSOXD
 70
     0
  9
$DIMSAH
 70
     0
  9
$DIMBLK1
  1

  9
$DIMBLK2
  1

  9
$DIMSTYLE
  2
Standard
  9
$DIMCLRD
 70
     0
  9
$DIMCLRE
 70
     0
  9
$DIMCLRT
 70
     0
  9
$DIMTFAC
 40
1.0
  9
$DIMGAP
 40
0.09
  9
$DIMJUST
 70
     0
  9
$DIMSD1
 70
     0
  9
$DIMSD2
 70
     0
  9
$DIMTOLJ
 70
     1
  9
$DIMTZIN
 70
     0
  9
$DIMALTZ
 70
     0
  9
$DIMALTTZ
 70
     0
  9
$DIMUPT
 70
     0
  9
$DIMDEC
 70
     4
  9
$DIMTDEC
 70
     4
  9
$DIMALTU
 70
     2
  9
$DIMALTTD
 70
     2
  9
$DIMTXSTY
  7
Standard
  9
$DIMAUNIT
 70
     0
  9
$DIMADEC
 70
     0
  9
$DIMALTRND
 40
0.0
  9
$DIMAZIN
 70
     0
  9
$DIMDSEP
 70
     0
  9
$DIMATFIT
 70
     3
  9
$DIMFRAC
 70
     0
  9
$DIMLDRBLK
  1

  9
$DIMLUNIT
 70
     2
  9
$DIMLWD
 70
     0
  9
$DIMLWE
 70
     0
  9
$DIMTMOVE
 70
     0
  9
$LUNITS
 70
     2
  9
$LUPREC
 70
     4
  9
$SKETCHINC
 40
0.1
  9
$FILLETRAD
 40
0.0
  9
$AUNITS
 70
     0
  9
$AUPREC
 70
     0
  9
$MENU
  1
acad
  9
$ELEVATION
 40
0.0
  9
$PELEVATION
 40
0.0
  9
$THICKNESS
 40
0.0
  9
$LIMCHECK
 70
     0
  9
$CHAMFERA
 40
0.0
  9
$CHAMFERB
 40
0.0
  9
$CHAMFERC
 40
0.0
  9
$CHAMFERD
 40
0.0
  9
$SKPOLY
 70
     0
  9
$TDCREATE
 40
0.000000000
  9
$TDUCREATE
 40
0.000000000
  9
$TDUPDATE
 40
0.000000000
  9
$TDUUPDATE
 40
0.000000000
  9
$TDINDWG
 40
0.0000000000
  9
$TDUSRTIMER
 40
0.0000000000
  9
$USRTIMER
 70
     1
  9
$ANGBASE
 50
0.0
  9
$ANGDIR
 70
     0
  9
$PDMODE
 70
     0
  9
$PDSIZE
 40
0.0
  9
$PLINEWID
 40
0.0
  9
$SPLFRAME
 70
     0
  9
$SPLINETYPE
 70
     6
  9
$SPLINESEGS
 70
     8
  9
$HANDSEED
  5
37
  9
$SURFTAB1
 70
     6
  9
$SURFTAB2
 70
     6
  9
$SURFTYPE
 70
     6
  9
$SURFU
 70
     6
  9
$SURFV
 70
     6
  9
$UCSBASE
  2

  9
$UCSNAME
  2

  9
$UCSORG
 10
0.0
 20
0.0
 30
0.0
  9
$UCSXDIR
 10
1.0
 20
0.0
 30
0.0
  9
$UCSYDIR
 10
0.0
 20
1.0
 30
0.0
  9
$UCSORTHOREF
  2

  9
$UCSORTHOVIEW
 70
     0
  9
$UCSORGTOP
 10
0.0
 20
0.0
 30
0.0
  9
$UCSORGBOTTOM
 10
0.0
 20
0.0
 30
0.0
  9
$UCSORGLEFT
 10
0.0
 20
0.0
 30
0.0
  9
$UCSORGRIGHT
 10
0.0
 20
0.0
 30
0.0
  9
$UCSORGFRONT
 10
0.0
 20
0.0
 30
0.0
  9
$UCSORGBACK
 10
0.0
 20
0.0
 30
0.0
  9
$PUCSBASE
  2

  9
$PUCSNAME
  2

  9
$PUCSORG
 10
0.0
 20
0.0
 30
0.0
  9
$PUCSXDIR
 10
1.0
 20
0.0
 30
0.0
  9
$PUCSYDIR
 10
0.0
 20
1.0
 30
0.0
  9
$PUCSORTHOREF
  2

  9
$PUCSORTHOVIEW
 70
     0
  9
$PUCSORGTOP
 10
0.0
 20
0.0
 30
0.0
  9
$PUCSORGBOTTOM
 10
0.0
 20
0.0
 30
0.0
  9
$PUCSORGLEFT
 10
0.0
 20
0.0
 30
0.0
  9
$PUCSORGRIGHT
 10
0.0
 20
0.0
 30
0.0
  9
$PUCSORGFRONT
 10
0.0
 20
0.0
 30
0.0
  9
$PUCSORGBACK
 10
0.0
 20
0.0
 30
0.0
  9
$USERI1
 70
     0
  9
$USERI2
 70
     0
  9
$USERI3
 70
     0
  9
$USERI4
 70
     0
  9
$USERI5
 70
     0
  9
$USERR1
 40
0.0
  9
$USERR2
 40
0.0
  9
$USERR3
 40
0.0
  9
$USERR4
 40
0.0
  9
$USERR5
 40
0.0
  9
$WORLDVIEW
 70
     1
  9
$SHADEDGE
 70
     3
  9
$SHADEDIF
 70
    70
  9
$TILEMODE
 70
     1
  9
$MAXACTVP
 70
    16
  9
$PINSBASE
 10
0.0
 20
0.0
 30
0.0
  9
$PLIMCHECK
 70
     0
  9
$PEXTMIN
 10
1.000000E+20
 20
1.000000E+20
 30
1.000000E+20
  9
$PEXTMAX
 10
-1.000000E+20
 20
-1.000000E+20
 30
-1.000000E+20
  9
$PLIMMIN
 10
0.0
 20
0.0
  9
$PLIMMAX
 10
12.0
 20
9.0
  9
$UNITMODE
 70
     0
  9
$VISRETAIN
 70
     0
  9
$PLINEGEN
 70
     1
  9
$PSLTSCALE
 70
     0
  9
$TREEDEPTH
 70
  3020
  9
$CMLSTYLE
  2
Standard
  9
$CMLJUST
 70
     0
  9
$CMLSCALE
 40
1.0
  9
$PROXYGRAPHICS
 70
     0
  9
$MEASUREMENT
 70
     0
  9
$CELWEIGHT
370
     0
  9
$ENDCAPS
280
     0
  9
$JOINSTYLE
280
     0
  9
$LWDISPLAY
290
     0
  9
$INSUNITS
 70
     5
  9
$HYPERLINKBASE
  1

  9
$XEDIT
290
     1
  9
$CEPSNTYPE
380
     0
  9
$PSTYLEMODE
290
     1
  9
$FINGERPRINTGUID
  2

  9
$VERSIONGUID
  2

  9
$EXTNAMES
290
     1
  9
$PSVPSCALE
 40
0.0
  0
ENDSEC
  0
SECTION
  2
CLASSES
  0
CLASS
  1
LWPOLYLINE
  2
AcDbPolyline
  3
AutoCAD 2000
 90
    32768
280
     0
281
     1
  0
CLASS
  1
IMAGE
  2
AcDbRasterImage
  3
ISM
 90
    32895
280
     0
281
     1
  0
CLASS
  1
OLE2FRAME
  2
AcDbOle2Frame
  3
AutoCAD 2000
 90
    32768
280
     0
281
     1
  0
CLASS
  1
HATCH
  2
AcDbHatch
  3
AutoCAD 2000
 90
    32768
280
     0
281
     1
  0
CLASS
  1
DICTIONARYVAR
  2
AcDbDictionaryVar
  3
AutoCAD 2000
 90
    32768
280
     0
281
     0
  0
CLASS
  1
RASTERVARIABLES
  2
AcDbRasterVariables
  3
ISM
 90
    32768
280
     0
281
     0
  0
CLASS
  1
IMAGEDEF
  2
AcDbRasterImageDef
  3
ISM
 90
    32768
280
     0
281
     0
  0
CLASS
  1
IMAGEDEF_REACTOR
  2
AcDbRasterImageDefReactor
  3
ISM
 90
    32769
280
     0
281
     0
  0
CLASS
  1
IDBUFFER
  2
AcDbIdBuffer
  3
AutoCAD 2000
 90
    32768
280
     0
281
     0
  0
CLASS
  1
SPATIAL_FILTER
  2
AcDbSpatialFilter
  3
AutoCAD 2000
 90
    32768
280
     0
281
     0
  0
CLASS
  1
XRECORD
  2
AcDbXrecord
  3
AutoCAD 2000
 90
    32768
280
     0
281
     0
  0
CLASS
  1
SORTENTSTABLE
  2
AcDbSortentsTable
  3
AutoCAD 2000
 90
    32768
280
     0
281
     0
  0
CLASS
  1
LAYER_INDEX
  2
AcDbLayerIndex
  3
AutoCAD 2000
 90
    32768
280
     0
281
     0
  0
CLASS
  1
SPATIAL_INDEX
  2
AcDbSpatialIndex
  3
AutoCAD 2000
 90
    32768
280
     0
281
     0
  0
CLASS
  1
OBJECT_PTR
  2
CAseDLPNTableRecord
  3
"ASE-LPNTableRecord"
 90
    32769
280
     0
281
     0
  0
CLASS
  1
LAYOUT
  2
AcDbLayout
  3
AutoCAD 2000
 90
        0
280
     0
281
     0
  0
CLASS
  1
PLOTSETTINGS
  2
AcDbPlotSettings
  3
AutoCAD 2000
 90
    32768
280
     0
281
     0
  0
CLASS
  1
ACDBDICTIONARYWDFLT
  2
AcDbDictionaryWithDefault
  3
AutoCAD 2000
 90
        0
280
     0
281
     0
  0
CLASS
  1
ACDBPLACEHOLDER
  2
AcDbPlaceHolder
  3
AutoCAD 2000
 90
        0
280
     0
281
     0
  0
CLASS
  1
VBA_PROJECT
  2
AcDbVbaProject
  3
acadvba
 90
    32768
280
     0
281
     0
  0
CLASS
  1
WIPEOUT
  2
AcDbWipeout
  3
WipeOut|AutoCAD Express Tool|expresstools@autodesk.com
 90
    32895
280
     0
281
     1
  0
CLASS
  1
WIPEOUTVARIABLES
  2
AcDbWipeoutVariables
  3
WipeOut|AutoCAD Express Tool|expresstools@autodesk.com
 90
        0
280
     0
281
     0
  0
CLASS
  1
RTEXT
  2
RText
  3
RText|AutoCAD Express Tool|expresstools@autodesk.com
 90
    32768
280
     0
281
     1
  0
CLASS
  1
ARCALIGNEDTEXT
  2
AcDbArcAlignedText
  3
ATEXT|AutoCAD Express Tool|expresstools@autodesk.com
 90
    32768
280
     0
281
     1
  0
ENDSEC
  0
SECTION
  2
TABLES
  0
TABLE
  2
VPORT
  5
7
100
AcDbSymbolTable
 70
     1
  0
VPORT
  5
15
100
AcDbSymbolTableRecord
100
AcDbViewportTableRecord
  2
*ACTIVE
 70
     0
 10
0.0
 20
0.0
 11
1.0
 21
1.0
 12
6.591288
 22
4.579184
 13
0.0
 23
0.0
 14
1.0
 24
1.0
 15
0.0
 25
0.0
 16
0.0
 26
0.0
 36
1.0
 17
0.0
 27
0.0
 37
0.0
 40
9.158369
 41
0.688564
 42
50.0
 43
0.0
 44
0.0
 50
0.0
 51
0.0
 71
     0
 72
   100
 73
     1
 74
     1
 75
     0
 76
     0
 77
     0
 78
     0
281
     0
 65
     0
110
0.0
120
0.0
130
0.0
111
1.0
121
0.0
131
0.0
112
0.0
122
1.0
132
0.0
345
0
346
0
 79
     0
146
0.0
  0
ENDTAB
  0
TABLE
  2
LTYPE
  5
4
100
AcDbSymbolTable
 70
     3
  0
LTYPE
  5
11
100
AcDbSymbolTableRecord
100
AcDbLinetypeTableRecord
  2
ByBlock
 70
    64
  3

 72
    65
 73
     0
 40
0.0
  0
LTYPE
  5
12
100
AcDbSymbolTableRecord
100
AcDbLinetypeTableRecord
  2
ByLayer
 70
    64
  3

 72
    65
 73
     0
 40
0.0
  0
LTYPE
  5
13
100
AcDbSymbolTableRecord
100
AcDbLinetypeTableRecord
  2
Continuous
 70
    64
  3
Solid line
 72
    65
 73
     0
 40
0.0
  0
ENDTAB
  0
TABLE
  2
LAYER
  5
2
100
AcDbSymbolTable
 70
     2
  0
LAYER
  5
14
100
AcDbSymbolTableRecord
100
AcDbLayerTableRecord
  2
0
 70
     0
 62
     7
  6
Continuous
290
     1
370
    -3
390
1D
  0
LAYER
  5
24
100
AcDbSymbolTableRecord
100
AcDbLayerTableRecord
  2
Ebene 1
 70
     0
 62
     7
  6
Continuous
290
     1
370
    -3
390
1F
  0
ENDTAB
  0
TABLE
  2
STYLE
  5
3
100
AcDbSymbolTable
 70
     1
  0
STYLE
  5
17
100
AcDbSymbolTableRecord
100
AcDbTextStyleTableRecord
  2
Standard
 70
     0
 40
0.0
 41
1.0
 50
0.0
 71
     0
 42
0.0
  3
txt
  4

  0
ENDTAB
  0
TABLE
  2
VIEW
  5
5
100
AcDbSymbolTable
 70
     0
  0
ENDTAB
  0
TABLE
  2
UCS
  5
6
100
AcDbSymbolTable
 70
     0
  0
ENDTAB
  0
TABLE
  2
APPID
  5
8
100
AcDbSymbolTable
 70
     1
  0
APPID
  5
16
100
AcDbSymbolTableRecord
100
AcDbRegAppTableRecord
  2
ACAD
 70
     0
  0
ENDTAB
  0
TABLE
  2
DIMSTYLE
  5
9
100
AcDbSymbolTable
 70
     1
100
AcDbDimStyleTable
 71
     0
  0
DIMSTYLE
105
18
100
AcDbSymbolTableRecord
100
AcDbDimStyleTableRecord
  2
Standard
 70
     0
  3

  4

 40
1.0
 41
0.18
 42
0.0625
 43
0.38
 44
0.18
 45
0.0
 46
0.0
 47
0.0
 48
0.0
 71
     0
 72
     0
 73
     1
 74
     1
 75
     0
 76
     0
 77
     0
 78
     0
 79
     0
140
0.18
141
0.09
142
0.0
143
25.4
144
1.0
145
0.0
146
1.0
147
0.09
148
0.0
170
     0
171
     2
172
     0
173
     0
174
     0
175
     0
176
     0
177
     0
178
     0
179
     0
271
     4
272
     4
273
     2
274
     2
275
     0
276
     0
277
     2
278
    46
279
     0
280
     0
281
     0
282
     0
283
     1
284
     0
285
     0
286
     0
288
     0
340
17
341
0
342
0
343
0
344
0
371
    -2
372
    -2
  0
ENDTAB
  0
TABLE
  2
BLOCK_RECORD
  5
1
100
AcDbSymbolTable
 70
     0
  0
BLOCK_RECORD
  5
A
100
AcDbSymbolTableRecord
100
AcDbBlockTableRecord
  2
*MODEL_SPACE
340
20
  0
BLOCK_RECORD
  5
B
100
AcDbSymbolTableRecord
100
AcDbBlockTableRecord
  2
*PAPER_SPACE
340
21
  0
ENDTAB
  0
ENDSEC
  0
SECTION
  2
BLOCKS
  0
BLOCK
  5
D
100
AcDbEntity
  8
0
100
AcDbBlockBegin
  2
*MODEL_SPACE
 70
     0
 10
0.0
 20
0.0
 30
0.0
  3
*MODEL_SPACE
  1

  0
ENDBLK
  5
E
100
AcDbEntity
  8
0
100
AcDbBlockEnd
  0
BLOCK
  5
F
100
AcDbEntity
 67
     1
  8
0
100
AcDbBlockBegin
  2
*PAPER_SPACE
 70
     0
 10
0.0
 20
0.0
 30
0.0
  3
*PAPER_SPACE
  1

  0
ENDBLK
  5
10
100
AcDbEntity
 67
     1
  8
0
100
AcDbBlockEnd
  0
ENDSEC
  0
SECTION
  2
ENTITIES
  0
SPLINE
  5
25
100
AcDbEntity
  8
Ebene 1
100
AcDbSpline
210
0.0
220
0.0
230
1.0
 70
     1
 71
     3
 72
   136
 73
   132
 74
     0
 42
0.0000000001
 43
0.0000000001
 40
0.0
 40
0.0
 40
0.0
 40
0.0
 40
0.0303030303030303
 40
0.0303030303030303
 40
0.0303030303030303
 40
0.0303030303030303
 40
0.0606060606060606
 40
0.0606060606060606
 40
0.0606060606060606
 40
0.0606060606060606
 40
0.0909090909090909
 40
0.0909090909090909
 40
0.0909090909090909
 40
0.0909090909090909
 40
0.1212121212121212
 40
0.1212121212121212
 40
0.1212121212121212
 40
0.1212121212121212
 40
0.1515151515151515
 40
0.1515151515151515
 40
0.1515151515151515
 40
0.1515151515151515
 40
0.1818181818181818
 40
0.1818181818181818
 40
0.1818181818181818
 40
0.1818181818181818
 40
0.2121212121212121
 40
0.2121212121212121
 40
0.2121212121212121
 40
0.2121212121212121
 40
0.2424242424242424
 40
0.2424242424242424
 40
0.2424242424242424
 40
0.2424242424242424
 40
0.2727272727272727
 40
0.2727272727272727
 40
0.2727272727272727
 40
0.2727272727272727
 40
0.303030303030303
 40
0.303030303030303
 40
0.303030303030303
 40
0.303030303030303
 40
0.3333333333333333
 40
0.3333333333333333
 40
0.3333333333333333
 40
0.3333333333333333
 40
0.3636363636363635
 40
0.3636363636363635
 40
0.3636363636363635
 40
0.3636363636363635
 40
0.3939393939393938
 40
0.3939393939393938
 40
0.3939393939393938
 40
0.3939393939393938
 40
0.4242424242424241
 40
0.4242424242424241
 40
0.4242424242424241
 40
0.4242424242424241
 40
0.4545454545454544
 40
0.4545454545454544
 40
0.4545454545454544
 40
0.4545454545454544
 40
0.4848484848484846
 40
0.4848484848484846
 40
0.4848484848484846
 40
0.4848484848484846
 40
0.5151515151515149
 40
0.5151515151515149
 40
0.5151515151515149
 40
0.5151515151515149
 40
0.5454545454545452
 40
0.5454545454545452
 40
0.5454545454545452
 40
0.5454545454545452
 40
0.5757575757575755
 40
0.5757575757575755
 40
0.5757575757575755
 40
0.5757575757575755
 40
0.6060606060606057
 40
0.6060606060606057
 40
0.6060606060606057
 40
0.6060606060606057
 40
0.636363636363636
 40
0.636363636363636
 40
0.636363636363636
 40
0.636363636363636
 40
0.6666666666666663
 40
0.6666666666666663
 40
0.6666666666666663
 40
0.6666666666666663
 40
0.6969696969696966
 40
0.6969696969696966
 40
0.6969696969696966
 40
0.6969696969696966
 40
0.7272727272727269
 40
0.7272727272727269
 40
0.7272727272727269
 40
0.7272727272727269
 40
0.7575757575757571
 40
0.7575757575757571
 40
0.7575757575757571
 40
0.7575757575757571
 40
0.7878787878787874
 40
0.7878787878787874
 40
0.7878787878787874
 40
0.7878787878787874
 40
0.8181818181818177
 40
0.8181818181818177
 40
0.8181818181818177
 40
0.8181818181818177
 40
0.848484848484848
 40
0.848484848484848
 40
0.848484848484848
 40
0.848484848484848
 40
0.8787878787878782
 40
0.8787878787878782
 40
0.8787878787878782
 40
0.8787878787878782
 40
0.9090909090909085
 40
0.9090909090909085
 40
0.9090909090909085
 40
0.9090909090909085
 40
0.9393939393939388
 40
0.9393939393939388
 40
0.9393939393939388
 40
0.9393939393939388
 40
0.9696969696969691
 40
0.9696969696969691
 40
0.9696969696969691
 40
0.9696969696969691
 40
1.0
 40
1.0
 40
1.0
 40
1.0
 10
0.5945
 20
6.3545100000000003
 30
0.0
 10
1.52668
 20
5.5874300000000003
 30
0.0
 10
2.0880200000000002
 20
4.4190300000000002
 30
0.0
 10
2.6011000000000002
 20
3.3496900000000003
 30
0.0
 10
2.6011000000000002
 20
3.3496900000000003
 30
0.0
 10
2.6011000000000002
 20
3.3496900000000003
 30
0.0
 10
4.1555800000000005
 20
2.0136500000000002
 30
0.0
 10
4.1555800000000005
 20
2.0136500000000002
 30
0.0
 10
4.1555800000000005
 20
2.0136500000000002
 30
0.0
 10
4.08446
 20
1.36087
 30
0.0
 10
3.9549200000000004
 20
0.7385700000000001
 30
0.0
 10
4.4756200000000002
 20
0.23311
 30
0.0
 10
4.4756200000000002
 20
0.23311
 30
0.0
 10
4.1886000000000001
 20
-0.4349
 30
0.0
 10
4.8058200000000006
 20
-1.0546600000000002
 30
0.0
 10
4.5315000000000003
 20
-1.7379200000000001
 30
0.0
 10
4.5315000000000003
 20
-1.7379200000000001
 30
0.0
 10
4.3486200000000004
 20
-1.5575800000000002
 30
0.0
 10
4.2165400000000002
 20
-0.6381
 30
0.0
 10
3.8279200000000002
 20
-0.94798
 30
0.0
 10
3.8279200000000002
 20
-0.94798
 30
0.0
 10
3.8457000000000003
 20
-1.1791200000000002
 30
0.0
 10
3.8355400000000004
 20
-1.5702800000000001
 30
0.0
 10
3.6094800000000005
 20
-1.6591800000000001
 30
0.0
 10
3.6094800000000005
 20
-1.6591800000000001
 30
0.0
 10
3.5485200000000003
 20
-1.4331200000000002
 30
0.0
 10
3.4088200000000004
 20
-0.82352
 30
0.0
 10
3.1091000000000002
 20
-0.9937
 30
0.0
 10
3.1091000000000002
 20
-0.9937
 30
0.0
 10
3.1624400000000001
 20
-1.8192000000000002
 30
0.0
 10
2.30138
 20
-1.9106400000000001
 30
0.0
 10
2.6214200000000001
 20
-2.7310600000000003
 30
0.0
 10
2.6214200000000001
 20
-2.7310600000000003
 30
0.0
 10
2.6671400000000003
 20
-2.7056600000000004
 30
0.0
 10
2.71286
 20
-2.6320000000000001
 30
0.0
 10
2.7687400000000002
 20
-2.6802600000000001
 30
0.0
 10
2.7687400000000002
 20
-2.6802600000000001
 30
0.0
 10
2.7738200000000002
 20
-2.7818600000000004
 30
0.0
 10
2.7712800000000004
 20
-2.8860000000000001
 30
0.0
 10
2.8093800000000004
 20
-2.9774400000000001
 30
0.0
 10
2.8093800000000004
 20
-2.9774400000000001
 30
0.0
 10
2.9186000000000001
 20
-3.2898600000000005
 30
0.0
 10
3.1116400000000004
 20
-3.0358600000000004
 30
0.0
 10
3.2640400000000001
 20
-2.9571200000000002
 30
0.0
 10
3.2640400000000001
 20
-2.9571200000000002
 30
0.0
 10
3.2157800000000001
 20
-3.6937200000000003
 30
0.0
 10
3.4596200000000001
 20
-3.15524
 30
0.0
 10
3.5612200000000005
 20
-2.8987000000000003
 30
0.0
 10
3.5612200000000005
 20
-2.8987000000000003
 30
0.0
 10
3.7593400000000003
 20
-3.0765000000000002
 30
0.0
 10
3.6298000000000004
 20
-4.0975800000000007
 30
0.0
 10
3.8279200000000002
 20
-3.7089600000000003
 30
0.0
 10
3.8279200000000002
 20
-3.7089600000000003
 30
0.0
 10
3.9066600000000005
 20
-3.6505400000000003
 30
0.0
 10
3.7974400000000004
 20
-3.3940000000000001
 30
0.0
 10
3.9371400000000003
 20
-3.4524200000000005
 30
0.0
 10
3.9371400000000003
 20
-3.4524200000000005
 30
0.0
 10
4.1047800000000008
 20
-3.7292800000000002
 30
0.0
 10
4.0184200000000008
 20
-4.0975800000000007
 30
0.0
 10
4.2267000000000001
 20
-4.35412
 30
0.0
 10
4.2267000000000001
 20
-4.35412
 30
0.0
 10
4.3486200000000004
 20
-3.7953200000000002
 30
0.0
 10
4.4857800000000001
 20
-4.1356800000000007
 30
0.0
 10
4.5111800000000004
 20
-4.5319200000000004
 30
0.0
 10
4.5111800000000004
 20
-4.5319200000000004
 30
0.0
 10
4.5746800000000007
 20
-4.40238
 30
0.0
 10
4.6026199999999999
 20
-4.2398199999999999
 30
0.0
 10
4.5365800000000007
 20
-4.1026600000000002
 30
0.0
 10
4.5365800000000007
 20
-4.1026600000000002
 30
0.0
 10
4.5746800000000007
 20
-3.9197800000000003
 30
0.0
 10
4.4476800000000001
 20
-3.7851600000000003
 30
0.0
 10
4.4629200000000004
 20
-3.6124400000000003
 30
0.0
 10
4.4629200000000004
 20
-3.6124400000000003
 30
0.0
 10
5.2300000000000004
 20
-4.1864800000000004
 30
0.0
 10
4.9252000000000002
 20
-5.3599600000000001
 30
0.0
 10
4.6915200000000006
 20
-6.0965600000000002
 30
0.0
 10
4.6915200000000006
 20
-6.0965600000000002
 30
0.0
 10
4.6915200000000006
 20
-6.0965600000000002
 30
0.0
 10
1.2472800000000002
 20
-6.3607200000000006
 30
0.0
 10
1.2472800000000002
 20
-6.3607200000000006
 30
0.0
 10
1.2472800000000002
 20
-6.3607200000000006
 30
0.0
 10
0.38368
 20
-5.7612800000000002
 30
0.0
 10
-0.6272300000000001
 20
-5.3498000000000001
 30
0.0
 10
-1.4400300000000001
 20
-4.7122600000000006
 30
0.0
 10
-1.4400300000000001
 20
-4.7122600000000006
 30
0.0
 10
-1.4755900000000002
 20
-4.3592000000000004
 30
0.0
 10
-1.5365500000000001
 20
-4.0163000000000002
 30
0.0
 10
-1.6076700000000002
 20
-3.6708600000000002
 30
0.0
 10
-1.6076700000000002
 20
-3.6708600000000002
 30
0.0
 10
-1.8083300000000002
 20
-3.2847800000000005
 30
0.0
 10
-2.06487
 20
-2.9317200000000003
 30
0.0
 10
-2.3595100000000002
 20
-2.6015200000000003
 30
0.0
 10
-2.3595100000000002
 20
-2.6015200000000003
 30
0.0
 10
-3.5685500000000001
 20
-2.9241000000000001
 30
0.0
 10
-4.4016700000000002
 20
-1.9258800000000003
 30
0.0
 10
-4.9477700000000002
 20
-1.0648200000000001
 30
0.0
 10
-4.9477700000000002
 20
-1.0648200000000001
 30
0.0
 10
-4.7852100000000002
 20
0.08325
 30
0.0
 10
-4.9630100000000006
 20
1.44723
 30
0.0
 10
-4.0841700000000003
 20
2.3209900000000001
 30
0.0
 10
-4.0841700000000003
 20
2.3209900000000001
 30
0.0
 10
-4.0562300000000002
 20
2.4302100000000002
 30
0.0
 10
-4.1984700000000004
 20
2.4962500000000003
 30
0.0
 10
-4.1730700000000001
 20
2.6054700000000004
 30
0.0
 10
-4.1730700000000001
 20
2.6054700000000004
 30
0.0
 10
-3.6828500000000002
 20
2.6257900000000003
 30
0.0
 10
-3.3145500000000001
 20
2.9686900000000001
 30
0.0
 10
-3.0097500000000004
 20
3.3446100000000003
 30
0.0
 10
-3.0097500000000004
 20
3.3446100000000003
 30
0.0
 10
-3.0351500000000002
 20
3.6367100000000003
 30
0.0
 10
-3.3043900000000002
 20
3.8322900000000004
 30
0.0
 10
-3.3805900000000002
 20
4.0939100000000002
 30
0.0
 10
-3.3805900000000002
 20
4.0939100000000002
 30
0.0
 10
-2.7887700000000004
 20
4.1066100000000008
 30
0.0
 10
-2.30871
 20
3.6367100000000003
 30
0.0
 10
-1.7422900000000001
 20
3.9770700000000003
 30
0.0
 10
-1.7422900000000001
 20
3.9770700000000003
 30
0.0
 10
-1.13015
 20
4.1447100000000008
 30
0.0
 10
-1.8464300000000002
 20
4.9346500000000004
 30
0.0
 10
-1.9150100000000001
 20
5.3410500000000001
 30
0.0
 10
-1.9150100000000001
 20
5.3410500000000001
 30
0.0
 10
-0.72375
 20
5.3410500000000001
 30
0.0
 10
-0.47737
 20
3.7713300000000003
 30
0.0
 10
0.6884800000000001
 20
3.8754700000000004
 30
0.0
 10
0.6884800000000001
 20
3.8754700000000004
 30
0.0
 10
0.6884800000000001
 20
3.8754700000000004
 30
0.0
 10
1.0847200000000001
 20
3.8068900000000001
 30
0.0
 10
1.0847200000000001
 20
3.8068900000000001
 30
0.0
 10
1.0847200000000001
 20
3.8068900000000001
 30
0.0
 10
1.06186
 20
4.6882700000000002
 30
0.0
 10
0.82818
 20
5.5544100000000007
 30
0.0
 10
0.5945
 20
6.3545100000000003
 30
0.0
  0
SPLINE
  5
26
100
AcDbEntity
  8
Ebene 1
100
AcDbSpline
210
0.0
220
0.0
230
1.0
 70
     1
 71
     3
 72
    64
 73
    60
 74
     0
 42
0.0000000001
 43
0.0000000001
 40
0.0
 40
0.0
 40
0.0
 40
0.0
 40
0.0666666666666667
 40
0.0666666666666667
 40
0.0666666666666667
 40
0.0666666666666667
 40
0.1333333333333333
 40
0.1333333333333333
 40
0.1333333333333333
 40
0.1333333333333333
 40
0.2
 40
0.2
 40
0.2
 40
0.2
 40
0.2666666666666667
 40
0.2666666666666667
 40
0.2666666666666667
 40
0.2666666666666667
 40
0.3333333333333333
 40
0.3333333333333333
 40
0.3333333333333333
 40
0.3333333333333333
 40
0.4
 40
0.4
 40
0.4
 40
0.4
 40
0.4666666666666666
 40
0.4666666666666666
 40
0.4666666666666666
 40
0.4666666666666666
 40
0.5333333333333333
 40
0.5333333333333333
 40
0.5333333333333333
 40
0.5333333333333333
 40
0.6
 40
0.6
 40
0.6
 40
0.6
 40
0.6666666666666666
 40
0.6666666666666666
 40
0.6666666666666666
 40
0.6666666666666666
 40
0.7333333333333333
 40
0.7333333333333333
 40
0.7333333333333333
 40
0.7333333333333333
 40
0.7999999999999999
 40
0.7999999999999999
 40
0.7999999999999999
 40
0.7999999999999999
 40
0.8666666666666666
 40
0.8666666666666666
 40
0.8666666666666666
 40
0.8666666666666666
 40
0.9333333333333332
 40
0.9333333333333332
 40
0.9333333333333332
 40
0.9333333333333332
 40
1.0
 40
1.0
 40
1.0
 40
1.0
 10
1.02884
 20
-1.9614400000000001
 30
0.0
 10
0.7723000000000001
 20
-2.1189200000000001
 30
0.0
 10
0.5233800000000001
 20
-2.3297400000000001
 30
0.0
 10
0.27192
 20
-2.5126200000000001
 30
0.0
 10
0.27192
 20
-2.5126200000000001
 30
0.0
 10
0.18048
 20
-2.5405600000000002
 30
0.0
 10
0.09666
 20
-2.5761200000000004
 30
0.0
 10
0.00268
 20
-2.5761200000000004
 30
0.0
 10
0.00268
 20
-2.5761200000000004
 30
0.0
 10
-0.13193
 20
-2.4567400000000004
 30
0.0
 10
-0.36307
 20
-2.3678400000000002
 30
0.0
 10
-0.52817
 20
-2.4821400000000002
 30
0.0
 10
-0.52817
 20
-2.4821400000000002
 30
0.0
 10
-0.32751
 20
-2.9647400000000004
 30
0.0
 10
-0.11669
 20
-3.5108400000000004
 30
0.0
 10
0.23636
 20
-3.9045400000000003
 30
0.0
 10
0.23636
 20
-3.9045400000000003
 30
0.0
 10
0.34812
 20
-3.8816800000000002
 30
0.0
 10
0.36082
 20
-3.6861000000000002
 30
0.0
 10
0.49036
 20
-3.7292800000000002
 30
0.0
 10
0.49036
 20
-3.7292800000000002
 30
0.0
 10
0.29478
 20
-4.0417000000000005
 30
0.0
 10
0.63768
 20
-4.6563800000000004
 30
0.0
 10
0.9856600000000001
 20
-4.3744400000000008
 30
0.0
 10
0.9856600000000001
 20
-4.3744400000000008
 30
0.0
 10
1.0644
 20
-4.0645600000000002
 30
0.0
 10
0.8332600000000001
 20
-3.5362400000000003
 30
0.0
 10
1.0644
 20
-3.3736800000000002
 30
0.0
 10
1.0644
 20
-3.3736800000000002
 30
0.0
 10
1.3031600000000001
 20
-3.8435800000000002
 30
0.0
 10
1.3895200000000001
 20
-4.3769800000000005
 30
0.0
 10
1.6282800000000002
 20
-4.8291000000000004
 30
0.0
 10
1.6282800000000002
 20
-4.8291000000000004
 30
0.0
 10
1.9457800000000001
 20
-4.7478200000000008
 30
0.0
 10
1.8289400000000002
 20
-4.2906200000000005
 30
0.0
 10
1.9762600000000001
 20
-4.1052
 30
0.0
 10
1.9762600000000001
 20
-4.1052
 30
0.0
 10
1.9762600000000001
 20
-4.1052
 30
0.0
 10
2.3623400000000001
 20
-4.94848
 30
0.0
 10
2.3623400000000001
 20
-4.94848
 30
0.0
 10
2.3623400000000001
 20
-4.94848
 30
0.0
 10
2.4487000000000001
 20
-4.9992800000000006
 30
0.0
 10
2.5426800000000003
 20
-4.9357800000000003
 30
0.0
 10
2.63158
 20
-4.91038
 30
0.0
 10
2.63158
 20
-4.91038
 30
0.0
 10
2.7027000000000001
 20
-4.8062400000000007
 30
0.0
 10
2.7103200000000003
 20
-4.6817800000000007
 30
0.0
 10
2.7281000000000004
 20
-4.5624000000000002
 30
0.0
 10
2.7281000000000004
 20
-4.5624000000000002
 30
0.0
 10
2.7281000000000004
 20
-4.5624000000000002
 30
0.0
 10
1.23204
 20
-3.1273000000000004
 30
0.0
 10
1.23204
 20
-3.1273000000000004
 30
0.0
 10
1.23204
 20
-3.1273000000000004
 30
0.0
 10
1.23204
 20
-3.1273000000000004
 30
0.0
 10
1.18632
 20
-2.2814800000000002
 30
0.0
 10
1.18632
 20
-2.2814800000000002
 30
0.0
 10
1.18632
 20
-2.2814800000000002
 30
0.0
 10
1.15076
 20
-2.1773400000000001
 30
0.0
 10
1.1533
 20
-1.9843000000000002
 30
0.0
 10
1.02884
 20
-1.9614400000000001
 30
0.0
  0
SPLINE
  5
27
100
AcDbEntity
  8
Ebene 1
 62
     7
100
AcDbSpline
210
0.0
220
0.0
230
1.0
 70
     1
 71
     3
 72
   216
 73
   212
 74
     0
 42
0.0000000001
 43
0.0000000001
 40
0.0
 40
0.0
 40
0.0
 40
0.0
 40
0.0188679245283019
 40
0.0188679245283019
 40
0.0188679245283019
 40
0.0188679245283019
 40
0.0377358490566038
 40
0.0377358490566038
 40
0.0377358490566038
 40
0.0377358490566038
 40
0.0566037735849057
 40
0.0566037735849057
 40
0.0566037735849057
 40
0.0566037735849057
 40
0.0754716981132075
 40
0.0754716981132075
 40
0.0754716981132075
 40
0.0754716981132075
 40
0.0943396226415094
 40
0.0943396226415094
 40
0.0943396226415094
 40
0.0943396226415094
 40
0.1132075471698113
 40
0.1132075471698113
 40
0.1132075471698113
 40
0.1132075471698113
 40
0.1320754716981132
 40
0.1320754716981132
 40
0.1320754716981132
 40
0.1320754716981132
 40
0.1509433962264151
 40
0.1509433962264151
 40
0.1509433962264151
 40
0.1509433962264151
 40
0.169811320754717
 40
0.169811320754717
 40
0.169811320754717
 40
0.169811320754717
 40
0.1886792452830189
 40
0.1886792452830189
 40
0.1886792452830189
 40
0.1886792452830189
 40
0.2075471698113207
 40
0.2075471698113207
 40
0.2075471698113207
 40
0.2075471698113207
 40
0.2264150943396226
 40
0.2264150943396226
 40
0.2264150943396226
 40
0.2264150943396226
 40
0.2452830188679245
 40
0.2452830188679245
 40
0.2452830188679245
 40
0.2452830188679245
 40
0.2641509433962264
 40
0.2641509433962264
 40
0.2641509433962264
 40
0.2641509433962264
 40
0.2830188679245283
 40
0.2830188679245283
 40
0.2830188679245283
 40
0.2830188679245283
 40
0.3018867924528302
 40
0.3018867924528302
 40
0.3018867924528302
 40
0.3018867924528302
 40
0.3207547169811321
 40
0.3207547169811321
 40
0.3207547169811321
 40
0.3207547169811321
 40
0.3396226415094339
 40
0.3396226415094339
 40
0.3396226415094339
 40
0.3396226415094339
 40
0.3584905660377358
 40
0.3584905660377358
 40
0.3584905660377358
 40
0.3584905660377358
 40
0.3773584905660377
 40
0.3773584905660377
 40
0.3773584905660377
 40
0.3773584905660377
 40
0.3962264150943396
 40
0.3962264150943396
 40
0.3962264150943396
 40
0.3962264150943396
 40
0.4150943396226415
 40
0.4150943396226415
 40
0.4150943396226415
 40
0.4150943396226415
 40
0.4339622641509434
 40
0.4339622641509434
 40
0.4339622641509434
 40
0.4339622641509434
 40
0.4528301886792452
 40
0.4528301886792452
 40
0.4528301886792452
 40
0.4528301886792452
 40
0.4716981132075471
 40
0.4716981132075471
 40
0.4716981132075471
 40
0.4716981132075471
 40
0.490566037735849
 40
0.490566037735849
 40
0.490566037735849
 40
0.490566037735849
 40
0.5094339622641509
 40
0.5094339622641509
 40
0.5094339622641509
 40
0.5094339622641509
 40
0.5283018867924528
 40
0.5283018867924528
 40
0.5283018867924528
 40
0.5283018867924528
 40
0.5471698113207547
 40
0.5471698113207547
 40
0.5471698113207547
 40
0.5471698113207547
 40
0.5660377358490566
 40
0.5660377358490566
 40
0.5660377358490566
 40
0.5660377358490566
 40
0.5849056603773585
 40
0.5849056603773585
 40
0.5849056603773585
 40
0.5849056603773585
 40
0.6037735849056604
 40
0.6037735849056604
 40
0.6037735849056604
 40
0.6037735849056604
 40
0.6226415094339622
 40
0.6226415094339622
 40
0.6226415094339622
 40
0.6226415094339622
 40
0.6415094339622641
 40
0.6415094339622641
 40
0.6415094339622641
 40
0.6415094339622641
 40
0.660377358490566
 40
0.660377358490566
 40
0.660377358490566
 40
0.660377358490566
 40
0.6792452830188679
 40
0.6792452830188679
 40
0.6792452830188679
 40
0.6792452830188679
 40
0.6981132075471698
 40
0.6981132075471698
 40
0.6981132075471698
 40
0.6981132075471698
 40
0.7169811320754717
 40
0.7169811320754717
 40
0.7169811320754717
 40
0.7169811320754717
 40
0.7358490566037735
 40
0.7358490566037735
 40
0.7358490566037735
 40
0.7358490566037735
 40
0.7547169811320754
 40
0.7547169811320754
 40
0.7547169811320754
 40
0.7547169811320754
 40
0.7735849056603773
 40
0.7735849056603773
 40
0.7735849056603773
 40
0.7735849056603773
 40
0.7924528301886792
 40
0.7924528301886792
 40
0.7924528301886792
 40
0.7924528301886792
 40
0.8113207547169811
 40
0.8113207547169811
 40
0.8113207547169811
 40
0.8113207547169811
 40
0.830188679245283
 40
0.830188679245283
 40
0.830188679245283
 40
0.830188679245283
 40
0.8490566037735848
 40
0.8490566037735848
 40
0.8490566037735848
 40
0.8490566037735848
 40
0.8679245283018867
 40
0.8679245283018867
 40
0.8679245283018867
 40
0.8679245283018867
 40
0.8867924528301886
 40
0.8867924528301886
 40
0.8867924528301886
 40
0.8867924528301886
 40
0.9056603773584905
 40
0.9056603773584905
 40
0.9056603773584905
 40
0.9056603773584905
 40
0.9245283018867924
 40
0.9245283018867924
 40
0.9245283018867924
 40
0.9245283018867924
 40
0.9433962264150942
 40
0.9433962264150942
 40
0.9433962264150942
 40
0.9433962264150942
 40
0.9622641509433961
 40
0.9622641509433961
 40
0.9622641509433961
 40
0.9622641509433961
 40
0.981132075471698
 40
0.981132075471698
 40
0.981132075471698
 40
0.981132075471698
 40
1.0
 40
1.0
 40
1.0
 40
1.0
 10
1.1279000000000001
 20
4.6577900000000003
 30
0.0
 10
1.15076
 20
4.6577900000000003
 30
0.0
 10
1.2066400000000002
 20
4.5536500000000002
 30
0.0
 10
1.31332
 20
4.2818700000000005
 30
0.0
 10
1.31332
 20
4.2818700000000005
 30
0.0
 10
1.3666600000000002
 20
4.1294700000000004
 30
0.0
 10
1.4504800000000002
 20
3.9846900000000005
 30
0.0
 10
1.4657200000000001
 20
3.8195900000000003
 30
0.0
 10
1.4657200000000001
 20
3.8195900000000003
 30
0.0
 10
1.5343000000000002
 20
3.3217500000000002
 30
0.0
 10
1.5444600000000002
 20
3.7865700000000002
 30
0.0
 10
1.6638400000000002
 20
3.4614500000000001
 30
0.0
 10
1.6638400000000002
 20
3.4614500000000001
 30
0.0
 10
1.6638400000000002
 20
3.4614500000000001
 30
0.0
 10
1.8187800000000001
 20
3.2887300000000002
 30
0.0
 10
1.8187800000000001
 20
3.2887300000000002
 30
0.0
 10
1.8187800000000001
 20
3.2887300000000002
 30
0.0
 10
1.8187800000000001
 20
3.2887300000000002
 30
0.0
 10
0.8967600000000001
 20
5.7957100000000006
 30
0.0
 10
0.8967600000000001
 20
5.7957100000000006
 30
0.0
 10
0.8967600000000001
 20
5.7957100000000006
 30
0.0
 10
2.3521800000000002
 20
4.25901
 30
0.0
 10
2.76112
 20
2.9077300000000004
 30
0.0
 10
2.6417400000000004
 20
2.3006700000000002
 30
0.0
 10
2.6417400000000004
 20
2.3006700000000002
 30
0.0
 10
2.8144600000000004
 20
2.2727300000000001
 30
0.0
 10
2.7154000000000003
 20
2.4937100000000001
 30
0.0
 10
2.75604
 20
2.5572100000000004
 30
0.0
 10
2.75604
 20
2.5572100000000004
 30
0.0
 10
3.0608400000000002
 20
3.0296500000000002
 30
0.0
 10
3.4774000000000003
 20
2.2854300000000003
 30
0.0
 10
3.9981000000000004
 20
1.9730100000000002
 30
0.0
 10
3.9981000000000004
 20
1.9730100000000002
 30
0.0
 10
4.1555800000000005
 20
1.7240900000000001
 30
0.0
 10
3.9828600000000005
 20
1.40405
 30
0.0
 10
3.7999800000000001
 20
1.2491100000000002
 30
0.0
 10
3.7999800000000001
 20
1.2491100000000002
 30
0.0
 10
4.0920800000000002
 20
1.8409300000000002
 30
0.0
 10
2.5426800000000003
 20
0.7512700000000001
 30
0.0
 10
2.6900000000000004
 20
1.8358500000000002
 30
0.0
 10
2.6900000000000004
 20
1.8358500000000002
 30
0.0
 10
2.4614000000000003
 20
1.8155300000000001
 30
0.0
 10
2.6417400000000004
 20
1.5793100000000002
 30
0.0
 10
2.4334600000000002
 20
1.44469
 30
0.0
 10
2.4334600000000002
 20
1.44469
 30
0.0
 10
2.08548
 20
1.2237100000000001
 30
0.0
 10
1.5114400000000001
 20
0.9900300000000001
 30
0.0
 10
1.27268
 20
0.7563500000000001
 30
0.0
 10
1.27268
 20
0.7563500000000001
 30
0.0
 10
2.3572600000000001
 20
1.15259
 30
0.0
 10
2.71794
 20
1.2821300000000002
 30
0.0
 10
3.7796600000000002
 20
1.0814700000000002
 30
0.0
 10
3.7796600000000002
 20
1.0814700000000002
 30
0.0
 10
3.8990400000000003
 20
0.21279
 30
0.0
 10
4.5467400000000007
 20
-0.5390400000000001
 30
0.0
 10
4.5111800000000004
 20
-1.5398000000000001
 30
0.0
 10
4.5111800000000004
 20
-1.5398000000000001
 30
0.0
 10
4.5111800000000004
 20
-1.5398000000000001
 30
0.0
 10
4.25718
 20
-1.0114800000000002
 30
0.0
 10
4.25718
 20
-1.0114800000000002
 30
0.0
 10
4.25718
 20
-1.0114800000000002
 30
0.0
 10
4.1378000000000004
 20
-0.8565400000000001
 30
0.0
 10
4.0997000000000003
 20
-0.6203200000000001
 30
0.0
 10
4.1403400000000001
 20
-0.4577600000000001
 30
0.0
 10
4.1403400000000001
 20
-0.4577600000000001
 30
0.0
 10
4.0412800000000004
 20
-0.29012
 30
0.0
 10
4.0387400000000007
 20
-0.6762
 30
0.0
 10
3.9930200000000005
 20
-0.71684
 30
0.0
 10
3.9930200000000005
 20
-0.71684
 30
0.0
 10
3.7441000000000004
 20
-0.94798
 30
0.0
 10
3.6780600000000003
 20
-0.092
 30
0.0
 10
3.6221800000000002
 20
-0.6254000000000001
 30
0.0
 10
3.6221800000000002
 20
-0.6254000000000001
 30
0.0
 10
3.6831400000000003
 20
-0.7295400000000001
 30
0.0
 10
3.7542600000000004
 20
-0.8362200000000001
 30
0.0
 10
3.7644200000000003
 20
-0.9530600000000001
 30
0.0
 10
3.7644200000000003
 20
-0.9530600000000001
 30
0.0
 10
3.8152200000000005
 20
-1.0978400000000001
 30
0.0
 10
3.7390200000000005
 20
-1.24516
 30
0.0
 10
3.7237800000000001
 20
-1.3899400000000002
 30
0.0
 10
3.7237800000000001
 20
-1.3899400000000002
 30
0.0
 10
3.3504000000000005
 20
-1.6464800000000002
 30
0.0
 10
3.5942400000000001
 20
-0.04374
 30
0.0
 10
3.2284800000000002
 20
-0.8717800000000001
 30
0.0
 10
3.2284800000000002
 20
-0.8717800000000001
 30
0.0
 10
3.0760800000000001
 20
-0.9175000000000001
 30
0.0
 10
3.0913200000000001
 20
-0.7397
 30
0.0
 10
3.0710000000000002
 20
-0.63556
 30
0.0
 10
3.0710000000000002
 20
-0.63556
 30
0.0
 10
2.7738200000000002
 20
-0.1301
 30
0.0
 10
3.1421200000000002
 20
-1.33406
 30
0.0
 10
2.8982800000000002
 20
-1.5321800000000001
 30
0.0
 10
2.8982800000000002
 20
-1.5321800000000001
 30
0.0
 10
2.46902
 20
-1.8090400000000002
 30
0.0
 10
3.1472000000000002
 20
-0.0285
 30
0.0
 10
2.5350600000000001
 20
-0.9937
 30
0.0
 10
2.5350600000000001
 20
-0.9937
 30
0.0
 10
2.4664800000000002
 20
-1.0521200000000002
 30
0.0
 10
2.4233000000000002
 20
-0.92766
 30
0.0
 10
2.4360000000000004
 20
-0.8717800000000001
 30
0.0
 10
2.4360000000000004
 20
-0.8717800000000001
 30
0.0
 10
2.2810600000000001
 20
-0.4044200000000001
 30
0.0
 10
2.5045800000000003
 20
-1.2985000000000002
 30
0.0
 10
2.2963
 20
-1.4280400000000002
 30
0.0
 10
2.2963
 20
-1.4280400000000002
 30
0.0
 10
2.2302600000000004
 20
-1.2629400000000002
 30
0.0
 10
2.20486
 20
-1.0978400000000001
 30
0.0
 10
2.1896200000000001
 20
-0.9124200000000001
 30
0.0
 10
2.1896200000000001
 20
-0.9124200000000001
 30
0.0
 10
2.0397600000000002
 20
-0.19106
 30
0.0
 10
2.0626200000000003
 20
-1.7430000000000001
 30
0.0
 10
1.8873600000000001
 20
-0.90734
 30
0.0
 10
1.8873600000000001
 20
-0.90734
 30
0.0
 10
1.6892400000000001
 20
-0.22408
 30
0.0
 10
1.8721200000000002
 20
-1.1486400000000001
 30
0.0
 10
1.9076800000000003
 20
-1.3924800000000002
 30
0.0
 10
1.9076800000000003
 20
-1.3924800000000002
 30
0.0
 10
1.9026000000000001
 20
-1.6210800000000001
 30
0.0
 10
1.7146400000000002
 20
-2.4643600000000001
 30
0.0
 10
1.6435200000000001
 20
-1.8649200000000001
 30
0.0
 10
1.6435200000000001
 20
-1.8649200000000001
 30
0.0
 10
1.4530200000000002
 20
-1.37978
 30
0.0
 10
1.8568800000000001
 20
-0.40188
 30
0.0
 10
1.3031600000000001
 20
-0.69906
 30
0.0
 10
1.3031600000000001
 20
-0.69906
 30
0.0
 10
1.3031600000000001
 20
-0.69906
 30
0.0
 10
1.2142600000000001
 20
-0.58984
 30
0.0
 10
1.2142600000000001
 20
-0.58984
 30
0.0
 10
1.2142600000000001
 20
-0.58984
 30
0.0
 10
1.0085200000000001
 20
-0.59492
 30
0.0
 10
1.4530200000000002
 20
-0.8540000000000001
 30
0.0
 10
1.2041000000000002
 20
-0.9657600000000001
 30
0.0
 10
1.2041000000000002
 20
-0.9657600000000001
 30
0.0
 10
0.93232
 20
-1.5220200000000002
 30
0.0
 10
0.8789800000000001
 20
-0.35108
 30
0.0
 10
1.10504
 20
-0.16312
 30
0.0
 10
1.10504
 20
-0.16312
 30
0.0
 10
0.57926
 20
-0.5619000000000001
 30
0.0
 10
0.20842
 20
-0.20122
 30
0.0
 10
0.57418
 20
0.29407
 30
0.0
 10
0.57418
 20
0.29407
 30
0.0
 10
0.10936
 20
0.07309
 30
0.0
 10
-0.18781
 20
-1.2680200000000001
 30
0.0
 10
-0.53325
 20
-0.9530600000000001
 30
0.0
 10
-0.53325
 20
-0.9530600000000001
 30
0.0
 10
-0.06081
 20
0.35503
 30
0.0
 10
-0.82281
 20
-1.4636
 30
0.0
 10
-1.3638300000000001
 20
-1.6058400000000002
 30
0.0
 10
-1.3638300000000001
 20
-1.6058400000000002
 30
0.0
 10
-2.2452100000000002
 20
-1.3137400000000001
 30
0.0
 10
-2.4484100000000004
 20
-0.4044200000000001
 30
0.0
 10
-3.3805900000000002
 20
-0.25456
 30
0.0
 10
-3.3805900000000002
 20
-0.25456
 30
0.0
 10
-3.1469100000000001
 20
0.4109100000000001
 30
0.0
 10
-2.6897100000000003
 20
1.1678300000000001
 30
0.0
 10
-3.2078700000000002
 20
1.7799700000000001
 30
0.0
 10
-3.2078700000000002
 20
1.7799700000000001
 30
0.0
 10
-3.5761700000000003
 20
1.7088500000000002
 30
0.0
 10
-4.01051
 20
1.36087
 30
0.0
 10
-4.02067
 20
0.9874900000000001
 30
0.0
 10
-4.02067
 20
0.9874900000000001
 30
0.0
 10
-3.0630900000000003
 20
2.1838300000000004
 30
0.0
 10
-3.1011900000000003
 20
0.38805
 30
0.0
 10
-3.5634700000000001
 20
-0.23932
 30
0.0
 10
-3.5634700000000001
 20
-0.23932
 30
0.0
 10
-3.5355300000000005
 20
-0.31806
 30
0.0
 10
-3.5355300000000005
 20
-0.4145800000000001
 30
0.0
 10
-3.4593300000000005
 20
-0.47046
 30
0.0
 10
-3.4593300000000005
 20
-0.47046
 30
0.0
 10
-2.65415
 20
-0.39172
 30
0.0
 10
-2.6262100000000004
 20
-1.3874000000000002
 30
0.0
 10
-3.2510500000000002
 20
-1.6795000000000002
 30
0.0
 10
-3.2510500000000002
 20
-1.6795000000000002
 30
0.0
 10
-3.7311100000000001
 20
-1.6414000000000002
 30
0.0
 10
-4.1654500000000008
 20
-1.4102600000000001
 30
0.0
 10
-4.5489900000000008
 20
-1.12578
 30
0.0
 10
-4.5489900000000008
 20
-1.12578
 30
0.0
 10
-5.2957500000000008
 20
1.2465700000000002
 30
0.0
 10
-3.8504900000000002
 20
2.9432900000000002
 30
0.0
 10
-1.6025900000000002
 20
3.8780100000000002
 30
0.0
 10
-1.6025900000000002
 20
3.8780100000000002
 30
0.0
 10
-1.2190500000000002
 20
3.7662500000000003
 30
0.0
 10
-0.8355100000000001
 20
3.6544900000000005
 30
0.0
 10
-0.41387
 20
3.6595700000000004
 30
0.0
 10
-0.41387
 20
3.6595700000000004
 30
0.0
 10
-0.05827
 20
4.0989900000000006
 30
0.0
 10
0.5843400000000001
 20
3.7510100000000004
 30
0.0
 10
1.0440800000000001
 20
3.6367100000000003
 30
0.0
 10
1.0440800000000001
 20
3.6367100000000003
 30
0.0
 10
1.0847200000000001
 20
3.2023700000000002
 30
0.0
 10
0.9932800000000001
 20
2.5699100000000001
 30
0.0
 10
1.6028800000000001
 20
2.4937100000000001
 30
0.0
 10
1.6028800000000001
 20
2.4937100000000001
 30
0.0
 10
1.7044800000000002
 20
2.4479900000000003
 30
0.0
 10
1.8010000000000002
 20
2.3921100000000002
 30
0.0
 10
1.9178400000000002
 20
2.3895700000000004
 30
0.0
 10
1.9178400000000002
 20
2.3895700000000004
 30
0.0
 10
2.4791800000000004
 20
1.9069700000000001
 30
0.0
 10
1.3234800000000002
 20
3.4512900000000002
 30
0.0
 10
1.5825600000000002
 20
2.9483700000000002
 30
0.0
 10
1.5825600000000002
 20
2.9483700000000002
 30
0.0
 10
1.6155800000000002
 20
2.8315300000000003
 30
0.0
 10
1.6511400000000001
 20
2.50387
 30
0.0
 10
1.4454
 20
2.6511900000000002
 30
0.0
 10
1.4454
 20
2.6511900000000002
 30
0.0
 10
1.14568
 20
2.93059
 30
0.0
 10
1.1634600000000002
 20
3.3522300000000005
 30
0.0
 10
1.1634600000000002
 20
3.7510100000000004
 30
0.0
 10
1.1634600000000002
 20
3.7510100000000004
 30
0.0
 10
1.1634600000000002
 20
3.7687900000000005
 30
0.0
 10
1.0898000000000001
 20
4.6527100000000008
 30
0.0
 10
1.1279000000000001
 20
4.6577900000000003
 30
0.0
  0
SPLINE
  5
28
100
AcDbEntity
  8
Ebene 1
 62
     7
100
AcDbSpline
210
0.0
220
0.0
230
1.0
 70
     1
 71
     3
 72
    36
 73
    32
 74
     0
 42
0.0000000001
 43
0.0000000001
 40
0.0
 40
0.0
 40
0.0
 40
0.0
 40
0.125
 40
0.125
 40
0.125
 40
0.125
 40
0.25
 40
0.25
 40
0.25
 40
0.25
 40
0.375
 40
0.375
 40
0.375
 40
0.375
 40
0.5
 40
0.5
 40
0.5
 40
0.5
 40
0.625
 40
0.625
 40
0.625
 40
0.625
 40
0.75
 40
0.75
 40
0.75
 40
0.75
 40
0.875
 40
0.875
 40
0.875
 40
0.875
 40
1.0
 40
1.0
 40
1.0
 40
1.0
 10
-1.4451100000000001
 20
4.96767
 30
0.0
 10
-1.0285500000000001
 20
4.8457500000000007
 30
0.0
 10
-0.5408700000000001
 20
4.5815900000000003
 30
0.0
 10
-0.39863
 20
4.1421700000000001
 30
0.0
 10
-0.39863
 20
4.1421700000000001
 30
0.0
 10
-0.44435
 20
4.2132900000000006
 30
0.0
 10
-0.51293
 20
4.3123500000000003
 30
0.0
 10
-0.6069100000000001
 20
4.3402900000000004
 30
0.0
 10
-0.6069100000000001
 20
4.3402900000000004
 30
0.0
 10
-0.67549
 20
4.3580700000000006
 30
0.0
 10
-0.7542300000000001
 20
4.6120700000000001
 30
0.0
 10
-0.78471
 20
4.45967
 30
0.0
 10
-0.78471
 20
4.45967
 30
0.0
 10
-0.78471
 20
4.45967
 30
0.0
 10
-0.71613
 20
4.3504500000000004
 30
0.0
 10
-0.71613
 20
4.3504500000000004
 30
0.0
 10
-0.71613
 20
4.3504500000000004
 30
0.0
 10
-0.5154700000000001
 20
4.2209099999999999
 30
0.0
 10
-0.33513
 20
3.9923100000000002
 30
0.0
 10
-0.41895
 20
3.7459300000000004
 30
0.0
 10
-0.41895
 20
3.7459300000000004
 30
0.0
 10
-0.6907300000000001
 20
3.6570300000000002
 30
0.0
 10
-0.8913900000000001
 20
3.9897700000000005
 30
0.0
 10
-0.95235
 20
4.21075
 30
0.0
 10
-0.95235
 20
4.21075
 30
0.0
 10
-1.0742700000000001
 20
4.1675700000000004
 30
0.0
 10
-0.9853700000000001
 20
3.9567500000000004
 30
0.0
 10
-0.97267
 20
3.8653100000000005
 30
0.0
 10
-0.97267
 20
3.8653100000000005
 30
0.0
 10
-1.4019300000000001
 20
4.0583499999999999
 30
0.0
 10
-1.46035
 20
4.5612700000000004
 30
0.0
 10
-1.4451100000000001
 20
4.96767
 30
0.0
  0
SPLINE
  5
29
100
AcDbEntity
  8
Ebene 1
 62
     7
100
AcDbSpline
210
0.0
220
0.0
230
1.0
 70
     1
 71
     3
 72
    16
 73
    12
 74
     0
 42
0.0000000001
 43
0.0000000001
 40
0.0
 40
0.0
 40
0.0
 40
0.0
 40
0.3333333333333333
 40
0.3333333333333333
 40
0.3333333333333333
 40
0.3333333333333333
 40
0.6666666666666666
 40
0.6666666666666666
 40
0.6666666666666666
 40
0.6666666666666666
 40
1.0
 40
1.0
 40
1.0
 40
1.0
 10
-3.0300700000000003
 20
3.8780100000000002
 30
0.0
 10
-2.86497
 20
3.8856300000000004
 30
0.0
 10
-2.7125700000000004
 20
3.8424500000000004
 30
0.0
 10
-2.5779500000000004
 20
3.7560900000000004
 30
0.0
 10
-2.5779500000000004
 20
3.7560900000000004
 30
0.0
 10
-2.6185900000000002
 20
3.6798900000000003
 30
0.0
 10
-2.69733
 20
3.5681300000000005
 30
0.0
 10
-2.7913100000000002
 20
3.5630500000000005
 30
0.0
 10
-2.7913100000000002
 20
3.5630500000000005
 30
0.0
 10
-2.8802100000000004
 20
3.6443300000000005
 30
0.0
 10
-3.0580100000000003
 20
3.7510100000000004
 30
0.0
 10
-3.0300700000000003
 20
3.8780100000000002
 30
0.0
  0
SPLINE
  5
2A
100
AcDbEntity
  8
Ebene 1
 62
     7
100
AcDbSpline
210
0.0
220
0.0
230
1.0
 70
     1
 71
     3
 72
    12
 73
     8
 74
     0
 42
0.0000000001
 43
0.0000000001
 40
0.0
 40
0.0
 40
0.0
 40
0.0
 40
0.5
 40
0.5
 40
0.5
 40
0.5
 40
1.0
 40
1.0
 40
1.0
 40
1.0
 10
-2.9106900000000002
 20
3.5224100000000003
 30
0.0
 10
-2.8751300000000004
 20
3.5122500000000003
 30
0.0
 10
-2.82179
 20
3.4563700000000002
 30
0.0
 10
-2.8751300000000004
 20
3.4309700000000003
 30
0.0
 10
-2.8751300000000004
 20
3.4309700000000003
 30
0.0
 10
-2.9208500000000002
 20
3.4335100000000001
 30
0.0
 10
-2.9106900000000002
 20
3.4919300000000004
 30
0.0
 10
-2.9106900000000002
 20
3.5224100000000003
 30
0.0
  0
SPLINE
  5
2B
100
AcDbEntity
  8
Ebene 1
 62
     7
100
AcDbSpline
210
0.0
220
0.0
230
1.0
 70
     1
 71
     3
 72
    16
 73
    12
 74
     0
 42
0.0000000001
 43
0.0000000001
 40
0.0
 40
0.0
 40
0.0
 40
0.0
 40
0.3333333333333333
 40
0.3333333333333333
 40
0.3333333333333333
 40
0.3333333333333333
 40
0.6666666666666666
 40
0.6666666666666666
 40
0.6666666666666666
 40
0.6666666666666666
 40
1.0
 40
1.0
 40
1.0
 40
1.0
 10
-3.9419300000000002
 20
2.59023
 30
0.0
 10
-3.9419300000000002
 20
2.59023
 30
0.0
 10
-3.8225500000000001
 20
2.59023
 30
0.0
 10
-3.8225500000000001
 20
2.59023
 30
0.0
 10
-3.8225500000000001
 20
2.59023
 30
0.0
 10
-3.8225500000000001
 20
2.59023
 30
0.0
 10
-3.7869900000000003
 20
2.5876900000000003
 30
0.0
 10
-3.7869900000000003
 20
2.5876900000000003
 30
0.0
 10
-3.7869900000000003
 20
2.5876900000000003
 30
0.0
 10
-3.8225500000000001
 20
2.5064100000000002
 30
0.0
 10
-4.0536900000000005
 20
2.4505300000000001
 30
0.0
 10
-3.9419300000000002
 20
2.59023
 30
0.0
  0
SPLINE
  5
2C
100
AcDbEntity
  8
Ebene 1
100
AcDbSpline
210
0.0
220
0.0
230
1.0
 70
     1
 71
     3
 72
    24
 73
    20
 74
     0
 42
0.0000000001
 43
0.0000000001
 40
0.0
 40
0.0
 40
0.0
 40
0.0
 40
0.2
 40
0.2
 40
0.2
 40
0.2
 40
0.4
 40
0.4
 40
0.4
 40
0.4
 40
0.6000000000000001
 40
0.6000000000000001
 40
0.6000000000000001
 40
0.6000000000000001
 40
0.8
 40
0.8
 40
0.8
 40
0.8
 40
1.0
 40
1.0
 40
1.0
 40
1.0
 10
-0.57389
 20
2.3336900000000003
 30
0.0
 10
0.22112
 20
2.2803500000000003
 30
0.0
 10
0.9094600000000001
 20
1.7901300000000002
 30
0.0
 10
1.6841600000000001
 20
1.73933
 30
0.0
 10
1.6841600000000001
 20
1.73933
 30
0.0
 10
1.7095600000000002
 20
1.7342500000000001
 30
0.0
 10
1.7298800000000001
 20
1.7063100000000002
 30
0.0
 10
1.7222600000000001
 20
1.6783700000000001
 30
0.0
 10
1.7222600000000001
 20
1.6783700000000001
 30
0.0
 10
1.56986
 20
1.6097900000000001
 30
0.0
 10
1.3844400000000001
 20
1.5767700000000002
 30
0.0
 10
1.2066400000000002
 20
1.5615300000000001
 30
0.0
 10
1.2066400000000002
 20
1.5615300000000001
 30
0.0
 10
0.65546
 20
1.8460100000000002
 30
0.0
 10
0.10682
 20
2.24987
 30
0.0
 10
-0.53325
 20
2.2346300000000001
 30
0.0
 10
-0.53325
 20
2.2346300000000001
 30
0.0
 10
-0.57389
 20
2.24987
 30
0.0
 10
-0.61199
 20
2.2955900000000002
 30
0.0
 10
-0.57389
 20
2.3336900000000003
 30
0.0
  0
SPLINE
  5
2D
100
AcDbEntity
  8
Ebene 1
100
AcDbSpline
210
0.0
220
0.0
230
1.0
 70
     1
 71
     3
 72
    16
 73
    12
 74
     0
 42
0.0000000001
 43
0.0000000001
 40
0.0
 40
0.0
 40
0.0
 40
0.0
 40
0.3333333333333333
 40
0.3333333333333333
 40
0.3333333333333333
 40
0.3333333333333333
 40
0.6666666666666666
 40
0.6666666666666666
 40
0.6666666666666666
 40
0.6666666666666666
 40
1.0
 40
1.0
 40
1.0
 40
1.0
 10
3.3275400000000004
 20
2.1939900000000003
 30
0.0
 10
3.3859600000000003
 20
2.1177900000000003
 30
0.0
 10
3.4012000000000002
 20
1.9882500000000001
 30
0.0
 10
3.4012000000000002
 20
1.8841100000000002
 30
0.0
 10
3.4012000000000002
 20
1.8841100000000002
 30
0.0
 10
3.4012000000000002
 20
1.8841100000000002
 30
0.0
 10
3.1345000000000001
 20
1.8637900000000001
 30
0.0
 10
3.1345000000000001
 20
1.8637900000000001
 30
0.0
 10
3.1345000000000001
 20
1.8637900000000001
 30
0.0
 10
3.0379800000000001
 20
2.0314300000000003
 30
0.0
 10
3.3300800000000002
 20
2.0238100000000001
 30
0.0
 10
3.3275400000000004
 20
2.1939900000000003
 30
0.0
  0
SPLINE
  5
2E
100
AcDbEntity
  8
Ebene 1
100
AcDbSpline
210
0.0
220
0.0
230
1.0
 70
     1
 71
     3
 72
    84
 73
    80
 74
     0
 42
0.0000000001
 43
0.0000000001
 40
0.0
 40
0.0
 40
0.0
 40
0.0
 40
0.05
 40
0.05
 40
0.05
 40
0.05
 40
0.1
 40
0.1
 40
0.1
 40
0.1
 40
0.15
 40
0.15
 40
0.15
 40
0.15
 40
0.2
 40
0.2
 40
0.2
 40
0.2
 40
0.25
 40
0.25
 40
0.25
 40
0.25
 40
0.3
 40
0.3
 40
0.3
 40
0.3
 40
0.35
 40
0.35
 40
0.35
 40
0.35
 40
0.4
 40
0.4
 40
0.4
 40
0.4
 40
0.45
 40
0.45
 40
0.45
 40
0.45
 40
0.4999999999999999
 40
0.4999999999999999
 40
0.4999999999999999
 40
0.4999999999999999
 40
0.5499999999999999
 40
0.5499999999999999
 40
0.5499999999999999
 40
0.5499999999999999
 40
0.6
 40
0.6
 40
0.6
 40
0.6
 40
0.65
 40
0.65
 40
0.65
 40
0.65
 40
0.7000000000000001
 40
0.7000000000000001
 40
0.7000000000000001
 40
0.7000000000000001
 40
0.7500000000000001
 40
0.7500000000000001
 40
0.7500000000000001
 40
0.7500000000000001
 40
0.8000000000000002
 40
0.8000000000000002
 40
0.8000000000000002
 40
0.8000000000000002
 40
0.8500000000000002
 40
0.8500000000000002
 40
0.8500000000000002
 40
0.8500000000000002
 40
0.9000000000000002
 40
0.9000000000000002
 40
0.9000000000000002
 40
0.9000000000000002
 40
0.9500000000000003
 40
0.9500000000000003
 40
0.9500000000000003
 40
0.9500000000000003
 40
1.0
 40
1.0
 40
1.0
 40
1.0
 10
-2.1969500000000002
 20
2.0771500000000001
 30
0.0
 10
-2.2096500000000003
 20
1.8358500000000002
 30
0.0
 10
-2.4992100000000002
 20
1.3253100000000002
 30
0.0
 10
-2.01153
 20
1.0916300000000001
 30
0.0
 10
-2.01153
 20
1.0916300000000001
 30
0.0
 10
-1.9150100000000001
 20
1.03067
 30
0.0
 10
-1.8235700000000001
 20
1.1297300000000001
 30
0.0
 10
-1.7270500000000002
 20
1.15005
 30
0.0
 10
-1.7270500000000002
 20
1.15005
 30
0.0
 10
-1.9302500000000002
 20
1.4548500000000002
 30
0.0
 10
-1.7702300000000002
 20
1.8841100000000002
 30
0.0
 10
-1.4679700000000002
 20
2.0517500000000002
 30
0.0
 10
-1.4679700000000002
 20
2.0517500000000002
 30
0.0
 10
-1.5619500000000002
 20
1.7748900000000001
 30
0.0
 10
-1.8946900000000002
 20
1.3380100000000001
 30
0.0
 10
-1.4095500000000001
 20
1.2211700000000001
 30
0.0
 10
-1.4095500000000001
 20
1.2211700000000001
 30
0.0
 10
-0.9396500000000001
 20
1.1322700000000001
 30
0.0
 10
-1.1403100000000002
 20
1.9755500000000001
 30
0.0
 10
-0.61707
 20
2.0720700000000001
 30
0.0
 10
-0.61707
 20
2.0720700000000001
 30
0.0
 10
-0.8837700000000001
 20
1.8053700000000001
 30
0.0
 10
-1.1784100000000002
 20
1.0433700000000001
 30
0.0
 10
-0.5180100000000001
 20
1.1322700000000001
 30
0.0
 10
-0.5180100000000001
 20
1.1322700000000001
 30
0.0
 10
-0.52817
 20
1.3659500000000002
 30
0.0
 10
-0.41895
 20
1.52597
 30
0.0
 10
-0.21067
 20
1.6377300000000001
 30
0.0
 10
-0.21067
 20
1.6377300000000001
 30
0.0
 10
-0.21067
 20
1.6377300000000001
 30
0.0
 10
0.0357
 20
1.7647300000000001
 30
0.0
 10
0.0357
 20
1.7647300000000001
 30
0.0
 10
0.0357
 20
1.7647300000000001
 30
0.0
 10
0.07888
 20
1.78251
 30
0.0
 10
0.12206
 20
1.8307700000000002
 30
0.0
 10
0.17286
 20
1.8155300000000001
 30
0.0
 10
0.17286
 20
1.8155300000000001
 30
0.0
 10
-0.05827
 20
1.5970900000000001
 30
0.0
 10
-0.6196100000000001
 20
1.3710300000000002
 30
0.0
 10
-0.36815
 20
0.95447
 30
0.0
 10
-0.36815
 20
0.95447
 30
0.0
 10
0.04586
 20
0.76905
 30
0.0
 10
0.6300600000000001
 20
0.5709300000000001
 30
0.0
 10
1.1736200000000001
 20
1.1602100000000002
 30
0.0
 10
1.1736200000000001
 20
1.1602100000000002
 30
0.0
 10
1.19648
 20
1.2033900000000002
 30
0.0
 10
1.2574400000000001
 20
1.2618100000000001
 30
0.0
 10
1.2879200000000002
 20
1.1856100000000001
 30
0.0
 10
1.2879200000000002
 20
1.1856100000000001
 30
0.0
 10
1.2879200000000002
 20
1.1856100000000001
 30
0.0
 10
1.1253600000000001
 20
0.6750700000000001
 30
0.0
 10
1.1253600000000001
 20
0.6750700000000001
 30
0.0
 10
1.1253600000000001
 20
0.6750700000000001
 30
0.0
 10
0.14492
 20
0.7969900000000001
 30
0.0
 10
-0.70089
 20
0.08579
 30
0.0
 10
-1.4781300000000002
 20
-0.47046
 30
0.0
 10
-1.4781300000000002
 20
-0.47046
 30
0.0
 10
-1.5162300000000002
 20
-0.32568
 30
0.0
 10
-1.2368300000000001
 20
-0.23932
 30
0.0
 10
-1.1504700000000001
 20
-0.12502
 30
0.0
 10
-1.1504700000000001
 20
-0.12502
 30
0.0
 10
-1.4298700000000002
 20
0.08833
 30
0.0
 10
-1.75753
 20
0.23311
 30
0.0
 10
-2.0928100000000001
 20
0.08071
 30
0.0
 10
-2.0928100000000001
 20
0.08071
 30
0.0
 10
-2.0191500000000002
 20
0.19501
 30
0.0
 10
-2.0394700000000001
 20
0.28645
 30
0.0
 10
-1.6610100000000001
 20
0.3575700000000001
 30
0.0
 10
-1.6610100000000001
 20
0.3575700000000001
 30
0.0
 10
-1.8337300000000001
 20
0.5404500000000001
 30
0.0
 10
-2.0242300000000002
 20
0.61411
 30
0.0
 10
-2.2299700000000002
 20
0.7360300000000001
 30
0.0
 10
-2.2299700000000002
 20
0.7360300000000001
 30
0.0
 10
-2.2782300000000002
 20
0.8173100000000001
 30
0.0
 10
-2.1486900000000002
 20
0.8122300000000001
 30
0.0
 10
-2.1588500000000002
 20
0.8884300000000001
 30
0.0
 10
-2.1588500000000002
 20
0.8884300000000001
 30
0.0
 10
-2.5017500000000004
 20
1.2465700000000002
 30
0.0
 10
-2.4915900000000004
 20
1.6936100000000001
 30
0.0
 10
-2.1969500000000002
 20
2.0771500000000001
 30
0.0
  0
SPLINE
  5
2F
100
AcDbEntity
  8
Ebene 1
 62
     7
100
AcDbSpline
210
0.0
220
0.0
230
1.0
 70
     1
 71
     3
 72
    12
 73
     8
 74
     0
 42
0.0000000001
 43
0.0000000001
 40
0.0
 40
0.0
 40
0.0
 40
0.0
 40
0.5
 40
0.5
 40
0.5
 40
0.5
 40
1.0
 40
1.0
 40
1.0
 40
1.0
 10
3.9219000000000004
 20
1.2440300000000002
 30
0.0
 10
3.9777800000000005
 20
1.2160900000000001
 30
0.0
 10
3.9422200000000003
 20
1.0992500000000001
 30
0.0
 10
3.9168200000000004
 20
1.0509900000000001
 30
0.0
 10
3.9168200000000004
 20
1.0509900000000001
 30
0.0
 10
3.8253800000000004
 20
1.10433
 30
0.0
 10
3.9041200000000003
 20
1.1703700000000001
 30
0.0
 10
3.9219000000000004
 20
1.2440300000000002
 30
0.0
  0
SPLINE
  5
30
100
AcDbEntity
  8
Ebene 1
100
AcDbSpline
210
0.0
220
0.0
230
1.0
 70
     1
 71
     3
 72
    20
 73
    16
 74
     0
 42
0.0000000001
 43
0.0000000001
 40
0.0
 40
0.0
 40
0.0
 40
0.0
 40
0.25
 40
0.25
 40
0.25
 40
0.25
 40
0.5
 40
0.5
 40
0.5
 40
0.5
 40
0.75
 40
0.75
 40
0.75
 40
0.75
 40
1.0
 40
1.0
 40
1.0
 40
1.0
 10
3.4139000000000004
 20
0.9265300000000001
 30
0.0
 10
3.5053400000000003
 20
0.95447
 30
0.0
 10
3.6120200000000002
 20
0.7919100000000001
 30
0.0
 10
3.6171000000000002
 20
0.57601
 30
0.0
 10
3.6171000000000002
 20
0.57601
 30
0.0
 10
3.5967800000000003
 20
0.4947300000000001
 30
0.0
 10
3.5561400000000001
 20
0.5023500000000001
 30
0.0
 10
3.5231200000000005
 20
0.53029
 30
0.0
 10
3.5231200000000005
 20
0.53029
 30
0.0
 10
3.5028000000000001
 20
0.42361
 30
0.0
 10
3.4215200000000001
 20
0.3804300000000001
 30
0.0
 10
3.3910400000000003
 20
0.4972700000000001
 30
0.0
 10
3.3910400000000003
 20
0.4972700000000001
 30
0.0
 10
3.3961200000000002
 20
0.64205
 30
0.0
 10
3.3758000000000004
 20
0.8376300000000001
 30
0.0
 10
3.4139000000000004
 20
0.9265300000000001
 30
0.0
  0
SPLINE
  5
31
100
AcDbEntity
  8
Ebene 1
100
AcDbSpline
210
0.0
220
0.0
230
1.0
 70
     1
 71
     3
 72
    24
 73
    20
 74
     0
 42
0.0000000001
 43
0.0000000001
 40
0.0
 40
0.0
 40
0.0
 40
0.0
 40
0.2
 40
0.2
 40
0.2
 40
0.2
 40
0.4
 40
0.4
 40
0.4
 40
0.4
 40
0.6000000000000001
 40
0.6000000000000001
 40
0.6000000000000001
 40
0.6000000000000001
 40
0.8
 40
0.8
 40
0.8
 40
0.8
 40
1.0
 40
1.0
 40
1.0
 40
1.0
 10
2.0397600000000002
 20
0.82747
 30
0.0
 10
2.3267800000000003
 20
0.80969
 30
0.0
 10
2.5630000000000002
 20
0.5277500000000001
 30
0.0
 10
2.5909400000000002
 20
0.25851
 30
0.0
 10
2.5909400000000002
 20
0.25851
 30
0.0
 10
2.2175600000000002
 20
0.16961
 30
0.0
 10
1.9280000000000002
 20
0.5429900000000001
 30
0.0
 10
1.5825600000000002
 20
0.37281
 30
0.0
 10
1.5825600000000002
 20
0.37281
 30
0.0
 10
1.5825600000000002
 20
0.37281
 30
0.0
 10
1.3920600000000001
 20
0.37789
 30
0.0
 10
1.3920600000000001
 20
0.37789
 30
0.0
 10
1.3920600000000001
 20
0.37789
 30
0.0
 10
1.3920600000000001
 20
0.37789
 30
0.0
 10
1.3666600000000002
 20
0.4515500000000001
 30
0.0
 10
1.3666600000000002
 20
0.4515500000000001
 30
0.0
 10
1.3666600000000002
 20
0.4515500000000001
 30
0.0
 10
1.5368400000000002
 20
0.6547500000000001
 30
0.0
 10
1.8238600000000003
 20
0.72079
 30
0.0
 10
2.0397600000000002
 20
0.82747
 30
0.0
  0
SPLINE
  5
32
100
AcDbEntity
  8
Ebene 1
 62
     7
100
AcDbSpline
210
0.0
220
0.0
230
1.0
 70
     1
 71
     3
 72
    12
 73
     8
 74
     0
 42
0.0000000001
 43
0.0000000001
 40
0.0
 40
0.0
 40
0.0
 40
0.0
 40
0.5
 40
0.5
 40
0.5
 40
0.5
 40
1.0
 40
1.0
 40
1.0
 40
1.0
 10
-0.4926100000000001
 20
0.6903100000000001
 30
0.0
 10
-0.44181
 20
0.6928500000000001
 30
0.0
 10
-0.36307
 20
0.6903100000000001
 30
0.0
 10
-0.34021
 20
0.6344300000000001
 30
0.0
 10
-0.34021
 20
0.6344300000000001
 30
0.0
 10
-0.38085
 20
0.57855
 30
0.0
 10
-0.49769
 20
0.62173
 30
0.0
 10
-0.4926100000000001
 20
0.6903100000000001
 30
0.0
  0
SPLINE
  5
33
100
AcDbEntity
  8
Ebene 1
 62
     7
100
AcDbSpline
210
0.0
220
0.0
230
1.0
 70
     1
 71
     3
 72
    24
 73
    20
 74
     0
 42
0.0000000001
 43
0.0000000001
 40
0.0
 40
0.0
 40
0.0
 40
0.0
 40
0.2
 40
0.2
 40
0.2
 40
0.2
 40
0.4
 40
0.4
 40
0.4
 40
0.4
 40
0.6000000000000001
 40
0.6000000000000001
 40
0.6000000000000001
 40
0.6000000000000001
 40
0.8
 40
0.8
 40
0.8
 40
0.8
 40
1.0
 40
1.0
 40
1.0
 40
1.0
 10
4.0870000000000006
 20
0.6903100000000001
 30
0.0
 10
4.1505000000000001
 20
0.5048900000000001
 30
0.0
 10
4.3511600000000001
 20
0.39821
 30
0.0
 10
4.3308400000000002
 20
0.17977
 30
0.0
 10
4.3308400000000002
 20
0.17977
 30
0.0
 10
4.3156000000000008
 20
0.20009
 30
0.0
 10
4.2673399999999999
 20
0.33471
 30
0.0
 10
4.25718
 20
0.23311
 30
0.0
 10
4.25718
 20
0.23311
 30
0.0
 10
4.2927400000000002
 20
0.11881
 30
0.0
 10
4.3613200000000001
 20
-0.03612
 30
0.0
 10
4.2724200000000003
 20
-0.14026
 30
0.0
 10
4.2724200000000003
 20
-0.14026
 30
0.0
 10
4.1886000000000001
 20
0.05531
 30
0.0
 10
3.9803200000000003
 20
0.31185
 30
0.0
 10
4.0870000000000006
 20
0.55061
 30
0.0
 10
4.0870000000000006
 20
0.55061
 30
0.0
 10
4.0870000000000006
 20
0.55061
 30
0.0
 10
4.0870000000000006
 20
0.6903100000000001
 30
0.0
 10
4.0870000000000006
 20
0.6903100000000001
 30
0.0
  0
SPLINE
  5
34
100
AcDbEntity
  8
Ebene 1
 62
     7
100
AcDbSpline
210
0.0
220
0.0
230
1.0
 70
     1
 71
     3
 72
   176
 73
   172
 74
     0
 42
0.0000000001
 43
0.0000000001
 40
0.0
 40
0.0
 40
0.0
 40
0.0
 40
0.0232558139534884
 40
0.0232558139534884
 40
0.0232558139534884
 40
0.0232558139534884
 40
0.0465116279069767
 40
0.0465116279069767
 40
0.0465116279069767
 40
0.0465116279069767
 40
0.0697674418604651
 40
0.0697674418604651
 40
0.0697674418604651
 40
0.0697674418604651
 40
0.0930232558139535
 40
0.0930232558139535
 40
0.0930232558139535
 40
0.0930232558139535
 40
0.1162790697674419
 40
0.1162790697674419
 40
0.1162790697674419
 40
0.1162790697674419
 40
0.1395348837209302
 40
0.1395348837209302
 40
0.1395348837209302
 40
0.1395348837209302
 40
0.1627906976744186
 40
0.1627906976744186
 40
0.1627906976744186
 40
0.1627906976744186
 40
0.186046511627907
 40
0.186046511627907
 40
0.186046511627907
 40
0.186046511627907
 40
0.2093023255813953
 40
0.2093023255813953
 40
0.2093023255813953
 40
0.2093023255813953
 40
0.2325581395348837
 40
0.2325581395348837
 40
0.2325581395348837
 40
0.2325581395348837
 40
0.2558139534883721
 40
0.2558139534883721
 40
0.2558139534883721
 40
0.2558139534883721
 40
0.2790697674418604
 40
0.2790697674418604
 40
0.2790697674418604
 40
0.2790697674418604
 40
0.3023255813953488
 40
0.3023255813953488
 40
0.3023255813953488
 40
0.3023255813953488
 40
0.3255813953488371
 40
0.3255813953488371
 40
0.3255813953488371
 40
0.3255813953488371
 40
0.3488372093023255
 40
0.3488372093023255
 40
0.3488372093023255
 40
0.3488372093023255
 40
0.3720930232558138
 40
0.3720930232558138
 40
0.3720930232558138
 40
0.3720930232558138
 40
0.3953488372093022
 40
0.3953488372093022
 40
0.3953488372093022
 40
0.3953488372093022
 40
0.4186046511627906
 40
0.4186046511627906
 40
0.4186046511627906
 40
0.4186046511627906
 40
0.4418604651162789
 40
0.4418604651162789
 40
0.4418604651162789
 40
0.4418604651162789
 40
0.4651162790697673
 40
0.4651162790697673
 40
0.4651162790697673
 40
0.4651162790697673
 40
0.4883720930232556
 40
0.4883720930232556
 40
0.4883720930232556
 40
0.4883720930232556
 40
0.511627906976744
 40
0.511627906976744
 40
0.511627906976744
 40
0.511627906976744
 40
0.5348837209302324
 40
0.5348837209302324
 40
0.5348837209302324
 40
0.5348837209302324
 40
0.5581395348837208
 40
0.5581395348837208
 40
0.5581395348837208
 40
0.5581395348837208
 40
0.5813953488372092
 40
0.5813953488372092
 40
0.5813953488372092
 40
0.5813953488372092
 40
0.6046511627906976
 40
0.6046511627906976
 40
0.6046511627906976
 40
0.6046511627906976
 40
0.6279069767441861
 40
0.6279069767441861
 40
0.6279069767441861
 40
0.6279069767441861
 40
0.6511627906976745
 40
0.6511627906976745
 40
0.6511627906976745
 40
0.6511627906976745
 40
0.6744186046511629
 40
0.6744186046511629
 40
0.6744186046511629
 40
0.6744186046511629
 40
0.6976744186046513
 40
0.6976744186046513
 40
0.6976744186046513
 40
0.6976744186046513
 40
0.7209302325581397
 40
0.7209302325581397
 40
0.7209302325581397
 40
0.7209302325581397
 40
0.7441860465116281
 40
0.7441860465116281
 40
0.7441860465116281
 40
0.7441860465116281
 40
0.7674418604651165
 40
0.7674418604651165
 40
0.7674418604651165
 40
0.7674418604651165
 40
0.790697674418605
 40
0.790697674418605
 40
0.790697674418605
 40
0.790697674418605
 40
0.8139534883720934
 40
0.8139534883720934
 40
0.8139534883720934
 40
0.8139534883720934
 40
0.8372093023255818
 40
0.8372093023255818
 40
0.8372093023255818
 40
0.8372093023255818
 40
0.8604651162790702
 40
0.8604651162790702
 40
0.8604651162790702
 40
0.8604651162790702
 40
0.8837209302325586
 40
0.8837209302325586
 40
0.8837209302325586
 40
0.8837209302325586
 40
0.906976744186047
 40
0.906976744186047
 40
0.906976744186047
 40
0.906976744186047
 40
0.9302325581395354
 40
0.9302325581395354
 40
0.9302325581395354
 40
0.9302325581395354
 40
0.9534883720930238
 40
0.9534883720930238
 40
0.9534883720930238
 40
0.9534883720930238
 40
0.9767441860465123
 40
0.9767441860465123
 40
0.9767441860465123
 40
0.9767441860465123
 40
1.0
 40
1.0
 40
1.0
 40
1.0
 10
4.5950000000000006
 20
-3.8461200000000004
 30
0.0
 10
5.1461800000000002
 20
-4.4506399999999999
 30
0.0
 10
4.7448600000000001
 20
-5.2101000000000006
 30
0.0
 10
4.6915200000000006
 20
-5.8603400000000008
 30
0.0
 10
4.6915200000000006
 20
-5.8603400000000008
 30
0.0
 10
4.3587800000000003
 20
-6.0584600000000002
 30
0.0
 10
3.9244400000000002
 20
-5.9086000000000007
 30
0.0
 10
4.16066
 20
-5.6495200000000008
 30
0.0
 10
4.16066
 20
-5.6495200000000008
 30
0.0
 10
3.3300800000000002
 20
-6.2997600000000009
 30
0.0
 10
2.3725000000000001
 20
-6.1499000000000006
 30
0.0
 10
1.40476
 20
-6.2032400000000001
 30
0.0
 10
1.40476
 20
-6.2032400000000001
 30
0.0
 10
0.53608
 20
-5.7257200000000008
 30
0.0
 10
-0.51293
 20
-5.3371000000000004
 30
0.0
 10
-1.2419100000000001
 20
-4.7122600000000006
 30
0.0
 10
-1.2419100000000001
 20
-4.7122600000000006
 30
0.0
 10
-1.4095500000000001
 20
-4.2271200000000002
 30
0.0
 10
-0.9879100000000001
 20
-4.4633400000000005
 30
0.0
 10
-0.7948700000000001
 20
-4.6614600000000008
 30
0.0
 10
-0.7948700000000001
 20
-4.6614600000000008
 30
0.0
 10
-0.7948700000000001
 20
-4.6614600000000008
 30
0.0
 10
-0.25893
 20
-5.0272200000000007
 30
0.0
 10
-0.25893
 20
-5.0272200000000007
 30
0.0
 10
-0.25893
 20
-5.0272200000000007
 30
0.0
 10
-1.1072900000000001
 20
-4.0493200000000007
 30
0.0
 10
-1.9302500000000002
 20
-3.0028400000000004
 30
0.0
 10
-2.6262100000000004
 20
-1.8776200000000001
 30
0.0
 10
-2.6262100000000004
 20
-1.8776200000000001
 30
0.0
 10
-2.6897100000000003
 20
-1.5652000000000001
 30
0.0
 10
-2.73543
 20
-1.20198
 30
0.0
 10
-2.6262100000000004
 20
-0.8971800000000001
 30
0.0
 10
-2.6262100000000004
 20
-0.8971800000000001
 30
0.0
 10
-2.5500100000000003
 20
-1.1105400000000001
 30
0.0
 10
-2.5931900000000003
 20
-1.8801600000000001
 30
0.0
 10
-2.4560300000000002
 20
-1.8242800000000001
 30
0.0
 10
-2.4560300000000002
 20
-1.8242800000000001
 30
0.0
 10
-2.5017500000000004
 20
-1.6668000000000001
 30
0.0
 10
-2.4788900000000003
 20
-1.5144000000000002
 30
0.0
 10
-2.4738100000000003
 20
-1.3493000000000002
 30
0.0
 10
-2.4738100000000003
 20
-1.3493000000000002
 30
0.0
 10
-2.4687300000000003
 20
-1.2197600000000002
 30
0.0
 10
-2.4484100000000004
 20
-1.0978400000000001
 30
0.0
 10
-2.4103100000000004
 20
-0.9759200000000001
 30
0.0
 10
-2.4103100000000004
 20
-0.9759200000000001
 30
0.0
 10
-1.8769100000000001
 20
-1.3442200000000002
 30
0.0
 10
-2.3315700000000001
 20
-2.4186400000000003
 30
0.0
 10
-1.5670300000000001
 20
-2.5304000000000002
 30
0.0
 10
-1.5670300000000001
 20
-2.5304000000000002
 30
0.0
 10
-1.58989
 20
-2.4465800000000004
 30
0.0
 10
-1.7956300000000001
 20
-2.35514
 30
0.0
 10
-1.7168900000000002
 20
-2.3043400000000003
 30
0.0
 10
-1.7168900000000002
 20
-2.3043400000000003
 30
0.0
 10
-1.5543300000000002
 20
-2.2484600000000001
 30
0.0
 10
-1.5162300000000002
 20
-2.0478000000000001
 30
0.0
 10
-1.4044700000000001
 20
-1.92334
 30
0.0
 10
-1.4044700000000001
 20
-1.92334
 30
0.0
 10
-1.41717
 20
-1.8039600000000002
 30
0.0
 10
-1.2749300000000001
 20
-1.7176000000000002
 30
0.0
 10
-1.17079
 20
-1.7277600000000002
 30
0.0
 10
-1.17079
 20
-1.7277600000000002
 30
0.0
 10
-1.04633
 20
-2.3957800000000002
 30
0.0
 10
-0.7262900000000001
 20
-3.0511000000000004
 30
0.0
 10
-0.59421
 20
-3.6861000000000002
 30
0.0
 10
-0.59421
 20
-3.6861000000000002
 30
0.0
 10
-0.5434100000000001
 20
-3.6226000000000003
 30
0.0
 10
-0.5840500000000001
 20
-3.5083000000000002
 30
0.0
 10
-0.59421
 20
-3.4295600000000004
 30
0.0
 10
-0.59421
 20
-3.4295600000000004
 30
0.0
 10
-0.59421
 20
-3.4295600000000004
 30
0.0
 10
-0.88885
 20
-2.0833600000000003
 30
0.0
 10
-0.88885
 20
-2.0833600000000003
 30
0.0
 10
-0.88885
 20
-2.0833600000000003
 30
0.0
 10
-0.8202700000000001
 20
-1.8496800000000002
 30
0.0
 10
-1.08951
 20
-1.4305800000000002
 30
0.0
 10
-0.7542300000000001
 20
-1.37216
 30
0.0
 10
-0.7542300000000001
 20
-1.37216
 30
0.0
 10
-0.7796300000000001
 20
-2.35006
 30
0.0
 10
-0.47229
 20
-3.3279600000000005
 30
0.0
 10
-0.06589
 20
-4.1941000000000006
 30
0.0
 10
-0.06589
 20
-4.1941000000000006
 30
0.0
 10
0.00014
 20
-4.3363400000000007
 30
0.0
 10
0.18048
 20
-4.6868600000000002
 30
0.0
 10
0.27192
 20
-4.5522400000000003
 30
0.0
 10
0.27192
 20
-4.5522400000000003
 30
0.0
 10
0.28208
 20
-4.4455600000000004
 30
0.0
 10
0.15762
 20
-4.3769800000000005
 30
0.0
 10
0.17286
 20
-4.2652200000000002
 30
0.0
 10
0.17286
 20
-4.2652200000000002
 30
0.0
 10
0.2262
 20
-3.5997400000000002
 30
0.0
 10
0.49036
 20
-4.4582600000000001
 30
0.0
 10
0.59196
 20
-4.6563800000000004
 30
0.0
 10
0.59196
 20
-4.6563800000000004
 30
0.0
 10
1.0415400000000001
 20
-4.8011600000000003
 30
0.0
 10
0.6097400000000001
 20
-4.9611800000000006
 30
0.0
 10
1.3031600000000001
 20
-5.1669200000000002
 30
0.0
 10
1.3031600000000001
 20
-5.1669200000000002
 30
0.0
 10
1.3031600000000001
 20
-5.1669200000000002
 30
0.0
 10
1.1279000000000001
 20
-4.6970200000000002
 30
0.0
 10
1.1279000000000001
 20
-4.6970200000000002
 30
0.0
 10
1.1279000000000001
 20
-4.6970200000000002
 30
0.0
 10
1.1279000000000001
 20
-4.6970200000000002
 30
0.0
 10
1.14822
 20
-4.3211000000000004
 30
0.0
 10
1.14822
 20
-4.3211000000000004
 30
0.0
 10
1.14822
 20
-4.3211000000000004
 30
0.0
 10
1.0974200000000001
 20
-3.4422600000000001
 30
0.0
 10
1.4504800000000002
 20
-4.6919400000000007
 30
0.0
 10
1.3920600000000001
 20
-5.0272200000000007
 30
0.0
 10
1.3920600000000001
 20
-5.0272200000000007
 30
0.0
 10
1.4708000000000001
 20
-5.0196000000000005
 30
0.0
 10
1.4784200000000001
 20
-4.9332400000000005
 30
0.0
 10
1.5063600000000001
 20
-4.8748200000000006
 30
0.0
 10
1.5063600000000001
 20
-4.8748200000000006
 30
0.0
 10
1.6028800000000001
 20
-4.8672000000000004
 30
0.0
 10
1.7679800000000001
 20
-4.9662600000000001
 30
0.0
 10
1.7679800000000001
 20
-5.1085000000000003
 30
0.0
 10
1.7679800000000001
 20
-5.1085000000000003
 30
0.0
 10
1.7679800000000001
 20
-5.1085000000000003
 30
0.0
 10
1.7984600000000002
 20
-5.1567600000000002
 30
0.0
 10
1.7984600000000002
 20
-5.1567600000000002
 30
0.0
 10
1.7984600000000002
 20
-5.1567600000000002
 30
0.0
 10
1.7984600000000002
 20
-5.1567600000000002
 30
0.0
 10
1.8975200000000001
 20
-5.24566
 30
0.0
 10
1.8975200000000001
 20
-5.24566
 30
0.0
 10
1.8975200000000001
 20
-5.24566
 30
0.0
 10
1.7679800000000001
 20
-4.91038
 30
0.0
 10
2.0423
 20
-3.9172400000000005
 30
0.0
 10
2.12358
 20
-4.7808400000000004
 30
0.0
 10
2.12358
 20
-4.7808400000000004
 30
0.0
 10
2.29122
 20
-5.0018200000000004
 30
0.0
 10
2.2302600000000004
 20
-5.1389800000000001
 30
0.0
 10
2.0956400000000004
 20
-5.2964600000000006
 30
0.0
 10
2.0956400000000004
 20
-5.2964600000000006
 30
0.0
 10
2.3217000000000003
 20
-5.4107600000000007
 30
0.0
 10
2.34456
 20
-4.98658
 30
0.0
 10
2.6442800000000002
 20
-5.03484
 30
0.0
 10
2.6442800000000002
 20
-5.03484
 30
0.0
 10
2.6442800000000002
 20
-5.03484
 30
0.0
 10
2.7458800000000001
 20
-5.4107600000000007
 30
0.0
 10
2.7458800000000001
 20
-5.4107600000000007
 30
0.0
 10
2.7458800000000001
 20
-5.4107600000000007
 30
0.0
 10
2.7458800000000001
 20
-5.4107600000000007
 30
0.0
 10
2.9871800000000004
 20
-5.4641000000000002
 30
0.0
 10
2.9871800000000004
 20
-5.4641000000000002
 30
0.0
 10
2.9871800000000004
 20
-5.4641000000000002
 30
0.0
 10
2.6646000000000001
 20
-4.9992800000000006
 30
0.0
 10
2.8119200000000002
 20
-4.4328600000000007
 30
0.0
 10
2.8779600000000003
 20
-3.9070800000000001
 30
0.0
 10
2.8779600000000003
 20
-3.9070800000000001
 30
0.0
 10
3.0811600000000001
 20
-4.3134800000000002
 30
0.0
 10
3.4672400000000003
 20
-4.8545000000000007
 30
0.0
 10
3.1751400000000003
 20
-5.3040800000000008
 30
0.0
 10
3.1751400000000003
 20
-5.3040800000000008
 30
0.0
 10
3.2945200000000003
 20
-5.3142400000000007
 30
0.0
 10
3.3910400000000003
 20
-5.1694600000000008
 30
0.0
 10
3.4443800000000002
 20
-5.0983400000000003
 30
0.0
 10
3.4443800000000002
 20
-5.0983400000000003
 30
0.0
 10
3.9803200000000003
 20
-5.4869600000000007
 30
0.0
 10
3.9269800000000004
 20
-4.5344600000000002
 30
0.0
 10
4.0006400000000006
 20
-4.1814
 30
0.0
 10
4.0006400000000006
 20
-4.1814
 30
0.0
 10
4.0692200000000005
 20
-4.3236400000000001
 30
0.0
 10
4.1276400000000004
 20
-4.4912800000000006
 30
0.0
 10
4.1403400000000001
 20
-4.6563800000000004
 30
0.0
 10
4.1403400000000001
 20
-4.6563800000000004
 30
0.0
 10
4.1962200000000003
 20
-4.9434000000000005
 30
0.0
 10
4.1657400000000004
 20
-5.2355
 30
0.0
 10
4.1809799999999999
 20
-5.5072800000000006
 30
0.0
 10
4.1809799999999999
 20
-5.5072800000000006
 30
0.0
 10
4.3079800000000006
 20
-4.98658
 30
0.0
 10
4.8134400000000008
 20
-4.5319200000000004
 30
0.0
 10
4.5950000000000006
 20
-3.8461200000000004
 30
0.0
  0
SPLINE
  5
35
100
AcDbEntity
  8
Ebene 1
 62
     7
100
AcDbSpline
210
0.0
220
0.0
230
1.0
 70
     1
 71
     3
 72
    20
 73
    16
 74
     0
 42
0.0000000001
 43
0.0000000001
 40
0.0
 40
0.0
 40
0.0
 40
0.0
 40
0.25
 40
0.25
 40
0.25
 40
0.25
 40
0.5
 40
0.5
 40
0.5
 40
0.5
 40
0.75
 40
0.75
 40
0.75
 40
0.75
 40
1.0
 40
1.0
 40
1.0
 40
1.0
 10
2.0600800000000001
 20
-1.25024
 30
0.0
 10
2.12358
 20
-1.4890000000000001
 30
0.0
 10
2.1439000000000004
 20
-1.8598400000000002
 30
0.0
 10
1.9661000000000002
 20
-2.0554200000000002
 30
0.0
 10
1.9661000000000002
 20
-2.0554200000000002
 30
0.0
 10
1.8441800000000002
 20
-1.9792200000000002
 30
0.0
 10
1.8848200000000002
 20
-1.8293600000000001
 30
0.0
 10
1.9407000000000001
 20
-1.7252200000000002
 30
0.0
 10
1.9407000000000001
 20
-1.7252200000000002
 30
0.0
 10
1.9407000000000001
 20
-1.7252200000000002
 30
0.0
 10
1.9864200000000001
 20
-1.3137400000000001
 30
0.0
 10
1.9864200000000001
 20
-1.3137400000000001
 30
0.0
 10
1.9864200000000001
 20
-1.3137400000000001
 30
0.0
 10
1.9864200000000001
 20
-1.3137400000000001
 30
0.0
 10
2.0600800000000001
 20
-1.25024
 30
0.0
 10
2.0600800000000001
 20
-1.25024
 30
0.0
  0
SPLINE
  5
36
100
AcDbEntity
  8
Ebene 1
 62
     7
100
AcDbSpline
210
0.0
220
0.0
230
1.0
 70
     1
 71
     3
 72
     8
 73
     4
 74
     0
 42
0.0000000001
 43
0.0000000001
 40
0.0
 40
0.0
 40
0.0
 40
0.0
 40
1.0
 40
1.0
 40
1.0
 40
1.0
 10
4.5950000000000006
 20
-3.8461200000000004
 30
0.0
 10
4.5569000000000006
 20
-3.8461200000000004
 30
0.0
 10
4.5975400000000004
 20
-3.8080200000000004
 30
0.0
 10
4.5950000000000006
 20
-3.8461200000000004
 30
0.0
  0
ENDSEC
  0
SECTION
  2
OBJECTS
  0
DICTIONARY
  5
19
100
AcDbDictionary
280
     0
281
     1
  3
ACAD_GROUP
350
1A
  3
ACAD_MLINESTYLE
350
1B
  3
ACAD_LAYOUT
350
1E
  3
ACAD_PLOTSETTINGS
350
22
  3
ACAD_PLOTSTYLENAME
350
1F
  3
ACAD_WIPEOUT_VARS
350
23
  0
DICTIONARY
  5
1A
102
{ACAD_REACTORS
330
19
102
}
100
AcDbDictionary
280
     0
281
     1
  0
DICTIONARY
  5
1B
102
{ACAD_REACTORS
330
19
102
}
100
AcDbDictionary
280
     0
281
     1
  3
Standard
350
1C
  0
MLINESTYLE
  5
1C
102
{ACAD_REACTORS
330
1B
102
}
100
AcDbMlineStyle
  2
Standard
 70
     0
  3

 62
     0
 51
90.0
 52
90.0
 71
     2
 49
0.5
 62
   256
  6
BYLAYER
 49
-0.5
 62
   256
  6
BYLAYER
  0
ACDBDICTIONARYWDFLT
  5
1F
102
{ACAD_REACTORS
330
19
102
}
100
AcDbDictionary
281
     1
  3
Normal
350
1D
100
AcDbDictionaryWithDefault
340
1D
  0
ACDBPLACEHOLDER
  5
1D
102
{ACAD_REACTORS
330
1F
102
}
  0
LAYOUT
  5
20
102
{ACAD_REACTORS
330
1E
102
}
100
AcDbPlotSettings
  1

  2

  4

  6

 40
0.0
 41
0.0
 42
0.0
 43
0.0
 44
0.0
 45
0.0
 46
0.0
 47
0.0
 48
0.0
 49
0.0
140
0.0
141
0.0
142
1.0
143
1.0
 70
  1024
 72
     0
 73
     0
 74
     0
  7

 75
     0
147
1.0
148
0.0
149
0.0
100
AcDbLayout
  1
Model
 70
     0
 71
     0
 10
0.0
 20
0.0
 11
0.0
 21
0.0
 12
0.0
 22
0.0
 32
0.0
 14
0.0
 24
0.0
 34
0.0
 15
0.0
 25
0.0
 35
0.0
146
0.0
 13
0.0
 23
0.0
 33
0.0
 16
0.0
 26
0.0
 36
0.0
 17
0.0
 27
0.0
 37
0.0
 76
     0
330
A
331
0
345
0
346
0
  0
LAYOUT
  5
21
102
{ACAD_REACTORS
330
1E
102
}
100
AcDbPlotSettings
  1

  2

  4

  6

 40
0.0
 41
0.0
 42
0.0
 43
0.0
 44
0.0
 45
0.0
 46
0.0
 47
0.0
 48
0.0
 49
0.0
140
0.0
141
0.0
142
1.0
143
1.0
 70
     0
 72
     0
 73
     0
 74
     0
  7

 75
     0
147
1.0
148
0.0
149
0.0
100
AcDbLayout
  1
Layout1
 70
     0
 71
     0
 10
0.0
 20
0.0
 11
0.0
 21
0.0
 12
0.0
 22
0.0
 32
0.0
 14
0.0
 24
0.0
 34
0.0
 15
0.0
 25
0.0
 35
0.0
146
0.0
 13
0.0
 23
0.0
 33
0.0
 16
0.0
 26
0.0
 36
0.0
 17
0.0
 27
0.0
 37
0.0
 76
     0
330
B
331
0
345
0
346
0
  0
DICTIONARY
  5
1E
102
{ACAD_REACTORS
330
19
102
}
100
AcDbDictionary
280
     0
281
     1
  3
Layout1
350
21
  3
Model
350
20
  0
DICTIONARY
  5
22
102
{ACAD_REACTORS
330
19
102
}
100
AcDbDictionary
280
     0
281
     1
  0
WIPEOUTVARIABLES
  5
23
100
AcDbWipeoutVariables
 70
     1
  0
ENDSEC
  0
EOF
