  0
SECTION
  2
HEADER
  9
$ACADVER
  1
AC1015
  9
$ACADMAINTVER
 70
     6
  9
$DWGCODEPAGE
  3
DOS850
  9
$INSBASE
 10
0.0
 20
0.0
 30
0.0
  9
$EXTMIN
 10
-4.27721
 20
-5.89844
 30
1.000000E+20
  9
$EXTMAX
 10
4.28229
 20
5.89284
 30
-1.000000E+20
  9
$LIMMIN
 10
0.0
 20
0.0
  9
$LIMMAX
 10
0.0
 20
0.0
  9
$ORTHOMODE
 70
     0
  9
$REGENMODE
 70
     1
  9
$FILLMODE
 70
     1
  9
$QTEXTMODE
 70
     0
  9
$MIRRTEXT
 70
     1
  9
$LTSCALE
 40
1.0
  9
$ATTMODE
 70
     1
  9
$TEXTSIZE
 40
0.2
  9
$TRACEWID
 40
0.05
  9
$TEXTSTYLE
  7
Standard
  9
$CLAYER
  8
0
  9
$CELTYPE
  6
Continuous
  9
$CECOLOR
 62
   256
  9
$CELTSCALE
 40
1.0
  9
$DISPSILH
 70
     0
  9
$DIMSCALE
 40
1.0
  9
$DIMASZ
 40
0.18
  9
$DIMEXO
 40
0.0625
  9
$DIMDLI
 40
0.38
  9
$DIMRND
 40
0.0
  9
$DIMDLE
 40
0.0
  9
$DIMEXE
 40
0.18
  9
$DIMTP
 40
0.0
  9
$DIMTM
 40
0.0
  9
$DIMTXT
 40
0.18
  9
$DIMCEN
 40
0.09
  9
$DIMTSZ
 40
0.0
  9
$DIMTOL
 70
     0
  9
$DIMLIM
 70
     0
  9
$DIMTIH
 70
     1
  9
$DIMTOH
 70
     1
  9
$DIMSE1
 70
     0
  9
$DIMSE2
 70
     0
  9
$DIMTAD
 70
     0
  9
$DIMZIN
 70
     0
  9
$DIMBLK
  1

  9
$DIMASO
 70
     1
  9
$DIMSHO
 70
     1
  9
$DIMPOST
  1

  9
$DIMAPOST
  1

  9
$DIMALT
 70
     0
  9
$DIMALTD
 70
     2
  9
$DIMALTF
 40
25.4
  9
$DIMLFAC
 40
1.0
  9
$DIMTOFL
 70
     0
  9
$DIMTVP
 40
0.0
  9
$DIMTIX
 70
     0
  9
$DIMSOXD
 70
     0
  9
$DIMSAH
 70
     0
  9
$DIMBLK1
  1

  9
$DIMBLK2
  1

  9
$DIMSTYLE
  2
Standard
  9
$DIMCLRD
 70
     0
  9
$DIMCLRE
 70
     0
  9
$DIMCLRT
 70
     0
  9
$DIMTFAC
 40
1.0
  9
$DIMGAP
 40
0.09
  9
$DIMJUST
 70
     0
  9
$DIMSD1
 70
     0
  9
$DIMSD2
 70
     0
  9
$DIMTOLJ
 70
     1
  9
$DIMTZIN
 70
     0
  9
$DIMALTZ
 70
     0
  9
$DIMALTTZ
 70
     0
  9
$DIMUPT
 70
     0
  9
$DIMDEC
 70
     4
  9
$DIMTDEC
 70
     4
  9
$DIMALTU
 70
     2
  9
$DIMALTTD
 70
     2
  9
$DIMTXSTY
  7
Standard
  9
$DIMAUNIT
 70
     0
  9
$DIMADEC
 70
     0
  9
$DIMALTRND
 40
0.0
  9
$DIMAZIN
 70
     0
  9
$DIMDSEP
 70
     0
  9
$DIMATFIT
 70
     3
  9
$DIMFRAC
 70
     0
  9
$DIMLDRBLK
  1

  9
$DIMLUNIT
 70
     2
  9
$DIMLWD
 70
     0
  9
$DIMLWE
 70
     0
  9
$DIMTMOVE
 70
     0
  9
$LUNITS
 70
     2
  9
$LUPREC
 70
     4
  9
$SKETCHINC
 40
0.1
  9
$FILLETRAD
 40
0.0
  9
$AUNITS
 70
     0
  9
$AUPREC
 70
     0
  9
$MENU
  1
acad
  9
$ELEVATION
 40
0.0
  9
$PELEVATION
 40
0.0
  9
$THICKNESS
 40
0.0
  9
$LIMCHECK
 70
     0
  9
$CHAMFERA
 40
0.0
  9
$CHAMFERB
 40
0.0
  9
$CHAMFERC
 40
0.0
  9
$CHAMFERD
 40
0.0
  9
$SKPOLY
 70
     0
  9
$TDCREATE
 40
0.000000000
  9
$TDUCREATE
 40
0.000000000
  9
$TDUPDATE
 40
0.000000000
  9
$TDUUPDATE
 40
0.000000000
  9
$TDINDWG
 40
0.0000000000
  9
$TDUSRTIMER
 40
0.0000000000
  9
$USRTIMER
 70
     1
  9
$ANGBASE
 50
0.0
  9
$ANGDIR
 70
     0
  9
$PDMODE
 70
     0
  9
$PDSIZE
 40
0.0
  9
$PLINEWID
 40
0.0
  9
$SPLFRAME
 70
     0
  9
$SPLINETYPE
 70
     6
  9
$SPLINESEGS
 70
     8
  9
$HANDSEED
  5
38
  9
$SURFTAB1
 70
     6
  9
$SURFTAB2
 70
     6
  9
$SURFTYPE
 70
     6
  9
$SURFU
 70
     6
  9
$SURFV
 70
     6
  9
$UCSBASE
  2

  9
$UCSNAME
  2

  9
$UCSORG
 10
0.0
 20
0.0
 30
0.0
  9
$UCSXDIR
 10
1.0
 20
0.0
 30
0.0
  9
$UCSYDIR
 10
0.0
 20
1.0
 30
0.0
  9
$UCSORTHOREF
  2

  9
$UCSORTHOVIEW
 70
     0
  9
$UCSORGTOP
 10
0.0
 20
0.0
 30
0.0
  9
$UCSORGBOTTOM
 10
0.0
 20
0.0
 30
0.0
  9
$UCSORGLEFT
 10
0.0
 20
0.0
 30
0.0
  9
$UCSORGRIGHT
 10
0.0
 20
0.0
 30
0.0
  9
$UCSORGFRONT
 10
0.0
 20
0.0
 30
0.0
  9
$UCSORGBACK
 10
0.0
 20
0.0
 30
0.0
  9
$PUCSBASE
  2

  9
$PUCSNAME
  2

  9
$PUCSORG
 10
0.0
 20
0.0
 30
0.0
  9
$PUCSXDIR
 10
1.0
 20
0.0
 30
0.0
  9
$PUCSYDIR
 10
0.0
 20
1.0
 30
0.0
  9
$PUCSORTHOREF
  2

  9
$PUCSORTHOVIEW
 70
     0
  9
$PUCSORGTOP
 10
0.0
 20
0.0
 30
0.0
  9
$PUCSORGBOTTOM
 10
0.0
 20
0.0
 30
0.0
  9
$PUCSORGLEFT
 10
0.0
 20
0.0
 30
0.0
  9
$PUCSORGRIGHT
 10
0.0
 20
0.0
 30
0.0
  9
$PUCSORGFRONT
 10
0.0
 20
0.0
 30
0.0
  9
$PUCSORGBACK
 10
0.0
 20
0.0
 30
0.0
  9
$USERI1
 70
     0
  9
$USERI2
 70
     0
  9
$USERI3
 70
     0
  9
$USERI4
 70
     0
  9
$USERI5
 70
     0
  9
$USERR1
 40
0.0
  9
$USERR2
 40
0.0
  9
$USERR3
 40
0.0
  9
$USERR4
 40
0.0
  9
$USERR5
 40
0.0
  9
$WORLDVIEW
 70
     1
  9
$SHADEDGE
 70
     3
  9
$SHADEDIF
 70
    70
  9
$TILEMODE
 70
     1
  9
$MAXACTVP
 70
    16
  9
$PINSBASE
 10
0.0
 20
0.0
 30
0.0
  9
$PLIMCHECK
 70
     0
  9
$PEXTMIN
 10
1.000000E+20
 20
1.000000E+20
 30
1.000000E+20
  9
$PEXTMAX
 10
-1.000000E+20
 20
-1.000000E+20
 30
-1.000000E+20
  9
$PLIMMIN
 10
0.0
 20
0.0
  9
$PLIMMAX
 10
12.0
 20
9.0
  9
$UNITMODE
 70
     0
  9
$VISRETAIN
 70
     0
  9
$PLINEGEN
 70
     1
  9
$PSLTSCALE
 70
     0
  9
$TREEDEPTH
 70
  3020
  9
$CMLSTYLE
  2
Standard
  9
$CMLJUST
 70
     0
  9
$CMLSCALE
 40
1.0
  9
$PROXYGRAPHICS
 70
     0
  9
$MEASUREMENT
 70
     0
  9
$CELWEIGHT
370
     0
  9
$ENDCAPS
280
     0
  9
$JOINSTYLE
280
     0
  9
$LWDISPLAY
290
     0
  9
$INSUNITS
 70
     5
  9
$HYPERLINKBASE
  1

  9
$XEDIT
290
     1
  9
$CEPSNTYPE
380
     0
  9
$PSTYLEMODE
290
     1
  9
$FINGERPRINTGUID
  2

  9
$VERSIONGUID
  2

  9
$EXTNAMES
290
     1
  9
$PSVPSCALE
 40
0.0
  0
ENDSEC
  0
SECTION
  2
CLASSES
  0
CLASS
  1
LWPOLYLINE
  2
AcDbPolyline
  3
AutoCAD 2000
 90
    32768
280
     0
281
     1
  0
CLASS
  1
IMAGE
  2
AcDbRasterImage
  3
ISM
 90
    32895
280
     0
281
     1
  0
CLASS
  1
OLE2FRAME
  2
AcDbOle2Frame
  3
AutoCAD 2000
 90
    32768
280
     0
281
     1
  0
CLASS
  1
HATCH
  2
AcDbHatch
  3
AutoCAD 2000
 90
    32768
280
     0
281
     1
  0
CLASS
  1
DICTIONARYVAR
  2
AcDbDictionaryVar
  3
AutoCAD 2000
 90
    32768
280
     0
281
     0
  0
CLASS
  1
RASTERVARIABLES
  2
AcDbRasterVariables
  3
ISM
 90
    32768
280
     0
281
     0
  0
CLASS
  1
IMAGEDEF
  2
AcDbRasterImageDef
  3
ISM
 90
    32768
280
     0
281
     0
  0
CLASS
  1
IMAGEDEF_REACTOR
  2
AcDbRasterImageDefReactor
  3
ISM
 90
    32769
280
     0
281
     0
  0
CLASS
  1
IDBUFFER
  2
AcDbIdBuffer
  3
AutoCAD 2000
 90
    32768
280
     0
281
     0
  0
CLASS
  1
SPATIAL_FILTER
  2
AcDbSpatialFilter
  3
AutoCAD 2000
 90
    32768
280
     0
281
     0
  0
CLASS
  1
XRECORD
  2
AcDbXrecord
  3
AutoCAD 2000
 90
    32768
280
     0
281
     0
  0
CLASS
  1
SORTENTSTABLE
  2
AcDbSortentsTable
  3
AutoCAD 2000
 90
    32768
280
     0
281
     0
  0
CLASS
  1
LAYER_INDEX
  2
AcDbLayerIndex
  3
AutoCAD 2000
 90
    32768
280
     0
281
     0
  0
CLASS
  1
SPATIAL_INDEX
  2
AcDbSpatialIndex
  3
AutoCAD 2000
 90
    32768
280
     0
281
     0
  0
CLASS
  1
OBJECT_PTR
  2
CAseDLPNTableRecord
  3
"ASE-LPNTableRecord"
 90
    32769
280
     0
281
     0
  0
CLASS
  1
LAYOUT
  2
AcDbLayout
  3
AutoCAD 2000
 90
        0
280
     0
281
     0
  0
CLASS
  1
PLOTSETTINGS
  2
AcDbPlotSettings
  3
AutoCAD 2000
 90
    32768
280
     0
281
     0
  0
CLASS
  1
ACDBDICTIONARYWDFLT
  2
AcDbDictionaryWithDefault
  3
AutoCAD 2000
 90
        0
280
     0
281
     0
  0
CLASS
  1
ACDBPLACEHOLDER
  2
AcDbPlaceHolder
  3
AutoCAD 2000
 90
        0
280
     0
281
     0
  0
CLASS
  1
VBA_PROJECT
  2
AcDbVbaProject
  3
acadvba
 90
    32768
280
     0
281
     0
  0
CLASS
  1
WIPEOUT
  2
AcDbWipeout
  3
WipeOut|AutoCAD Express Tool|expresstools@autodesk.com
 90
    32895
280
     0
281
     1
  0
CLASS
  1
WIPEOUTVARIABLES
  2
AcDbWipeoutVariables
  3
WipeOut|AutoCAD Express Tool|expresstools@autodesk.com
 90
        0
280
     0
281
     0
  0
CLASS
  1
RTEXT
  2
RText
  3
RText|AutoCAD Express Tool|expresstools@autodesk.com
 90
    32768
280
     0
281
     1
  0
CLASS
  1
ARCALIGNEDTEXT
  2
AcDbArcAlignedText
  3
ATEXT|AutoCAD Express Tool|expresstools@autodesk.com
 90
    32768
280
     0
281
     1
  0
ENDSEC
  0
SECTION
  2
TABLES
  0
TABLE
  2
VPORT
  5
7
100
AcDbSymbolTable
 70
     1
  0
VPORT
  5
15
100
AcDbSymbolTableRecord
100
AcDbViewportTableRecord
  2
*ACTIVE
 70
     0
 10
0.0
 20
0.0
 11
1.0
 21
1.0
 12
6.591288
 22
4.579184
 13
0.0
 23
0.0
 14
1.0
 24
1.0
 15
0.0
 25
0.0
 16
0.0
 26
0.0
 36
1.0
 17
0.0
 27
0.0
 37
0.0
 40
9.158369
 41
0.688564
 42
50.0
 43
0.0
 44
0.0
 50
0.0
 51
0.0
 71
     0
 72
   100
 73
     1
 74
     1
 75
     0
 76
     0
 77
     0
 78
     0
281
     0
 65
     0
110
0.0
120
0.0
130
0.0
111
1.0
121
0.0
131
0.0
112
0.0
122
1.0
132
0.0
345
0
346
0
 79
     0
146
0.0
  0
ENDTAB
  0
TABLE
  2
LTYPE
  5
4
100
AcDbSymbolTable
 70
     3
  0
LTYPE
  5
11
100
AcDbSymbolTableRecord
100
AcDbLinetypeTableRecord
  2
ByBlock
 70
    64
  3

 72
    65
 73
     0
 40
0.0
  0
LTYPE
  5
12
100
AcDbSymbolTableRecord
100
AcDbLinetypeTableRecord
  2
ByLayer
 70
    64
  3

 72
    65
 73
     0
 40
0.0
  0
LTYPE
  5
13
100
AcDbSymbolTableRecord
100
AcDbLinetypeTableRecord
  2
Continuous
 70
    64
  3
Solid line
 72
    65
 73
     0
 40
0.0
  0
ENDTAB
  0
TABLE
  2
LAYER
  5
2
100
AcDbSymbolTable
 70
     2
  0
LAYER
  5
14
100
AcDbSymbolTableRecord
100
AcDbLayerTableRecord
  2
0
 70
     0
 62
     7
  6
Continuous
290
     1
370
    -3
390
1D
  0
LAYER
  5
24
100
AcDbSymbolTableRecord
100
AcDbLayerTableRecord
  2
Ebene 1
 70
     0
 62
     7
  6
Continuous
290
     1
370
    -3
390
1F
  0
ENDTAB
  0
TABLE
  2
STYLE
  5
3
100
AcDbSymbolTable
 70
     1
  0
STYLE
  5
17
100
AcDbSymbolTableRecord
100
AcDbTextStyleTableRecord
  2
Standard
 70
     0
 40
0.0
 41
1.0
 50
0.0
 71
     0
 42
0.0
  3
txt
  4

  0
ENDTAB
  0
TABLE
  2
VIEW
  5
5
100
AcDbSymbolTable
 70
     0
  0
ENDTAB
  0
TABLE
  2
UCS
  5
6
100
AcDbSymbolTable
 70
     0
  0
ENDTAB
  0
TABLE
  2
APPID
  5
8
100
AcDbSymbolTable
 70
     1
  0
APPID
  5
16
100
AcDbSymbolTableRecord
100
AcDbRegAppTableRecord
  2
ACAD
 70
     0
  0
ENDTAB
  0
TABLE
  2
DIMSTYLE
  5
9
100
AcDbSymbolTable
 70
     1
100
AcDbDimStyleTable
 71
     0
  0
DIMSTYLE
105
18
100
AcDbSymbolTableRecord
100
AcDbDimStyleTableRecord
  2
Standard
 70
     0
  3

  4

 40
1.0
 41
0.18
 42
0.0625
 43
0.38
 44
0.18
 45
0.0
 46
0.0
 47
0.0
 48
0.0
 71
     0
 72
     0
 73
     1
 74
     1
 75
     0
 76
     0
 77
     0
 78
     0
 79
     0
140
0.18
141
0.09
142
0.0
143
25.4
144
1.0
145
0.0
146
1.0
147
0.09
148
0.0
170
     0
171
     2
172
     0
173
     0
174
     0
175
     0
176
     0
177
     0
178
     0
179
     0
271
     4
272
     4
273
     2
274
     2
275
     0
276
     0
277
     2
278
    46
279
     0
280
     0
281
     0
282
     0
283
     1
284
     0
285
     0
286
     0
288
     0
340
17
341
0
342
0
343
0
344
0
371
    -2
372
    -2
  0
ENDTAB
  0
TABLE
  2
BLOCK_RECORD
  5
1
100
AcDbSymbolTable
 70
     0
  0
BLOCK_RECORD
  5
A
100
AcDbSymbolTableRecord
100
AcDbBlockTableRecord
  2
*MODEL_SPACE
340
20
  0
BLOCK_RECORD
  5
B
100
AcDbSymbolTableRecord
100
AcDbBlockTableRecord
  2
*PAPER_SPACE
340
21
  0
ENDTAB
  0
ENDSEC
  0
SECTION
  2
BLOCKS
  0
BLOCK
  5
D
100
AcDbEntity
  8
0
100
AcDbBlockBegin
  2
*MODEL_SPACE
 70
     0
 10
0.0
 20
0.0
 30
0.0
  3
*MODEL_SPACE
  1

  0
ENDBLK
  5
E
100
AcDbEntity
  8
0
100
AcDbBlockEnd
  0
BLOCK
  5
F
100
AcDbEntity
 67
     1
  8
0
100
AcDbBlockBegin
  2
*PAPER_SPACE
 70
     0
 10
0.0
 20
0.0
 30
0.0
  3
*PAPER_SPACE
  1

  0
ENDBLK
  5
10
100
AcDbEntity
 67
     1
  8
0
100
AcDbBlockEnd
  0
ENDSEC
  0
SECTION
  2
ENTITIES
  0
SPLINE
  5
25
100
AcDbEntity
  8
Ebene 1
100
AcDbSpline
210
0.0
220
0.0
230
1.0
 70
     1
 71
     3
 72
   108
 73
   104
 74
     0
 42
0.0000000001
 43
0.0000000001
 40
0.0
 40
0.0
 40
0.0
 40
0.0
 40
0.0384615384615385
 40
0.0384615384615385
 40
0.0384615384615385
 40
0.0384615384615385
 40
0.0769230769230769
 40
0.0769230769230769
 40
0.0769230769230769
 40
0.0769230769230769
 40
0.1153846153846154
 40
0.1153846153846154
 40
0.1153846153846154
 40
0.1153846153846154
 40
0.1538461538461539
 40
0.1538461538461539
 40
0.1538461538461539
 40
0.1538461538461539
 40
0.1923076923076923
 40
0.1923076923076923
 40
0.1923076923076923
 40
0.1923076923076923
 40
0.2307692307692308
 40
0.2307692307692308
 40
0.2307692307692308
 40
0.2307692307692308
 40
0.2692307692307693
 40
0.2692307692307693
 40
0.2692307692307693
 40
0.2692307692307693
 40
0.3076923076923077
 40
0.3076923076923077
 40
0.3076923076923077
 40
0.3076923076923077
 40
0.3461538461538462
 40
0.3461538461538462
 40
0.3461538461538462
 40
0.3461538461538462
 40
0.3846153846153846
 40
0.3846153846153846
 40
0.3846153846153846
 40
0.3846153846153846
 40
0.423076923076923
 40
0.423076923076923
 40
0.423076923076923
 40
0.423076923076923
 40
0.4615384615384615
 40
0.4615384615384615
 40
0.4615384615384615
 40
0.4615384615384615
 40
0.4999999999999999
 40
0.4999999999999999
 40
0.4999999999999999
 40
0.4999999999999999
 40
0.5384615384615383
 40
0.5384615384615383
 40
0.5384615384615383
 40
0.5384615384615383
 40
0.5769230769230768
 40
0.5769230769230768
 40
0.5769230769230768
 40
0.5769230769230768
 40
0.6153846153846152
 40
0.6153846153846152
 40
0.6153846153846152
 40
0.6153846153846152
 40
0.6538461538461536
 40
0.6538461538461536
 40
0.6538461538461536
 40
0.6538461538461536
 40
0.6923076923076921
 40
0.6923076923076921
 40
0.6923076923076921
 40
0.6923076923076921
 40
0.7307692307692305
 40
0.7307692307692305
 40
0.7307692307692305
 40
0.7307692307692305
 40
0.7692307692307689
 40
0.7692307692307689
 40
0.7692307692307689
 40
0.7692307692307689
 40
0.8076923076923074
 40
0.8076923076923074
 40
0.8076923076923074
 40
0.8076923076923074
 40
0.8461538461538458
 40
0.8461538461538458
 40
0.8461538461538458
 40
0.8461538461538458
 40
0.8846153846153843
 40
0.8846153846153843
 40
0.8846153846153843
 40
0.8846153846153843
 40
0.9230769230769227
 40
0.9230769230769227
 40
0.9230769230769227
 40
0.9230769230769227
 40
0.9615384615384611
 40
0.9615384615384611
 40
0.9615384615384611
 40
0.9615384615384611
 40
1.0
 40
1.0
 40
1.0
 40
1.0
 10
0.32018
 20
5.8744500000000004
 30
0.0
 10
2.0296000000000003
 20
6.0547900000000006
 30
0.0
 10
3.5256600000000002
 20
4.8990900000000002
 30
0.0
 10
4.1276400000000004
 20
3.3700100000000002
 30
0.0
 10
4.1276400000000004
 20
3.3700100000000002
 30
0.0
 10
4.4527600000000005
 20
2.0847700000000002
 30
0.0
 10
4.3206800000000003
 20
0.39313
 30
0.0
 10
3.2005400000000002
 20
-0.48316
 30
0.0
 10
3.2005400000000002
 20
-0.48316
 30
0.0
 10
3.1497400000000004
 20
-1.16642
 30
0.0
 10
2.2251800000000004
 20
-1.37724
 30
0.0
 10
1.7019400000000002
 20
-1.6541000000000001
 30
0.0
 10
1.7019400000000002
 20
-1.6541000000000001
 30
0.0
 10
1.7019400000000002
 20
-1.6541000000000001
 30
0.0
 10
1.2955400000000001
 20
-1.4432800000000001
 30
0.0
 10
1.2955400000000001
 20
-1.4432800000000001
 30
0.0
 10
1.2955400000000001
 20
-1.4432800000000001
 30
0.0
 10
1.2625200000000001
 20
-2.2891000000000004
 30
0.0
 10
1.4758800000000001
 20
-3.1501600000000001
 30
0.0
 10
1.2625200000000001
 20
-3.9477200000000003
 30
0.0
 10
1.2625200000000001
 20
-3.9477200000000003
 30
0.0
 10
0.59196
 20
-4.7275
 30
0.0
 10
-0.41387
 20
-5.0551600000000008
 30
0.0
 10
-0.99553
 20
-5.8984400000000008
 30
0.0
 10
-0.99553
 20
-5.8984400000000008
 30
0.0
 10
-1.4374900000000002
 20
-5.8349400000000005
 30
0.0
 10
-1.8337300000000001
 20
-5.6571400000000001
 30
0.0
 10
-2.2909300000000004
 20
-5.7536600000000009
 30
0.0
 10
-2.2909300000000004
 20
-5.7536600000000009
 30
0.0
 10
-2.3899900000000001
 20
-5.0551600000000008
 30
0.0
 10
-3.1088100000000001
 20
-4.5344600000000002
 30
0.0
 10
-2.8979900000000001
 20
-3.7699200000000004
 30
0.0
 10
-2.8979900000000001
 20
-3.7699200000000004
 30
0.0
 10
-2.7328900000000003
 20
-3.6708600000000002
 30
0.0
 10
-2.8471900000000003
 20
-4.3388800000000005
 30
0.0
 10
-2.5449300000000004
 20
-4.4049200000000006
 30
0.0
 10
-2.5449300000000004
 20
-4.4049200000000006
 30
0.0
 10
-2.5373100000000002
 20
-4.0772600000000008
 30
0.0
 10
-2.6719300000000001
 20
-3.7369000000000003
 30
0.0
 10
-2.5830300000000004
 20
-3.3965400000000003
 30
0.0
 10
-2.5830300000000004
 20
-3.3965400000000003
 30
0.0
 10
-2.4661900000000001
 20
-3.1349200000000002
 30
0.0
 10
-2.4458700000000002
 20
-3.6708600000000002
 30
0.0
 10
-2.2198100000000003
 20
-3.6556200000000003
 30
0.0
 10
-2.2198100000000003
 20
-3.6556200000000003
 30
0.0
 10
-2.27061
 20
-3.2797000000000001
 30
0.0
 10
-2.2782300000000002
 20
-2.64724
 30
0.0
 10
-1.9734300000000002
 20
-3.1349200000000002
 30
0.0
 10
-1.9734300000000002
 20
-3.1349200000000002
 30
0.0
 10
-1.9073900000000001
 20
-2.9723600000000001
 30
0.0
 10
-2.0496300000000001
 20
-2.8250400000000004
 30
0.0
 10
-2.0318500000000004
 20
-2.6624800000000004
 30
0.0
 10
-2.0318500000000004
 20
-2.6624800000000004
 30
0.0
 10
-1.8845300000000003
 20
-2.77678
 30
0.0
 10
-1.7676900000000002
 20
-2.64724
 30
0.0
 10
-1.8438900000000003
 20
-2.4669000000000003
 30
0.0
 10
-1.8438900000000003
 20
-2.4669000000000003
 30
0.0
 10
-1.9480300000000002
 20
-2.6955
 30
0.0
 10
-2.06487
 20
-2.2078200000000003
 30
0.0
 10
-2.1664700000000003
 20
-2.0782800000000003
 30
0.0
 10
-2.1664700000000003
 20
-2.0782800000000003
 30
0.0
 10
-2.3696700000000002
 20
-1.8496800000000002
 30
0.0
 10
-2.3722100000000004
 20
-2.2713200000000002
 30
0.0
 10
-2.36205
 20
-2.4186400000000003
 30
0.0
 10
-2.36205
 20
-2.4186400000000003
 30
0.0
 10
-2.36205
 20
-2.4186400000000003
 30
0.0
 10
-2.4128500000000002
 20
-2.6955
 30
0.0
 10
-2.4128500000000002
 20
-2.6955
 30
0.0
 10
-2.4128500000000002
 20
-2.6955
 30
0.0
 10
-2.5576300000000001
 20
-3.1171400000000005
 30
0.0
 10
-2.7913100000000002
 20
-1.37724
 30
0.0
 10
-2.94625
 20
-2.3856200000000003
 30
0.0
 10
-2.94625
 20
-2.3856200000000003
 30
0.0
 10
-2.9767300000000003
 20
-2.9876
 30
0.0
 10
-3.1799300000000001
 20
-2.5989800000000001
 30
0.0
 10
-3.1596100000000003
 20
-2.19258
 30
0.0
 10
-3.1596100000000003
 20
-2.19258
 30
0.0
 10
-3.1596100000000003
 20
-2.19258
 30
0.0
 10
-3.1418300000000001
 20
-2.0122400000000003
 30
0.0
 10
-3.1418300000000001
 20
-2.0122400000000003
 30
0.0
 10
-3.1418300000000001
 20
-2.0122400000000003
 30
0.0
 10
-3.2485100000000005
 20
-1.9309600000000002
 30
0.0
 10
-3.3094700000000001
 20
-2.48468
 30
0.0
 10
-3.3043900000000002
 20
-2.64724
 30
0.0
 10
-3.3043900000000002
 20
-2.64724
 30
0.0
 10
-3.5837900000000005
 20
-1.9462000000000002
 30
0.0
 10
-3.2408900000000003
 20
-1.11816
 30
0.0
 10
-3.3399500000000004
 20
-0.3841000000000001
 30
0.0
 10
-3.3399500000000004
 20
-0.3841000000000001
 30
0.0
 10
-3.7895300000000005
 20
-0.40188
 30
0.0
 10
-4.0435300000000005
 20
-0.12502
 30
0.0
 10
-4.2772100000000002
 20
0.23057
 30
0.0
 10
-4.2772100000000002
 20
0.23057
 30
0.0
 10
-4.2391100000000002
 20
0.6547500000000001
 30
0.0
 10
-3.9520900000000001
 20
1.06115
 30
0.0
 10
-3.9216100000000003
 20
1.4980300000000002
 30
0.0
 10
-3.9216100000000003
 20
1.4980300000000002
 30
0.0
 10
-4.1476700000000006
 20
2.0034900000000002
 30
0.0
 10
-3.9190700000000005
 20
2.4581500000000003
 30
0.0
 10
-3.6142700000000003
 20
2.8670900000000001
 30
0.0
 10
-3.6142700000000003
 20
2.8670900000000001
 30
0.0
 10
-3.5761700000000003
 20
4.8660700000000006
 30
0.0
 10
-1.4806700000000002
 20
5.9887500000000005
 30
0.0
 10
0.32018
 20
5.8744500000000004
 30
0.0
  0
SPLINE
  5
26
100
AcDbEntity
  8
Ebene 1
100
AcDbSpline
210
0.0
220
0.0
230
1.0
 70
     1
 71
     3
 72
    72
 73
    68
 74
     0
 42
0.0000000001
 43
0.0000000001
 40
0.0
 40
0.0
 40
0.0
 40
0.0
 40
0.0588235294117647
 40
0.0588235294117647
 40
0.0588235294117647
 40
0.0588235294117647
 40
0.1176470588235294
 40
0.1176470588235294
 40
0.1176470588235294
 40
0.1176470588235294
 40
0.1764705882352941
 40
0.1764705882352941
 40
0.1764705882352941
 40
0.1764705882352941
 40
0.2352941176470588
 40
0.2352941176470588
 40
0.2352941176470588
 40
0.2352941176470588
 40
0.2941176470588235
 40
0.2941176470588235
 40
0.2941176470588235
 40
0.2941176470588235
 40
0.3529411764705883
 40
0.3529411764705883
 40
0.3529411764705883
 40
0.3529411764705883
 40
0.411764705882353
 40
0.411764705882353
 40
0.411764705882353
 40
0.411764705882353
 40
0.4705882352941177
 40
0.4705882352941177
 40
0.4705882352941177
 40
0.4705882352941177
 40
0.5294117647058824
 40
0.5294117647058824
 40
0.5294117647058824
 40
0.5294117647058824
 40
0.5882352941176471
 40
0.5882352941176471
 40
0.5882352941176471
 40
0.5882352941176471
 40
0.6470588235294118
 40
0.6470588235294118
 40
0.6470588235294118
 40
0.6470588235294118
 40
0.7058823529411765
 40
0.7058823529411765
 40
0.7058823529411765
 40
0.7058823529411765
 40
0.7647058823529412
 40
0.7647058823529412
 40
0.7647058823529412
 40
0.7647058823529412
 40
0.823529411764706
 40
0.823529411764706
 40
0.823529411764706
 40
0.823529411764706
 40
0.8823529411764707
 40
0.8823529411764707
 40
0.8823529411764707
 40
0.8823529411764707
 40
0.9411764705882354
 40
0.9411764705882354
 40
0.9411764705882354
 40
0.9411764705882354
 40
1.0
 40
1.0
 40
1.0
 40
1.0
 10
-0.39355
 20
-0.97084
 30
0.0
 10
-0.35037
 20
-1.1003800000000001
 30
0.0
 10
-0.25893
 20
-1.2477
 30
0.0
 10
-0.27925
 20
-1.4255000000000002
 30
0.0
 10
-0.27925
 20
-1.4255000000000002
 30
0.0
 10
-0.30973
 20
-1.6058400000000002
 30
0.0
 10
-0.18273
 20
-2.19258
 30
0.0
 10
-0.42149
 20
-1.8496800000000002
 30
0.0
 10
-0.42149
 20
-1.8496800000000002
 30
0.0
 10
-0.48499
 20
-1.7023600000000001
 30
0.0
 10
-0.6653300000000001
 20
-1.7353800000000001
 30
0.0
 10
-0.6043700000000001
 20
-1.9157200000000001
 30
0.0
 10
-0.6043700000000001
 20
-1.9157200000000001
 30
0.0
 10
-0.6043700000000001
 20
-1.9157200000000001
 30
0.0
 10
-0.6043700000000001
 20
-2.0274800000000002
 30
0.0
 10
-0.6043700000000001
 20
-2.0274800000000002
 30
0.0
 10
-0.6043700000000001
 20
-2.0274800000000002
 30
0.0
 10
-0.6043700000000001
 20
-2.0274800000000002
 30
0.0
 10
-0.6221500000000001
 20
-2.2078200000000003
 30
0.0
 10
-0.6221500000000001
 20
-2.2078200000000003
 30
0.0
 10
-0.6221500000000001
 20
-2.2078200000000003
 30
0.0
 10
-0.7567700000000001
 20
-2.2383000000000002
 30
0.0
 10
-0.7796300000000001
 20
-1.9157200000000001
 30
0.0
 10
-0.9396500000000001
 20
-1.9309600000000002
 30
0.0
 10
-0.9396500000000001
 20
-1.9309600000000002
 30
0.0
 10
-1.0285500000000001
 20
-2.0274800000000002
 30
0.0
 10
-0.9244100000000001
 20
-2.1595600000000004
 30
0.0
 10
-0.9777500000000001
 20
-2.2713200000000002
 30
0.0
 10
-0.9777500000000001
 20
-2.2713200000000002
 30
0.0
 10
-0.6907300000000001
 20
-3.0358600000000004
 30
0.0
 10
-1.6432300000000002
 20
-3.7038800000000003
 30
0.0
 10
-1.20635
 20
-4.4354000000000005
 30
0.0
 10
-1.20635
 20
-4.4354000000000005
 30
0.0
 10
-1.04633
 20
-4.3719000000000001
 30
0.0
 10
-1.00061
 20
-4.2118800000000007
 30
0.0
 10
-1.0107700000000002
 20
-4.0340800000000003
 30
0.0
 10
-1.0107700000000002
 20
-4.0340800000000003
 30
0.0
 10
-1.00315
 20
-3.8232600000000003
 30
0.0
 10
-0.9574300000000001
 20
-3.5743400000000003
 30
0.0
 10
-1.00569
 20
-3.3635200000000003
 30
0.0
 10
-1.00569
 20
-3.3635200000000003
 30
0.0
 10
-0.82281
 20
-3.2314400000000001
 30
0.0
 10
-0.73899
 20
-3.7699200000000004
 30
0.0
 10
-0.63739
 20
-3.9147000000000003
 30
0.0
 10
-0.63739
 20
-3.9147000000000003
 30
0.0
 10
-0.4291100000000001
 20
-3.6708600000000002
 30
0.0
 10
-0.6272300000000001
 20
-3.2974800000000002
 30
0.0
 10
-0.5180100000000001
 20
-3.0358600000000004
 30
0.0
 10
-0.5180100000000001
 20
-3.0358600000000004
 30
0.0
 10
-0.37069
 20
-3.0866600000000002
 30
0.0
 10
-0.37069
 20
-3.2974800000000002
 30
0.0
 10
-0.29449
 20
-3.4117800000000003
 30
0.0
 10
-0.29449
 20
-3.4117800000000003
 30
0.0
 10
-0.19797
 20
-3.2314400000000001
 30
0.0
 10
-0.12685
 20
-3.0206200000000001
 30
0.0
 10
-0.14463
 20
-2.7945600000000002
 30
0.0
 10
-0.14463
 20
-2.7945600000000002
 30
0.0
 10
0.0103
 20
-2.7945600000000002
 30
0.0
 10
-0.05065
 20
-3.0358600000000004
 30
0.0
 10
0.04332
 20
-3.1019000000000001
 30
0.0
 10
0.04332
 20
-3.1019000000000001
 30
0.0
 10
0.51322
 20
-2.6142200000000004
 30
0.0
 10
0.24906
 20
-1.8166600000000002
 30
0.0
 10
0.15508
 20
-1.2146800000000002
 30
0.0
 10
0.15508
 20
-1.2146800000000002
 30
0.0
 10
-0.02017
 20
-1.1334000000000002
 30
0.0
 10
-0.13955
 20
-0.88956
 30
0.0
 10
-0.39355
 20
-0.97084
 30
0.0
  0
SPLINE
  5
27
100
AcDbEntity
  8
Ebene 1
 62
     7
100
AcDbSpline
210
0.0
220
0.0
230
1.0
 70
     1
 71
     3
 72
   188
 73
   184
 74
     0
 42
0.0000000001
 43
0.0000000001
 40
0.0
 40
0.0
 40
0.0
 40
0.0
 40
0.0217391304347826
 40
0.0217391304347826
 40
0.0217391304347826
 40
0.0217391304347826
 40
0.0434782608695652
 40
0.0434782608695652
 40
0.0434782608695652
 40
0.0434782608695652
 40
0.0652173913043478
 40
0.0652173913043478
 40
0.0652173913043478
 40
0.0652173913043478
 40
0.0869565217391304
 40
0.0869565217391304
 40
0.0869565217391304
 40
0.0869565217391304
 40
0.108695652173913
 40
0.108695652173913
 40
0.108695652173913
 40
0.108695652173913
 40
0.1304347826086957
 40
0.1304347826086957
 40
0.1304347826086957
 40
0.1304347826086957
 40
0.1521739130434783
 40
0.1521739130434783
 40
0.1521739130434783
 40
0.1521739130434783
 40
0.1739130434782609
 40
0.1739130434782609
 40
0.1739130434782609
 40
0.1739130434782609
 40
0.1956521739130435
 40
0.1956521739130435
 40
0.1956521739130435
 40
0.1956521739130435
 40
0.2173913043478261
 40
0.2173913043478261
 40
0.2173913043478261
 40
0.2173913043478261
 40
0.2391304347826087
 40
0.2391304347826087
 40
0.2391304347826087
 40
0.2391304347826087
 40
0.2608695652173912
 40
0.2608695652173912
 40
0.2608695652173912
 40
0.2608695652173912
 40
0.2826086956521738
 40
0.2826086956521738
 40
0.2826086956521738
 40
0.2826086956521738
 40
0.3043478260869564
 40
0.3043478260869564
 40
0.3043478260869564
 40
0.3043478260869564
 40
0.326086956521739
 40
0.326086956521739
 40
0.326086956521739
 40
0.326086956521739
 40
0.3478260869565216
 40
0.3478260869565216
 40
0.3478260869565216
 40
0.3478260869565216
 40
0.3695652173913042
 40
0.3695652173913042
 40
0.3695652173913042
 40
0.3695652173913042
 40
0.3913043478260868
 40
0.3913043478260868
 40
0.3913043478260868
 40
0.3913043478260868
 40
0.4130434782608694
 40
0.4130434782608694
 40
0.4130434782608694
 40
0.4130434782608694
 40
0.434782608695652
 40
0.434782608695652
 40
0.434782608695652
 40
0.434782608695652
 40
0.4565217391304346
 40
0.4565217391304346
 40
0.4565217391304346
 40
0.4565217391304346
 40
0.4782608695652172
 40
0.4782608695652172
 40
0.4782608695652172
 40
0.4782608695652172
 40
0.4999999999999998
 40
0.4999999999999998
 40
0.4999999999999998
 40
0.4999999999999998
 40
0.5217391304347824
 40
0.5217391304347824
 40
0.5217391304347824
 40
0.5217391304347824
 40
0.543478260869565
 40
0.543478260869565
 40
0.543478260869565
 40
0.543478260869565
 40
0.5652173913043476
 40
0.5652173913043476
 40
0.5652173913043476
 40
0.5652173913043476
 40
0.5869565217391302
 40
0.5869565217391302
 40
0.5869565217391302
 40
0.5869565217391302
 40
0.6086956521739128
 40
0.6086956521739128
 40
0.6086956521739128
 40
0.6086956521739128
 40
0.6304347826086953
 40
0.6304347826086953
 40
0.6304347826086953
 40
0.6304347826086953
 40
0.6521739130434779
 40
0.6521739130434779
 40
0.6521739130434779
 40
0.6521739130434779
 40
0.6739130434782605
 40
0.6739130434782605
 40
0.6739130434782605
 40
0.6739130434782605
 40
0.6956521739130431
 40
0.6956521739130431
 40
0.6956521739130431
 40
0.6956521739130431
 40
0.7173913043478257
 40
0.7173913043478257
 40
0.7173913043478257
 40
0.7173913043478257
 40
0.7391304347826083
 40
0.7391304347826083
 40
0.7391304347826083
 40
0.7391304347826083
 40
0.7608695652173909
 40
0.7608695652173909
 40
0.7608695652173909
 40
0.7608695652173909
 40
0.7826086956521735
 40
0.7826086956521735
 40
0.7826086956521735
 40
0.7826086956521735
 40
0.8043478260869561
 40
0.8043478260869561
 40
0.8043478260869561
 40
0.8043478260869561
 40
0.8260869565217387
 40
0.8260869565217387
 40
0.8260869565217387
 40
0.8260869565217387
 40
0.8478260869565213
 40
0.8478260869565213
 40
0.8478260869565213
 40
0.8478260869565213
 40
0.8695652173913039
 40
0.8695652173913039
 40
0.8695652173913039
 40
0.8695652173913039
 40
0.8913043478260865
 40
0.8913043478260865
 40
0.8913043478260865
 40
0.8913043478260865
 40
0.9130434782608691
 40
0.9130434782608691
 40
0.9130434782608691
 40
0.9130434782608691
 40
0.9347826086956517
 40
0.9347826086956517
 40
0.9347826086956517
 40
0.9347826086956517
 40
0.9565217391304343
 40
0.9565217391304343
 40
0.9565217391304343
 40
0.9565217391304343
 40
0.9782608695652169
 40
0.9782608695652169
 40
0.9782608695652169
 40
0.9782608695652169
 40
1.0
 40
1.0
 40
1.0
 40
1.0
 10
-0.01763
 20
5.7220500000000003
 30
0.0
 10
2.0956400000000004
 20
6.0649500000000005
 30
0.0
 10
3.9650800000000004
 20
4.4926900000000005
 30
0.0
 10
4.20892
 20
2.4759300000000004
 30
0.0
 10
4.20892
 20
2.4759300000000004
 30
0.0
 10
4.3054399999999999
 20
1.1729100000000001
 30
0.0
 10
3.7872800000000004
 20
-0.06406
 30
0.0
 10
2.6950800000000004
 20
-0.7955800000000001
 30
0.0
 10
2.6950800000000004
 20
-0.7955800000000001
 30
0.0
 10
2.4995000000000003
 20
-0.7778000000000001
 30
0.0
 10
2.3547200000000004
 20
-0.88956
 30
0.0
 10
2.1743800000000002
 20
-0.7905000000000001
 30
0.0
 10
2.1743800000000002
 20
-0.7905000000000001
 30
0.0
 10
1.15076
 20
0.21533
 30
0.0
 10
-0.24369
 20
-0.5161800000000001
 30
0.0
 10
-1.46289
 20
-0.12502
 30
0.0
 10
-1.46289
 20
-0.12502
 30
0.0
 10
-1.5289300000000001
 20
-0.53142
 30
0.0
 10
-2.01661
 20
-0.69398
 30
0.0
 10
-2.0801100000000003
 20
-1.1003800000000001
 30
0.0
 10
-2.0801100000000003
 20
-1.1003800000000001
 30
0.0
 10
-1.8870700000000002
 20
-0.97084
 30
0.0
 10
-1.2444500000000001
 20
-0.07676
 30
0.0
 10
-1.3206500000000001
 20
-0.5974600000000001
 30
0.0
 10
-1.3206500000000001
 20
-0.5974600000000001
 30
0.0
 10
-1.3054100000000002
 20
-0.9225800000000001
 30
0.0
 10
-1.1098300000000001
 20
-1.1994400000000001
 30
0.0
 10
-1.0285500000000001
 20
-1.5067800000000002
 30
0.0
 10
-1.0285500000000001
 20
-1.5067800000000002
 30
0.0
 10
-1.0285500000000001
 20
-1.7353800000000001
 30
0.0
 10
-0.9675900000000001
 20
-2.0274800000000002
 30
0.0
 10
-1.04379
 20
-2.2383000000000002
 30
0.0
 10
-1.04379
 20
-2.2383000000000002
 30
0.0
 10
-1.21397
 20
-2.0274800000000002
 30
0.0
 10
-1.3282700000000001
 20
-1.7531600000000001
 30
0.0
 10
-1.37399
 20
-1.4763000000000002
 30
0.0
 10
-1.37399
 20
-1.4763000000000002
 30
0.0
 10
-1.5543300000000002
 20
-0.82352
 30
0.0
 10
-1.54417
 20
-1.2477
 30
0.0
 10
-1.37399
 20
-1.66934
 30
0.0
 10
-1.37399
 20
-1.66934
 30
0.0
 10
-1.37399
 20
-1.66934
 30
0.0
 10
-1.3866900000000002
 20
-2.3043400000000003
 30
0.0
 10
-1.3866900000000002
 20
-2.3043400000000003
 30
0.0
 10
-1.3866900000000002
 20
-2.3043400000000003
 30
0.0
 10
-1.7219700000000002
 20
-1.9157200000000001
 30
0.0
 10
-1.9505700000000001
 20
-1.7531600000000001
 30
0.0
 10
-1.9226300000000001
 20
-1.1334000000000002
 30
0.0
 10
-1.9226300000000001
 20
-1.1334000000000002
 30
0.0
 10
-1.9226300000000001
 20
-1.1334000000000002
 30
0.0
 10
-1.9861300000000002
 20
-1.41788
 30
0.0
 10
-1.9861300000000002
 20
-1.41788
 30
0.0
 10
-1.9861300000000002
 20
-1.41788
 30
0.0
 10
-1.9861300000000002
 20
-1.41788
 30
0.0
 10
-1.8769100000000001
 20
-2.0274800000000002
 30
0.0
 10
-1.8769100000000001
 20
-2.0274800000000002
 30
0.0
 10
-1.8769100000000001
 20
-2.0274800000000002
 30
0.0
 10
-1.8692900000000001
 20
-2.77678
 30
0.0
 10
-2.09789
 20
-1.8979400000000002
 30
0.0
 10
-2.3899900000000001
 20
-1.8319000000000001
 30
0.0
 10
-2.3899900000000001
 20
-1.8319000000000001
 30
0.0
 10
-2.3899900000000001
 20
-1.8319000000000001
 30
0.0
 10
-2.4128500000000002
 20
-1.4102600000000001
 30
0.0
 10
-2.4128500000000002
 20
-1.4102600000000001
 30
0.0
 10
-2.4128500000000002
 20
-1.4102600000000001
 30
0.0
 10
-2.4128500000000002
 20
-1.4102600000000001
 30
0.0
 10
-2.4306300000000003
 20
-1.1994400000000001
 30
0.0
 10
-2.4306300000000003
 20
-1.1994400000000001
 30
0.0
 10
-2.4306300000000003
 20
-1.1994400000000001
 30
0.0
 10
-2.5601700000000003
 20
-1.5245600000000001
 30
0.0
 10
-2.2401300000000002
 20
-2.4669000000000003
 30
0.0
 10
-2.5500100000000003
 20
-2.4186400000000003
 30
0.0
 10
-2.5500100000000003
 20
-2.4186400000000003
 30
0.0
 10
-2.6160500000000004
 20
-2.2713200000000002
 30
0.0
 10
-2.65415
 20
-2.1265400000000003
 30
0.0
 10
-2.6338300000000001
 20
-1.9639800000000001
 30
0.0
 10
-2.6338300000000001
 20
-1.9639800000000001
 30
0.0
 10
-2.5906500000000001
 20
-1.7988800000000003
 30
0.0
 10
-2.6947900000000002
 20
-2.0452600000000003
 30
0.0
 10
-2.7151100000000001
 20
-2.0274800000000002
 30
0.0
 10
-2.7151100000000001
 20
-2.0274800000000002
 30
0.0
 10
-3.0173700000000001
 20
-1.8496800000000002
 30
0.0
 10
-2.9335500000000003
 20
-2.3856200000000003
 30
0.0
 10
-3.0554700000000001
 20
-2.5329400000000004
 30
0.0
 10
-3.0554700000000001
 20
-2.5329400000000004
 30
0.0
 10
-3.1418300000000001
 20
-2.19258
 30
0.0
 10
-3.0707100000000001
 20
-1.7988800000000003
 30
0.0
 10
-3.1265900000000002
 20
-1.4432800000000001
 30
0.0
 10
-3.1265900000000002
 20
-1.4432800000000001
 30
0.0
 10
-3.0961100000000004
 20
-1.2146800000000002
 30
0.0
 10
-3.2053300000000005
 20
-1.2629400000000002
 30
0.0
 10
-3.1900900000000001
 20
-1.45852
 30
0.0
 10
-3.1900900000000001
 20
-1.45852
 30
0.0
 10
-3.2104100000000004
 20
-1.6871200000000002
 30
0.0
 10
-3.2535900000000004
 20
-1.9309600000000002
 30
0.0
 10
-3.3399500000000004
 20
-2.1417800000000002
 30
0.0
 10
-3.3399500000000004
 20
-2.1417800000000002
 30
0.0
 10
-3.4161500000000005
 20
-1.7023600000000001
 30
0.0
 10
-3.2815300000000001
 20
-1.2477
 30
0.0
 10
-3.2078700000000002
 20
-0.82352
 30
0.0
 10
-3.2078700000000002
 20
-0.82352
 30
0.0
 10
-3.1545300000000003
 20
-0.9378200000000001
 30
0.0
 10
-3.1189700000000005
 20
-1.1003800000000001
 30
0.0
 10
-3.03261
 20
-1.16642
 30
0.0
 10
-3.03261
 20
-1.16642
 30
0.0
 10
-3.0656300000000001
 20
-0.8413000000000001
 30
0.0
 10
-3.2713700000000001
 20
-0.45014
 30
0.0
 10
-3.2993100000000002
 20
-0.18852
 30
0.0
 10
-3.2993100000000002
 20
-0.18852
 30
0.0
 10
-3.7107900000000003
 20
-0.48316
 30
0.0
 10
-3.9825700000000004
 20
-0.0285
 30
0.0
 10
-4.2162500000000005
 20
0.2635900000000001
 30
0.0
 10
-4.2162500000000005
 20
0.2635900000000001
 30
0.0
 10
-4.0511500000000007
 20
0.5887100000000001
 30
0.0
 10
-3.9393900000000004
 20
0.9620900000000001
 30
0.0
 10
-3.8428700000000005
 20
1.3024500000000001
 30
0.0
 10
-3.8428700000000005
 20
1.3024500000000001
 30
0.0
 10
-3.7387300000000003
 20
1.19069
 30
0.0
 10
-3.7590500000000002
 20
1.0103500000000001
 30
0.0
 10
-3.7438100000000003
 20
0.8655700000000001
 30
0.0
 10
-3.7438100000000003
 20
0.8655700000000001
 30
0.0
 10
-3.6574500000000003
 20
0.6699900000000001
 30
0.0
 10
-3.8581100000000004
 20
0.5709300000000001
 30
0.0
 10
-3.9419300000000002
 20
0.4413900000000001
 30
0.0
 10
-3.9419300000000002
 20
0.4413900000000001
 30
0.0
 10
-3.6701500000000005
 20
0.63697
 30
0.0
 10
-3.1316700000000002
 20
0.5404500000000001
 30
0.0
 10
-3.5914100000000002
 20
0.23057
 30
0.0
 10
-3.5914100000000002
 20
0.23057
 30
0.0
 10
-3.5329900000000003
 20
0.22803
 30
0.0
 10
-3.4923500000000001
 20
0.25089
 30
0.0
 10
-3.4517100000000003
 20
0.2737500000000001
 30
0.0
 10
-3.4517100000000003
 20
0.2737500000000001
 30
0.0
 10
-3.3323300000000002
 20
0.34487
 30
0.0
 10
-3.2358100000000003
 20
0.43631
 30
0.0
 10
-3.0935700000000002
 20
0.42615
 30
0.0
 10
-3.0935700000000002
 20
0.42615
 30
0.0
 10
-3.0173700000000001
 20
-0.10978
 30
0.0
 10
-3.2942300000000002
 20
-0.10978
 30
0.0
 10
-2.98943
 20
-0.6127
 30
0.0
 10
-2.98943
 20
-0.6127
 30
0.0
 10
-2.6947900000000002
 20
-0.7117600000000001
 30
0.0
 10
-2.7506700000000004
 20
-0.3536200000000001
 30
0.0
 10
-2.6719300000000001
 20
-0.27234
 30
0.0
 10
-2.6719300000000001
 20
-0.27234
 30
0.0
 10
-2.6770100000000001
 20
-0.3536200000000001
 30
0.0
 10
-2.6668500000000002
 20
-0.45014
 30
0.0
 10
-2.64907
 20
-0.53142
 30
0.0
 10
-2.64907
 20
-0.53142
 30
0.0
 10
-1.79817
 20
-0.82352
 30
0.0
 10
-2.2502900000000001
 20
1.1398900000000001
 30
0.0
 10
-2.8929100000000001
 20
0.9290700000000001
 30
0.0
 10
-2.8929100000000001
 20
0.9290700000000001
 30
0.0
 10
-2.7379700000000002
 20
1.19069
 30
0.0
 10
-2.8014700000000001
 20
1.5158100000000001
 30
0.0
 10
-2.4788900000000003
 20
1.6453500000000001
 30
0.0
 10
-2.4788900000000003
 20
1.6453500000000001
 30
0.0
 10
-2.8751300000000004
 20
1.7596500000000002
 30
0.0
 10
-2.8243300000000002
 20
2.2651100000000004
 30
0.0
 10
-2.7049500000000002
 20
2.5724500000000003
 30
0.0
 10
-2.7049500000000002
 20
2.5724500000000003
 30
0.0
 10
-2.9513300000000005
 20
2.3946500000000004
 30
0.0
 10
-2.7582900000000001
 20
1.9222100000000002
 30
0.0
 10
-3.0402300000000002
 20
1.7596500000000002
 30
0.0
 10
-3.0402300000000002
 20
1.7596500000000002
 30
0.0
 10
-3.5812500000000003
 20
2.0517500000000002
 30
0.0
 10
-3.8352500000000003
 20
1.6631300000000002
 30
0.0
 10
-3.9393900000000004
 20
1.9882500000000001
 30
0.0
 10
-3.9393900000000004
 20
1.9882500000000001
 30
0.0
 10
-3.9927300000000003
 20
2.3286100000000003
 30
0.0
 10
-3.6676100000000003
 20
2.6207100000000003
 30
0.0
 10
-3.4059900000000001
 20
2.7680300000000004
 30
0.0
 10
-3.4059900000000001
 20
2.7680300000000004
 30
0.0
 10
-3.5228300000000004
 20
4.0685100000000007
 30
0.0
 10
-2.5601700000000003
 20
5.3562900000000004
 30
0.0
 10
-1.2749300000000001
 20
5.5340900000000008
 30
0.0
 10
-1.2749300000000001
 20
5.5340900000000008
 30
0.0
 10
-1.2723900000000001
 20
5.4528100000000004
 30
0.0
 10
-1.4984500000000001
 20
5.3054900000000007
 30
0.0
 10
-1.37399
 20
5.2572300000000007
 30
0.0
 10
-1.37399
 20
5.2572300000000007
 30
0.0
 10
-1.03617
 20
5.6636300000000004
 30
0.0
 10
-0.5002300000000001
 20
5.6763300000000001
 30
0.0
 10
-0.01763
 20
5.7220500000000003
 30
0.0
  0
SPLINE
  5
28
100
AcDbEntity
  8
Ebene 1
100
AcDbSpline
210
0.0
220
0.0
230
1.0
 70
     1
 71
     3
 72
    20
 73
    16
 74
     0
 42
0.0000000001
 43
0.0000000001
 40
0.0
 40
0.0
 40
0.0
 40
0.0
 40
0.25
 40
0.25
 40
0.25
 40
0.25
 40
0.5
 40
0.5
 40
0.5
 40
0.5
 40
0.75
 40
0.75
 40
0.75
 40
0.75
 40
1.0
 40
1.0
 40
1.0
 40
1.0
 10
-2.0191500000000002
 20
4.2640900000000004
 30
0.0
 10
-2.1105900000000002
 20
3.7916500000000002
 30
0.0
 10
-2.5347700000000004
 20
3.3369900000000001
 30
0.0
 10
-2.3976100000000002
 20
2.80105
 30
0.0
 10
-2.3976100000000002
 20
2.80105
 30
0.0
 10
-2.4738100000000003
 20
2.7680300000000004
 30
0.0
 10
-2.5500100000000003
 20
2.7045300000000001
 30
0.0
 10
-2.6338300000000001
 20
2.7502500000000003
 30
0.0
 10
-2.6338300000000001
 20
2.7502500000000003
 30
0.0
 10
-2.6338300000000001
 20
2.7502500000000003
 30
0.0
 10
-2.5398500000000004
 20
2.9788500000000004
 30
0.0
 10
-2.5398500000000004
 20
2.9788500000000004
 30
0.0
 10
-2.5398500000000004
 20
2.9788500000000004
 30
0.0
 10
-2.51953
 20
3.4512900000000002
 30
0.0
 10
-2.2096500000000003
 20
3.8576900000000003
 30
0.0
 10
-2.0191500000000002
 20
4.2640900000000004
 30
0.0
  0
SPLINE
  5
29
100
AcDbEntity
  8
Ebene 1
100
AcDbSpline
210
0.0
220
0.0
230
1.0
 70
     1
 71
     3
 72
    20
 73
    16
 74
     0
 42
0.0000000001
 43
0.0000000001
 40
0.0
 40
0.0
 40
0.0
 40
0.0
 40
0.25
 40
0.25
 40
0.25
 40
0.25
 40
0.5
 40
0.5
 40
0.5
 40
0.5
 40
0.75
 40
0.75
 40
0.75
 40
0.75
 40
1.0
 40
1.0
 40
1.0
 40
1.0
 10
1.7527400000000002
 20
3.8754700000000004
 30
0.0
 10
1.7857600000000002
 20
3.8907100000000003
 30
0.0
 10
1.8010000000000002
 20
3.8576900000000003
 30
0.0
 10
1.7857600000000002
 20
3.8246700000000002
 30
0.0
 10
1.7857600000000002
 20
3.8246700000000002
 30
0.0
 10
1.4581000000000002
 20
3.5478100000000001
 30
0.0
 10
1.0364600000000002
 20
3.2074500000000001
 30
0.0
 10
0.6122800000000001
 20
3.3217500000000002
 30
0.0
 10
0.6122800000000001
 20
3.3217500000000002
 30
0.0
 10
0.51576
 20
3.3369900000000001
 30
0.0
 10
0.37352
 20
3.2074500000000001
 30
0.0
 10
0.32018
 20
3.3217500000000002
 30
0.0
 10
0.32018
 20
3.3217500000000002
 30
0.0
 10
0.8231000000000001
 20
3.3852500000000001
 30
0.0
 10
1.36158
 20
3.5173300000000003
 30
0.0
 10
1.7527400000000002
 20
3.8754700000000004
 30
0.0
  0
SPLINE
  5
2A
100
AcDbEntity
  8
Ebene 1
100
AcDbSpline
210
0.0
220
0.0
230
1.0
 70
     1
 71
     3
 72
    24
 73
    20
 74
     0
 42
0.0000000001
 43
0.0000000001
 40
0.0
 40
0.0
 40
0.0
 40
0.0
 40
0.2
 40
0.2
 40
0.2
 40
0.2
 40
0.4
 40
0.4
 40
0.4
 40
0.4
 40
0.6000000000000001
 40
0.6000000000000001
 40
0.6000000000000001
 40
0.6000000000000001
 40
0.8
 40
0.8
 40
0.8
 40
0.8
 40
1.0
 40
1.0
 40
1.0
 40
1.0
 10
-0.45705
 20
3.2734900000000002
 30
0.0
 10
-0.45705
 20
3.2734900000000002
 30
0.0
 10
-0.26655
 20
3.2404700000000002
 30
0.0
 10
-0.26655
 20
3.2404700000000002
 30
0.0
 10
-0.26655
 20
3.2404700000000002
 30
0.0
 10
-0.8355100000000001
 20
3.14141
 30
0.0
 10
-1.3892300000000002
 20
2.9636100000000001
 30
0.0
 10
-1.8896100000000002
 20
2.6715100000000001
 30
0.0
 10
-1.8896100000000002
 20
2.6715100000000001
 30
0.0
 10
-1.8896100000000002
 20
2.6715100000000001
 30
0.0
 10
-2.0318500000000004
 20
2.7350100000000004
 30
0.0
 10
-2.0318500000000004
 20
2.7350100000000004
 30
0.0
 10
-2.0318500000000004
 20
2.7350100000000004
 30
0.0
 10
-2.0318500000000004
 20
2.7350100000000004
 30
0.0
 10
-2.0318500000000004
 20
2.80105
 30
0.0
 10
-2.0318500000000004
 20
2.80105
 30
0.0
 10
-2.0318500000000004
 20
2.80105
 30
0.0
 10
-2.0318500000000004
 20
2.80105
 30
0.0
 10
-0.45705
 20
3.2734900000000002
 30
0.0
 10
-0.45705
 20
3.2734900000000002
 30
0.0
  0
SPLINE
  5
2B
100
AcDbEntity
  8
Ebene 1
100
AcDbSpline
210
0.0
220
0.0
230
1.0
 70
     1
 71
     3
 72
    48
 73
    44
 74
     0
 42
0.0000000001
 43
0.0000000001
 40
0.0
 40
0.0
 40
0.0
 40
0.0
 40
0.0909090909090909
 40
0.0909090909090909
 40
0.0909090909090909
 40
0.0909090909090909
 40
0.1818181818181818
 40
0.1818181818181818
 40
0.1818181818181818
 40
0.1818181818181818
 40
0.2727272727272727
 40
0.2727272727272727
 40
0.2727272727272727
 40
0.2727272727272727
 40
0.3636363636363637
 40
0.3636363636363637
 40
0.3636363636363637
 40
0.3636363636363637
 40
0.4545454545454546
 40
0.4545454545454546
 40
0.4545454545454546
 40
0.4545454545454546
 40
0.5454545454545455
 40
0.5454545454545455
 40
0.5454545454545455
 40
0.5454545454545455
 40
0.6363636363636365
 40
0.6363636363636365
 40
0.6363636363636365
 40
0.6363636363636365
 40
0.7272727272727274
 40
0.7272727272727274
 40
0.7272727272727274
 40
0.7272727272727274
 40
0.8181818181818183
 40
0.8181818181818183
 40
0.8181818181818183
 40
0.8181818181818183
 40
0.9090909090909093
 40
0.9090909090909093
 40
0.9090909090909093
 40
0.9090909090909093
 40
1.0
 40
1.0
 40
1.0
 40
1.0
 10
1.5724
 20
3.2226900000000001
 30
0.0
 10
1.9965800000000002
 20
3.2226900000000001
 30
0.0
 10
2.3039200000000002
 20
2.8975700000000004
 30
0.0
 10
2.7433400000000003
 20
2.93059
 30
0.0
 10
2.7433400000000003
 20
2.93059
 30
0.0
 10
2.67984
 20
2.8975700000000004
 30
0.0
 10
2.5325200000000003
 20
2.8823300000000001
 30
0.0
 10
2.4512400000000003
 20
2.8975700000000004
 30
0.0
 10
2.4512400000000003
 20
2.8975700000000004
 30
0.0
 10
2.4512400000000003
 20
2.8975700000000004
 30
0.0
 10
2.1261200000000002
 20
2.9458300000000004
 30
0.0
 10
2.1261200000000002
 20
2.9458300000000004
 30
0.0
 10
2.1261200000000002
 20
2.9458300000000004
 30
0.0
 10
1.5089000000000001
 20
3.4512900000000002
 30
0.0
 10
0.8561200000000001
 20
2.3946500000000004
 30
0.0
 10
1.44286
 20
1.9882500000000001
 30
0.0
 10
1.44286
 20
1.9882500000000001
 30
0.0
 10
1.2472800000000002
 20
1.5793100000000002
 30
0.0
 10
1.2142600000000001
 20
1.10941
 30
0.0
 10
1.44286
 20
0.7182500000000001
 30
0.0
 10
1.44286
 20
0.7182500000000001
 30
0.0
 10
1.1990200000000002
 20
0.21533
 30
0.0
 10
1.7679800000000001
 20
-0.0285
 30
0.0
 10
2.0296000000000003
 20
-0.3206000000000001
 30
0.0
 10
2.0296000000000003
 20
-0.3206000000000001
 30
0.0
 10
1.7679800000000001
 20
-0.1428
 30
0.0
 10
1.4098400000000002
 20
-0.0285
 30
0.0
 10
1.2142600000000001
 20
0.23057
 30
0.0
 10
1.2142600000000001
 20
0.23057
 30
0.0
 10
1.2625200000000001
 20
0.42615
 30
0.0
 10
1.3768200000000002
 20
0.8808100000000001
 30
0.0
 10
1.09996
 20
0.91383
 30
0.0
 10
1.09996
 20
0.91383
 30
0.0
 10
1.09996
 20
0.91383
 30
0.0
 10
1.09996
 20
1.10941
 30
0.0
 10
1.09996
 20
1.10941
 30
0.0
 10
1.09996
 20
1.10941
 30
0.0
 10
1.06948
 20
1.4497700000000002
 30
0.0
 10
1.2117200000000001
 20
1.7672700000000001
 30
0.0
 10
1.3742800000000002
 20
1.9780900000000001
 30
0.0
 10
1.3742800000000002
 20
1.9780900000000001
 30
0.0
 10
0.86882
 20
2.25495
 30
0.0
 10
1.0517000000000001
 20
3.0931500000000001
 30
0.0
 10
1.5724
 20
3.2226900000000001
 30
0.0
  0
SPLINE
  5
2C
100
AcDbEntity
  8
Ebene 1
100
AcDbSpline
210
0.0
220
0.0
230
1.0
 70
     1
 71
     3
 72
    16
 73
    12
 74
     0
 42
0.0000000001
 43
0.0000000001
 40
0.0
 40
0.0
 40
0.0
 40
0.0
 40
0.3333333333333333
 40
0.3333333333333333
 40
0.3333333333333333
 40
0.3333333333333333
 40
0.6666666666666666
 40
0.6666666666666666
 40
0.6666666666666666
 40
0.6666666666666666
 40
1.0
 40
1.0
 40
1.0
 40
1.0
 10
-3.2891500000000002
 20
2.8162900000000004
 30
0.0
 10
-3.1164300000000003
 20
2.8162900000000004
 30
0.0
 10
-2.9437100000000003
 20
2.7832700000000004
 30
0.0
 10
-2.8040100000000003
 20
2.7045300000000001
 30
0.0
 10
-2.8040100000000003
 20
2.7045300000000001
 30
0.0
 10
-2.9614900000000004
 20
2.6537300000000004
 30
0.0
 10
-3.1189700000000005
 20
2.7832700000000004
 30
0.0
 10
-3.2840700000000003
 20
2.7680300000000004
 30
0.0
 10
-3.2840700000000003
 20
2.7680300000000004
 30
0.0
 10
-3.3069300000000004
 20
2.7832700000000004
 30
0.0
 10
-3.2993100000000002
 20
2.80105
 30
0.0
 10
-3.2891500000000002
 20
2.8162900000000004
 30
0.0
  0
SPLINE
  5
2D
100
AcDbEntity
  8
Ebene 1
100
AcDbSpline
210
0.0
220
0.0
230
1.0
 70
     1
 71
     3
 72
    52
 73
    48
 74
     0
 42
0.0000000001
 43
0.0000000001
 40
0.0
 40
0.0
 40
0.0
 40
0.0
 40
0.0833333333333333
 40
0.0833333333333333
 40
0.0833333333333333
 40
0.0833333333333333
 40
0.1666666666666667
 40
0.1666666666666667
 40
0.1666666666666667
 40
0.1666666666666667
 40
0.25
 40
0.25
 40
0.25
 40
0.25
 40
0.3333333333333333
 40
0.3333333333333333
 40
0.3333333333333333
 40
0.3333333333333333
 40
0.4166666666666666
 40
0.4166666666666666
 40
0.4166666666666666
 40
0.4166666666666666
 40
0.4999999999999999
 40
0.4999999999999999
 40
0.4999999999999999
 40
0.4999999999999999
 40
0.5833333333333333
 40
0.5833333333333333
 40
0.5833333333333333
 40
0.5833333333333333
 40
0.6666666666666666
 40
0.6666666666666666
 40
0.6666666666666666
 40
0.6666666666666666
 40
0.75
 40
0.75
 40
0.75
 40
0.75
 40
0.8333333333333334
 40
0.8333333333333334
 40
0.8333333333333334
 40
0.8333333333333334
 40
0.9166666666666667
 40
0.9166666666666667
 40
0.9166666666666667
 40
0.9166666666666667
 40
1.0
 40
1.0
 40
1.0
 40
1.0
 10
0.33796
 20
2.63849
 30
0.0
 10
0.42178
 20
2.50895
 30
0.0
 10
0.05348
 20
2.3133700000000004
 30
0.0
 10
-0.03033
 20
2.1508100000000003
 30
0.0
 10
-0.03033
 20
2.1508100000000003
 30
0.0
 10
-0.03033
 20
2.1508100000000003
 30
0.0
 10
0.52846
 20
2.0517500000000002
 30
0.0
 10
0.52846
 20
2.0517500000000002
 30
0.0
 10
0.52846
 20
2.0517500000000002
 30
0.0
 10
0.52846
 20
2.0517500000000002
 30
0.0
 10
0.03316
 20
2.0695300000000003
 30
0.0
 10
0.03316
 20
2.0695300000000003
 30
0.0
 10
0.03316
 20
2.0695300000000003
 30
0.0
 10
0.24144
 20
1.7596500000000002
 30
0.0
 10
0.07888
 20
1.32023
 30
0.0
 10
0.23382
 20
1.06115
 30
0.0
 10
0.23382
 20
1.06115
 30
0.0
 10
0.11698
 20
0.9798700000000001
 30
0.0
 10
-0.33513
 20
0.8325500000000001
 30
0.0
 10
-0.18527
 20
0.7334900000000001
 30
0.0
 10
-0.18527
 20
0.7334900000000001
 30
0.0
 10
-0.30465
 20
0.7182500000000001
 30
0.0
 10
-0.44181
 20
0.70047
 30
0.0
 10
-0.50785
 20
0.5887100000000001
 30
0.0
 10
-0.50785
 20
0.5887100000000001
 30
0.0
 10
-0.4164100000000001
 20
0.5226700000000001
 30
0.0
 10
-0.16749
 20
0.5074300000000001
 30
0.0
 10
-0.11923
 20
0.36011
 30
0.0
 10
-0.11923
 20
0.36011
 30
0.0
 10
-0.51039
 20
0.5887100000000001
 30
0.0
 10
-0.9625100000000001
 20
0.37789
 30
0.0
 10
-1.37907
 20
0.5074300000000001
 30
0.0
 10
-1.37907
 20
0.5074300000000001
 30
0.0
 10
-1.54925
 20
0.70047
 30
0.0
 10
-1.6381500000000002
 20
0.9290700000000001
 30
0.0
 10
-1.7600700000000002
 20
1.1246500000000001
 30
0.0
 10
-1.7600700000000002
 20
1.1246500000000001
 30
0.0
 10
-1.6965700000000001
 20
1.32023
 30
0.0
 10
-1.5746500000000001
 20
1.4980300000000002
 30
0.0
 10
-1.46543
 20
1.6783700000000001
 30
0.0
 10
-1.46543
 20
1.6783700000000001
 30
0.0
 10
-1.5162300000000002
 20
1.7266300000000001
 30
0.0
 10
-1.6762500000000002
 20
1.6453500000000001
 30
0.0
 10
-1.6889500000000002
 20
1.7418700000000003
 30
0.0
 10
-1.6889500000000002
 20
1.7418700000000003
 30
0.0
 10
-0.92949
 20
1.7748900000000001
 30
0.0
 10
-0.21067
 20
2.1330300000000002
 30
0.0
 10
0.33796
 20
2.63849
 30
0.0
  0
SPLINE
  5
2E
100
AcDbEntity
  8
Ebene 1
100
AcDbSpline
210
0.0
220
0.0
230
1.0
 70
     1
 71
     3
 72
    20
 73
    16
 74
     0
 42
0.0000000001
 43
0.0000000001
 40
0.0
 40
0.0
 40
0.0
 40
0.0
 40
0.25
 40
0.25
 40
0.25
 40
0.25
 40
0.5
 40
0.5
 40
0.5
 40
0.5
 40
0.75
 40
0.75
 40
0.75
 40
0.75
 40
1.0
 40
1.0
 40
1.0
 40
1.0
 10
-2.1334500000000003
 20
1.9222100000000002
 30
0.0
 10
-2.1334500000000003
 20
1.9222100000000002
 30
0.0
 10
-2.0394700000000001
 20
1.9222100000000002
 30
0.0
 10
-2.0394700000000001
 20
1.9222100000000002
 30
0.0
 10
-2.0394700000000001
 20
1.9222100000000002
 30
0.0
 10
-2.0242300000000002
 20
1.7926700000000002
 30
0.0
 10
-1.8591300000000002
 20
1.7113900000000002
 30
0.0
 10
-1.8438900000000003
 20
1.5793100000000002
 30
0.0
 10
-1.8438900000000003
 20
1.5793100000000002
 30
0.0
 10
-1.9734300000000002
 20
1.5640700000000001
 30
0.0
 10
-2.0470900000000003
 20
1.6936100000000001
 30
0.0
 10
-2.1766300000000003
 20
1.6631300000000002
 30
0.0
 10
-2.1766300000000003
 20
1.6631300000000002
 30
0.0
 10
-2.15123
 20
1.7418700000000003
 30
0.0
 10
-2.0826500000000001
 20
1.8256900000000003
 30
0.0
 10
-2.1334500000000003
 20
1.9222100000000002
 30
0.0
  0
SPLINE
  5
2F
100
AcDbEntity
  8
Ebene 1
 62
     7
100
AcDbSpline
210
0.0
220
0.0
230
1.0
 70
     1
 71
     3
 72
    12
 73
     8
 74
     0
 42
0.0000000001
 43
0.0000000001
 40
0.0
 40
0.0
 40
0.0
 40
0.0
 40
0.5
 40
0.5
 40
0.5
 40
0.5
 40
1.0
 40
1.0
 40
1.0
 40
1.0
 10
-3.2231100000000001
 20
1.53105
 30
0.0
 10
-3.1494500000000003
 20
1.4980300000000002
 30
0.0
 10
-3.0427700000000004
 20
1.4345300000000001
 30
0.0
 10
-3.0478500000000004
 20
1.3354700000000002
 30
0.0
 10
-3.0478500000000004
 20
1.3354700000000002
 30
0.0
 10
-3.1367500000000001
 20
1.3354700000000002
 30
0.0
 10
-3.2535900000000004
 20
1.4497700000000002
 30
0.0
 10
-3.2231100000000001
 20
1.53105
 30
0.0
  0
SPLINE
  5
30
100
AcDbEntity
  8
Ebene 1
100
AcDbSpline
210
0.0
220
0.0
230
1.0
 70
     1
 71
     3
 72
    32
 73
    28
 74
     0
 42
0.0000000001
 43
0.0000000001
 40
0.0
 40
0.0
 40
0.0
 40
0.0
 40
0.1428571428571429
 40
0.1428571428571429
 40
0.1428571428571429
 40
0.1428571428571429
 40
0.2857142857142857
 40
0.2857142857142857
 40
0.2857142857142857
 40
0.2857142857142857
 40
0.4285714285714286
 40
0.4285714285714286
 40
0.4285714285714286
 40
0.4285714285714286
 40
0.5714285714285714
 40
0.5714285714285714
 40
0.5714285714285714
 40
0.5714285714285714
 40
0.7142857142857142
 40
0.7142857142857142
 40
0.7142857142857142
 40
0.7142857142857142
 40
0.857142857142857
 40
0.857142857142857
 40
0.857142857142857
 40
0.857142857142857
 40
1.0
 40
1.0
 40
1.0
 40
1.0
 10
-2.0191500000000002
 20
1.5158100000000001
 30
0.0
 10
-1.9048500000000002
 20
1.4345300000000001
 30
0.0
 10
-1.7727700000000002
 20
1.4980300000000002
 30
0.0
 10
-1.6660900000000001
 20
1.4980300000000002
 30
0.0
 10
-1.6660900000000001
 20
1.4980300000000002
 30
0.0
 10
-1.6559300000000001
 20
1.4675500000000001
 30
0.0
 10
-1.6635500000000001
 20
1.4497700000000002
 30
0.0
 10
-1.6813300000000002
 20
1.4345300000000001
 30
0.0
 10
-1.6813300000000002
 20
1.4345300000000001
 30
0.0
 10
-1.9505700000000001
 20
1.2872100000000002
 30
0.0
 10
-1.9404100000000002
 20
0.8960500000000001
 30
0.0
 10
-2.0369300000000004
 20
0.63697
 30
0.0
 10
-2.0369300000000004
 20
0.63697
 30
0.0
 10
-1.9734300000000002
 20
0.48965
 30
0.0
 10
-1.9150100000000001
 20
0.34487
 30
0.0
 10
-1.8921500000000002
 20
0.18231
 30
0.0
 10
-1.8921500000000002
 20
0.18231
 30
0.0
 10
-2.0089900000000003
 20
0.3270900000000001
 30
0.0
 10
-2.0496300000000001
 20
0.5226700000000001
 30
0.0
 10
-2.1004300000000002
 20
0.68523
 30
0.0
 10
-2.1004300000000002
 20
0.68523
 30
0.0
 10
-2.0826500000000001
 20
0.9290700000000001
 30
0.0
 10
-1.8057900000000002
 20
1.23895
 30
0.0
 10
-2.0318500000000004
 20
1.4497700000000002
 30
0.0
 10
-2.0318500000000004
 20
1.4497700000000002
 30
0.0
 10
-2.0470900000000003
 20
1.4827900000000001
 30
0.0
 10
-2.02677
 20
1.4980300000000002
 30
0.0
 10
-2.0191500000000002
 20
1.5158100000000001
 30
0.0
  0
SPLINE
  5
31
100
AcDbEntity
  8
Ebene 1
 62
     7
100
AcDbSpline
210
0.0
220
0.0
230
1.0
 70
     1
 71
     3
 72
    20
 73
    16
 74
     0
 42
0.0000000001
 43
0.0000000001
 40
0.0
 40
0.0
 40
0.0
 40
0.0
 40
0.25
 40
0.25
 40
0.25
 40
0.25
 40
0.5
 40
0.5
 40
0.5
 40
0.5
 40
0.75
 40
0.75
 40
0.75
 40
0.75
 40
1.0
 40
1.0
 40
1.0
 40
1.0
 10
-0.9142500000000001
 20
1.5158100000000001
 30
0.0
 10
-0.9142500000000001
 20
1.5158100000000001
 30
0.0
 10
-0.7542300000000001
 20
1.4980300000000002
 30
0.0
 10
-0.7542300000000001
 20
1.4980300000000002
 30
0.0
 10
-0.7542300000000001
 20
1.4980300000000002
 30
0.0
 10
-0.8634500000000001
 20
1.32023
 30
0.0
 10
-1.08951
 20
1.3354700000000002
 30
0.0
 10
-1.2673100000000002
 20
1.3024500000000001
 30
0.0
 10
-1.2673100000000002
 20
1.3024500000000001
 30
0.0
 10
-1.2571500000000002
 20
1.3532500000000001
 30
0.0
 10
-1.2266700000000001
 20
1.3862700000000001
 30
0.0
 10
-1.1911100000000001
 20
1.40151
 30
0.0
 10
-1.1911100000000001
 20
1.40151
 30
0.0
 10
-1.1911100000000001
 20
1.40151
 30
0.0
 10
-0.9142500000000001
 20
1.5158100000000001
 30
0.0
 10
-0.9142500000000001
 20
1.5158100000000001
 30
0.0
  0
SPLINE
  5
32
100
AcDbEntity
  8
Ebene 1
 62
     7
100
AcDbSpline
210
0.0
220
0.0
230
1.0
 70
     1
 71
     3
 72
    16
 73
    12
 74
     0
 42
0.0000000001
 43
0.0000000001
 40
0.0
 40
0.0
 40
0.0
 40
0.0
 40
0.3333333333333333
 40
0.3333333333333333
 40
0.3333333333333333
 40
0.3333333333333333
 40
0.6666666666666666
 40
0.6666666666666666
 40
0.6666666666666666
 40
0.6666666666666666
 40
1.0
 40
1.0
 40
1.0
 40
1.0
 10
-2.9970500000000002
 20
0.45917
 30
0.0
 10
-2.9970500000000002
 20
0.45917
 30
0.0
 10
-2.9665700000000004
 20
0.45917
 30
0.0
 10
-2.9665700000000004
 20
0.45917
 30
0.0
 10
-2.9665700000000004
 20
0.45917
 30
0.0
 10
-2.9614900000000004
 20
0.34487
 30
0.0
 10
-2.9487900000000002
 20
0.18231
 30
0.0
 10
-3.0224500000000001
 20
0.10103
 30
0.0
 10
-3.0224500000000001
 20
0.10103
 30
0.0
 10
-3.0199100000000003
 20
0.21533
 30
0.0
 10
-3.0173700000000001
 20
0.34487
 30
0.0
 10
-2.9970500000000002
 20
0.45917
 30
0.0
  0
SPLINE
  5
33
100
AcDbEntity
  8
Ebene 1
 62
     7
100
AcDbSpline
210
0.0
220
0.0
230
1.0
 70
     1
 71
     3
 72
    16
 73
    12
 74
     0
 42
0.0000000001
 43
0.0000000001
 40
0.0
 40
0.0
 40
0.0
 40
0.0
 40
0.3333333333333333
 40
0.3333333333333333
 40
0.3333333333333333
 40
0.3333333333333333
 40
0.6666666666666666
 40
0.6666666666666666
 40
0.6666666666666666
 40
0.6666666666666666
 40
1.0
 40
1.0
 40
1.0
 40
1.0
 10
-2.6719300000000001
 20
0.34487
 30
0.0
 10
-2.5449300000000004
 20
0.24835
 30
0.0
 10
-2.6211300000000004
 20
0.05277
 30
0.0
 10
-2.6566900000000002
 20
-0.07676
 30
0.0
 10
-2.6566900000000002
 20
-0.07676
 30
0.0
 10
-2.6566900000000002
 20
-0.07676
 30
0.0
 10
-2.6820900000000001
 20
-0.07676
 30
0.0
 10
-2.6820900000000001
 20
-0.07676
 30
0.0
 10
-2.6820900000000001
 20
-0.07676
 30
0.0
 10
-2.6592300000000004
 20
0.05277
 30
0.0
 10
-2.61097
 20
0.21533
 30
0.0
 10
-2.6719300000000001
 20
0.34487
 30
0.0
  0
SPLINE
  5
34
100
AcDbEntity
  8
Ebene 1
 62
     7
100
AcDbSpline
210
0.0
220
0.0
230
1.0
 70
     1
 71
     3
 72
    12
 73
     8
 74
     0
 42
0.0000000001
 43
0.0000000001
 40
0.0
 40
0.0
 40
0.0
 40
0.0
 40
0.5
 40
0.5
 40
0.5
 40
0.5
 40
1.0
 40
1.0
 40
1.0
 40
1.0
 10
-2.6871700000000001
 20
-0.092
 30
0.0
 10
-2.6160500000000004
 20
-0.07676
 30
0.0
 10
-2.7176500000000003
 20
-0.23932
 30
0.0
 10
-2.6871700000000001
 20
-0.1428
 30
0.0
 10
-2.6871700000000001
 20
-0.1428
 30
0.0
 10
-2.6871700000000001
 20
-0.1428
 30
0.0
 10
-2.6871700000000001
 20
-0.092
 30
0.0
 10
-2.6871700000000001
 20
-0.092
 30
0.0
  0
SPLINE
  5
35
100
AcDbEntity
  8
Ebene 1
 62
     7
100
AcDbSpline
210
0.0
220
0.0
230
1.0
 70
     1
 71
     3
 72
    60
 73
    56
 74
     0
 42
0.0000000001
 43
0.0000000001
 40
0.0
 40
0.0
 40
0.0
 40
0.0
 40
0.0714285714285714
 40
0.0714285714285714
 40
0.0714285714285714
 40
0.0714285714285714
 40
0.1428571428571429
 40
0.1428571428571429
 40
0.1428571428571429
 40
0.1428571428571429
 40
0.2142857142857143
 40
0.2142857142857143
 40
0.2142857142857143
 40
0.2142857142857143
 40
0.2857142857142857
 40
0.2857142857142857
 40
0.2857142857142857
 40
0.2857142857142857
 40
0.3571428571428571
 40
0.3571428571428571
 40
0.3571428571428571
 40
0.3571428571428571
 40
0.4285714285714285
 40
0.4285714285714285
 40
0.4285714285714285
 40
0.4285714285714285
 40
0.4999999999999999
 40
0.4999999999999999
 40
0.4999999999999999
 40
0.4999999999999999
 40
0.5714285714285713
 40
0.5714285714285713
 40
0.5714285714285713
 40
0.5714285714285713
 40
0.6428571428571427
 40
0.6428571428571427
 40
0.6428571428571427
 40
0.6428571428571427
 40
0.7142857142857141
 40
0.7142857142857141
 40
0.7142857142857141
 40
0.7142857142857141
 40
0.7857142857142855
 40
0.7857142857142855
 40
0.7857142857142855
 40
0.7857142857142855
 40
0.8571428571428569
 40
0.8571428571428569
 40
0.8571428571428569
 40
0.8571428571428569
 40
0.9285714285714283
 40
0.9285714285714283
 40
0.9285714285714283
 40
0.9285714285714283
 40
1.0
 40
1.0
 40
1.0
 40
1.0
 10
-1.07681
 20
-0.3536200000000001
 30
0.0
 10
-1.07681
 20
-0.3536200000000001
 30
0.0
 10
-1.07681
 20
-0.5492
 30
0.0
 10
-1.07681
 20
-0.5492
 30
0.0
 10
-1.07681
 20
-0.5492
 30
0.0
 10
-1.0641100000000001
 20
-0.82352
 30
0.0
 10
-0.8812300000000001
 20
-1.0673600000000001
 30
0.0
 10
-0.8177300000000001
 20
-1.3137400000000001
 30
0.0
 10
-0.8177300000000001
 20
-1.3137400000000001
 30
0.0
 10
-0.75931
 20
-1.0521200000000002
 30
0.0
 10
-1.0285500000000001
 20
-0.8413000000000001
 30
0.0
 10
-0.9904500000000001
 20
-0.5644400000000001
 30
0.0
 10
-0.9904500000000001
 20
-0.5644400000000001
 30
0.0
 10
-0.9548900000000001
 20
-0.4984000000000001
 30
0.0
 10
-0.9396500000000001
 20
-0.36886
 30
0.0
 10
-0.8355100000000001
 20
-0.36886
 30
0.0
 10
-0.8355100000000001
 20
-0.36886
 30
0.0
 10
-0.8913900000000001
 20
-0.5796800000000001
 30
0.0
 10
-0.7466100000000001
 20
-0.82352
 30
0.0
 10
-0.6729500000000001
 20
-1.0191000000000001
 30
0.0
 10
-0.6729500000000001
 20
-1.0191000000000001
 30
0.0
 10
-0.6272300000000001
 20
-0.9860800000000001
 30
0.0
 10
-0.6704100000000001
 20
-0.9378200000000001
 30
0.0
 10
-0.6729500000000001
 20
-0.88956
 30
0.0
 10
-0.6729500000000001
 20
-0.88956
 30
0.0
 10
-0.7339100000000001
 20
-0.7447800000000001
 30
0.0
 10
-0.7720100000000001
 20
-0.53142
 30
0.0
 10
-0.65517
 20
-0.3841000000000001
 30
0.0
 10
-0.65517
 20
-0.3841000000000001
 30
0.0
 10
-0.5865900000000001
 20
-0.8565400000000001
 30
0.0
 10
-0.24115
 20
-1.3137400000000001
 30
0.0
 10
-0.34783
 20
-1.7988800000000003
 30
0.0
 10
-0.34783
 20
-1.7988800000000003
 30
0.0
 10
-0.4494300000000001
 20
-1.66934
 30
0.0
 10
-0.5789700000000001
 20
-1.5398000000000001
 30
0.0
 10
-0.61707
 20
-1.37724
 30
0.0
 10
-0.61707
 20
-1.37724
 30
0.0
 10
-0.58913
 20
-1.2807200000000001
 30
0.0
 10
-0.73899
 20
-1.1334000000000002
 30
0.0
 10
-0.72121
 20
-1.2807200000000001
 30
0.0
 10
-0.72121
 20
-1.2807200000000001
 30
0.0
 10
-0.72121
 20
-1.2807200000000001
 30
0.0
 10
-0.6653300000000001
 20
-1.4432800000000001
 30
0.0
 10
-0.6653300000000001
 20
-1.4432800000000001
 30
0.0
 10
-0.6653300000000001
 20
-1.4432800000000001
 30
0.0
 10
-0.6424700000000001
 20
-1.6541000000000001
 30
0.0
 10
-0.63993
 20
-1.8827000000000003
 30
0.0
 10
-0.6704100000000001
 20
-2.0935200000000003
 30
0.0
 10
-0.6704100000000001
 20
-2.0935200000000003
 30
0.0
 10
-0.9548900000000001
 20
-1.6541000000000001
 30
0.0
 10
-1.1326900000000002
 20
-1.1511800000000001
 30
0.0
 10
-1.25461
 20
-0.6457200000000001
 30
0.0
 10
-1.25461
 20
-0.6457200000000001
 30
0.0
 10
-1.2292100000000001
 20
-0.53142
 30
0.0
 10
-1.1606300000000001
 20
-0.4349
 30
0.0
 10
-1.07681
 20
-0.3536200000000001
 30
0.0
  0
SPLINE
  5
36
100
AcDbEntity
  8
Ebene 1
 62
     7
100
AcDbSpline
210
0.0
220
0.0
230
1.0
 70
     1
 71
     3
 72
   172
 73
   168
 74
     0
 42
0.0000000001
 43
0.0000000001
 40
0.0
 40
0.0
 40
0.0
 40
0.0
 40
0.0238095238095238
 40
0.0238095238095238
 40
0.0238095238095238
 40
0.0238095238095238
 40
0.0476190476190476
 40
0.0476190476190476
 40
0.0476190476190476
 40
0.0476190476190476
 40
0.0714285714285714
 40
0.0714285714285714
 40
0.0714285714285714
 40
0.0714285714285714
 40
0.0952380952380952
 40
0.0952380952380952
 40
0.0952380952380952
 40
0.0952380952380952
 40
0.119047619047619
 40
0.119047619047619
 40
0.119047619047619
 40
0.119047619047619
 40
0.1428571428571429
 40
0.1428571428571429
 40
0.1428571428571429
 40
0.1428571428571429
 40
0.1666666666666667
 40
0.1666666666666667
 40
0.1666666666666667
 40
0.1666666666666667
 40
0.1904761904761905
 40
0.1904761904761905
 40
0.1904761904761905
 40
0.1904761904761905
 40
0.2142857142857143
 40
0.2142857142857143
 40
0.2142857142857143
 40
0.2142857142857143
 40
0.2380952380952381
 40
0.2380952380952381
 40
0.2380952380952381
 40
0.2380952380952381
 40
0.2619047619047619
 40
0.2619047619047619
 40
0.2619047619047619
 40
0.2619047619047619
 40
0.2857142857142857
 40
0.2857142857142857
 40
0.2857142857142857
 40
0.2857142857142857
 40
0.3095238095238095
 40
0.3095238095238095
 40
0.3095238095238095
 40
0.3095238095238095
 40
0.3333333333333334
 40
0.3333333333333334
 40
0.3333333333333334
 40
0.3333333333333334
 40
0.3571428571428572
 40
0.3571428571428572
 40
0.3571428571428572
 40
0.3571428571428572
 40
0.380952380952381
 40
0.380952380952381
 40
0.380952380952381
 40
0.380952380952381
 40
0.4047619047619049
 40
0.4047619047619049
 40
0.4047619047619049
 40
0.4047619047619049
 40
0.4285714285714287
 40
0.4285714285714287
 40
0.4285714285714287
 40
0.4285714285714287
 40
0.4523809523809526
 40
0.4523809523809526
 40
0.4523809523809526
 40
0.4523809523809526
 40
0.4761904761904764
 40
0.4761904761904764
 40
0.4761904761904764
 40
0.4761904761904764
 40
0.5000000000000002
 40
0.5000000000000002
 40
0.5000000000000002
 40
0.5000000000000002
 40
0.5238095238095241
 40
0.5238095238095241
 40
0.5238095238095241
 40
0.5238095238095241
 40
0.5476190476190479
 40
0.5476190476190479
 40
0.5476190476190479
 40
0.5476190476190479
 40
0.5714285714285717
 40
0.5714285714285717
 40
0.5714285714285717
 40
0.5714285714285717
 40
0.5952380952380956
 40
0.5952380952380956
 40
0.5952380952380956
 40
0.5952380952380956
 40
0.6190476190476194
 40
0.6190476190476194
 40
0.6190476190476194
 40
0.6190476190476194
 40
0.6428571428571432
 40
0.6428571428571432
 40
0.6428571428571432
 40
0.6428571428571432
 40
0.6666666666666671
 40
0.6666666666666671
 40
0.6666666666666671
 40
0.6666666666666671
 40
0.6904761904761909
 40
0.6904761904761909
 40
0.6904761904761909
 40
0.6904761904761909
 40
0.7142857142857148
 40
0.7142857142857148
 40
0.7142857142857148
 40
0.7142857142857148
 40
0.7380952380952386
 40
0.7380952380952386
 40
0.7380952380952386
 40
0.7380952380952386
 40
0.7619047619047624
 40
0.7619047619047624
 40
0.7619047619047624
 40
0.7619047619047624
 40
0.7857142857142863
 40
0.7857142857142863
 40
0.7857142857142863
 40
0.7857142857142863
 40
0.8095238095238101
 40
0.8095238095238101
 40
0.8095238095238101
 40
0.8095238095238101
 40
0.8333333333333339
 40
0.8333333333333339
 40
0.8333333333333339
 40
0.8333333333333339
 40
0.8571428571428578
 40
0.8571428571428578
 40
0.8571428571428578
 40
0.8571428571428578
 40
0.8809523809523816
 40
0.8809523809523816
 40
0.8809523809523816
 40
0.8809523809523816
 40
0.9047619047619054
 40
0.9047619047619054
 40
0.9047619047619054
 40
0.9047619047619054
 40
0.9285714285714293
 40
0.9285714285714293
 40
0.9285714285714293
 40
0.9285714285714293
 40
0.9523809523809531
 40
0.9523809523809531
 40
0.9523809523809531
 40
0.9523809523809531
 40
0.9761904761904769
 40
0.9761904761904769
 40
0.9761904761904769
 40
0.9761904761904769
 40
1.0
 40
1.0
 40
1.0
 40
1.0
 10
0.15762
 20
-0.3536200000000001
 30
0.0
 10
0.15762
 20
-0.3536200000000001
 30
0.0
 10
0.35066
 20
-0.36886
 30
0.0
 10
0.35066
 20
-0.36886
 30
0.0
 10
0.35066
 20
-0.36886
 30
0.0
 10
0.19318
 20
-1.03688
 30
0.0
 10
0.5945
 20
-1.6871200000000002
 30
0.0
 10
0.6935600000000001
 20
-2.3373600000000003
 30
0.0
 10
0.6935600000000001
 20
-2.3373600000000003
 30
0.0
 10
0.6935600000000001
 20
-2.2484600000000001
 30
0.0
 10
0.7215
 20
-2.18242
 30
0.0
 10
0.7062600000000001
 20
-2.0935200000000003
 30
0.0
 10
0.7062600000000001
 20
-2.0935200000000003
 30
0.0
 10
0.64022
 20
-1.6668000000000001
 30
0.0
 10
0.4192400000000001
 20
-1.2197600000000002
 30
0.0
 10
0.4167
 20
-0.7752600000000001
 30
0.0
 10
0.4167
 20
-0.7752600000000001
 30
0.0
 10
0.4167
 20
-0.7752600000000001
 30
0.0
 10
0.42178
 20
-0.6609600000000001
 30
0.0
 10
0.42178
 20
-0.6609600000000001
 30
0.0
 10
0.42178
 20
-0.6609600000000001
 30
0.0
 10
0.5818000000000001
 20
-0.40188
 30
0.0
 10
0.66054
 20
-0.36886
 30
0.0
 10
0.5945
 20
-0.69398
 30
0.0
 10
0.5945
 20
-0.69398
 30
0.0
 10
0.6529200000000001
 20
-1.6160000000000001
 30
0.0
 10
1.0898000000000001
 20
-0.36632
 30
0.0
 10
1.4581000000000002
 20
-0.4679200000000001
 30
0.0
 10
1.4581000000000002
 20
-0.4679200000000001
 30
0.0
 10
1.3463400000000001
 20
-0.53142
 30
0.0
 10
1.2625200000000001
 20
-0.6457200000000001
 30
0.0
 10
1.1990200000000002
 20
-0.7447800000000001
 30
0.0
 10
1.1990200000000002
 20
-0.7447800000000001
 30
0.0
 10
1.1660000000000001
 20
-0.90734
 30
0.0
 10
1.06948
 20
-1.03688
 30
0.0
 10
1.0034400000000001
 20
-1.1816600000000002
 30
0.0
 10
1.0034400000000001
 20
-1.1816600000000002
 30
0.0
 10
1.2142600000000001
 20
-1.1816600000000002
 30
0.0
 10
1.3463400000000001
 20
-0.4171200000000001
 30
0.0
 10
1.7527400000000002
 20
-0.67874
 30
0.0
 10
1.7527400000000002
 20
-0.67874
 30
0.0
 10
1.7019400000000002
 20
-1.0191000000000001
 30
0.0
 10
1.2650600000000001
 20
-1.1943600000000001
 30
0.0
 10
1.1837800000000001
 20
-1.5169400000000002
 30
0.0
 10
1.1837800000000001
 20
-1.5169400000000002
 30
0.0
 10
1.1355200000000001
 20
-2.1367000000000003
 30
0.0
 10
1.44286
 20
-2.7945600000000002
 30
0.0
 10
1.2142600000000001
 20
-3.3635200000000003
 30
0.0
 10
1.2142600000000001
 20
-3.3635200000000003
 30
0.0
 10
1.2142600000000001
 20
-3.3635200000000003
 30
0.0
 10
1.1812400000000001
 20
-2.7361400000000002
 30
0.0
 10
1.1812400000000001
 20
-2.7361400000000002
 30
0.0
 10
1.1812400000000001
 20
-2.7361400000000002
 30
0.0
 10
1.1812400000000001
 20
-2.7361400000000002
 30
0.0
 10
1.0898000000000001
 20
-2.5253200000000002
 30
0.0
 10
1.0898000000000001
 20
-2.5253200000000002
 30
0.0
 10
1.0898000000000001
 20
-2.5253200000000002
 30
0.0
 10
1.2015600000000002
 20
-2.9799800000000003
 30
0.0
 10
0.7926200000000001
 20
-3.5895800000000002
 30
0.0
 10
1.1990200000000002
 20
-3.8994600000000004
 30
0.0
 10
1.1990200000000002
 20
-3.8994600000000004
 30
0.0
 10
0.9221600000000001
 20
-4.2880800000000008
 30
0.0
 10
0.42686
 20
-4.60304
 30
0.0
 10
0.0484
 20
-4.7605200000000005
 30
0.0
 10
0.0484
 20
-4.7605200000000005
 30
0.0
 10
0.12206
 20
-4.5827200000000001
 30
0.0
 10
0.50814
 20
-4.4049200000000006
 30
0.0
 10
0.42178
 20
-4.2728400000000004
 30
0.0
 10
0.42178
 20
-4.2728400000000004
 30
0.0
 10
-0.20559
 20
-4.6970200000000002
 30
0.0
 10
-0.68057
 20
-5.1720000000000006
 30
0.0
 10
-1.0158500000000001
 20
-5.8197000000000001
 30
0.0
 10
-1.0158500000000001
 20
-5.8197000000000001
 30
0.0
 10
-1.3587500000000001
 20
-5.7206400000000004
 30
0.0
 10
-2.3290300000000004
 20
-5.1669200000000002
 30
0.0
 10
-2.0470900000000003
 20
-5.6241200000000005
 30
0.0
 10
-2.0470900000000003
 20
-5.6241200000000005
 30
0.0
 10
-2.0851900000000003
 20
-5.6723800000000004
 30
0.0
 10
-2.1639300000000001
 20
-5.6571400000000001
 30
0.0
 10
-2.2096500000000003
 20
-5.6393600000000008
 30
0.0
 10
-2.2096500000000003
 20
-5.6393600000000008
 30
0.0
 10
-2.3798300000000001
 20
-5.1364400000000003
 30
0.0
 10
-2.73543
 20
-4.7122600000000006
 30
0.0
 10
-2.85989
 20
-4.2093400000000001
 30
0.0
 10
-2.85989
 20
-4.2093400000000001
 30
0.0
 10
-2.6160500000000004
 20
-4.5395400000000006
 30
0.0
 10
-2.4636500000000003
 20
-4.5471600000000008
 30
0.0
 10
-2.2198100000000003
 20
-4.9408600000000007
 30
0.0
 10
-2.2198100000000003
 20
-4.9408600000000007
 30
0.0
 10
-2.2731500000000002
 20
-4.5979600000000005
 30
0.0
 10
-2.4687300000000003
 20
-4.2423600000000006
 30
0.0
 10
-2.39507
 20
-3.8816800000000002
 30
0.0
 10
-2.39507
 20
-3.8816800000000002
 30
0.0
 10
-2.35189
 20
-3.8994600000000004
 30
0.0
 10
-2.3468100000000001
 20
-3.9477200000000003
 30
0.0
 10
-2.3391900000000003
 20
-3.9959800000000003
 30
0.0
 10
-2.3391900000000003
 20
-3.9959800000000003
 30
0.0
 10
-2.26553
 20
-4.2576000000000001
 30
0.0
 10
-1.7346700000000002
 20
-4.8900600000000001
 30
0.0
 10
-1.8337300000000001
 20
-4.6157400000000006
 30
0.0
 10
-1.8337300000000001
 20
-4.6157400000000006
 30
0.0
 10
-1.8286500000000001
 20
-4.4684200000000001
 30
0.0
 10
-1.75499
 20
-4.6259000000000006
 30
0.0
 10
-1.7422900000000001
 20
-4.6741600000000005
 30
0.0
 10
-1.7422900000000001
 20
-4.6741600000000005
 30
0.0
 10
-1.71435
 20
-4.7706800000000005
 30
0.0
 10
-1.6889500000000002
 20
-4.9408600000000007
 30
0.0
 10
-1.5848100000000001
 20
-4.9738800000000003
 30
0.0
 10
-1.5848100000000001
 20
-4.9738800000000003
 30
0.0
 10
-1.7016500000000001
 20
-4.5827200000000001
 30
0.0
 10
-1.8184900000000002
 20
-4.1585400000000003
 30
0.0
 10
-1.6889500000000002
 20
-3.7521400000000003
 30
0.0
 10
-1.6889500000000002
 20
-3.7521400000000003
 30
0.0
 10
-1.6000500000000002
 20
-4.0772600000000008
 30
0.0
 10
-1.4501900000000001
 20
-4.51668
 30
0.0
 10
-1.12761
 20
-4.7275
 30
0.0
 10
-1.12761
 20
-4.7275
 30
0.0
 10
-1.12761
 20
-4.7275
 30
0.0
 10
-1.2393700000000001
 20
-4.5014400000000006
 30
0.0
 10
-1.2393700000000001
 20
-4.5014400000000006
 30
0.0
 10
-1.2393700000000001
 20
-4.5014400000000006
 30
0.0
 10
-1.1479300000000001
 20
-4.4836600000000004
 30
0.0
 10
-1.04125
 20
-4.4354000000000005
 30
0.0
 10
-0.97267
 20
-4.3388800000000005
 30
0.0
 10
-0.97267
 20
-4.3388800000000005
 30
0.0
 10
-0.9066300000000001
 20
-4.35412
 30
0.0
 10
-0.8812300000000001
 20
-4.4836600000000004
 30
0.0
 10
-0.7872500000000001
 20
-4.4354000000000005
 30
0.0
 10
-0.7872500000000001
 20
-4.4354000000000005
 30
0.0
 10
-1.03363
 20
-4.1763200000000005
 30
0.0
 10
-0.8786900000000001
 20
-3.7369000000000003
 30
0.0
 10
-0.9244100000000001
 20
-3.4117800000000003
 30
0.0
 10
-0.9244100000000001
 20
-3.4117800000000003
 30
0.0
 10
-0.8177300000000001
 20
-3.5260800000000003
 30
0.0
 10
-0.7720100000000001
 20
-3.7038800000000003
 30
0.0
 10
-0.73899
 20
-3.8486600000000002
 30
0.0
 10
-0.73899
 20
-3.8486600000000002
 30
0.0
 10
-0.6196100000000001
 20
-4.0645600000000002
 30
0.0
 10
-0.7796300000000001
 20
-4.3211000000000004
 30
0.0
 10
-0.6069100000000001
 20
-4.6309800000000001
 30
0.0
 10
-0.6069100000000001
 20
-4.6309800000000001
 30
0.0
 10
-0.6475500000000001
 20
-3.9324800000000004
 30
0.0
 10
-0.42403
 20
-3.8994600000000004
 30
0.0
 10
-0.5002300000000001
 20
-3.1679400000000002
 30
0.0
 10
-0.5002300000000001
 20
-3.1679400000000002
 30
0.0
 10
-0.36815
 20
-3.2009600000000002
 30
0.0
 10
-0.38339
 20
-3.5311600000000003
 30
0.0
 10
-0.35799
 20
-3.6937200000000003
 30
0.0
 10
-0.35799
 20
-3.6937200000000003
 30
0.0
 10
-0.37323
 20
-3.8588200000000001
 30
0.0
 10
-0.34529
 20
-4.0289999999999999
 30
0.0
 10
-0.23353
 20
-4.1585400000000003
 30
0.0
 10
-0.23353
 20
-4.1585400000000003
 30
0.0
 10
-0.36053
 20
-3.6556200000000003
 30
0.0
 10
-0.16495
 20
-3.3787600000000002
 30
0.0
 10
-0.08621
 20
-2.9241000000000001
 30
0.0
 10
-0.08621
 20
-2.9241000000000001
 30
0.0
 10
-0.06589
 20
-2.9723600000000001
 30
0.0
 10
-0.04811
 20
-3.0206200000000001
 30
0.0
 10
-0.04811
 20
-3.0866600000000002
 30
0.0
 10
-0.04811
 20
-3.0866600000000002
 30
0.0
 10
-0.05827
 20
-3.3787600000000002
 30
0.0
 10
0.02808
 20
-3.8664400000000003
 30
0.0
 10
0.0103
 20
-3.2974800000000002
 30
0.0
 10
0.0103
 20
-3.2974800000000002
 30
0.0
 10
0.8231000000000001
 20
-2.7285200000000001
 30
0.0
 10
-0.01001
 20
-1.2299200000000001
 30
0.0
 10
0.15762
 20
-0.3536200000000001
 30
0.0
  0
SPLINE
  5
37
100
AcDbEntity
  8
Ebene 1
100
AcDbSpline
210
0.0
220
0.0
230
1.0
 70
     1
 71
     3
 72
    20
 73
    16
 74
     0
 42
0.0000000001
 43
0.0000000001
 40
0.0
 40
0.0
 40
0.0
 40
0.0
 40
0.25
 40
0.25
 40
0.25
 40
0.25
 40
0.5
 40
0.5
 40
0.5
 40
0.5
 40
0.75
 40
0.75
 40
0.75
 40
0.75
 40
1.0
 40
1.0
 40
1.0
 40
1.0
 10
-2.8344900000000002
 20
-1.1511800000000001
 30
0.0
 10
-2.8192500000000003
 20
-1.1511800000000001
 30
0.0
 10
-2.7862300000000002
 20
-1.1334000000000002
 30
0.0
 10
-2.7836900000000004
 20
-1.16642
 30
0.0
 10
-2.7836900000000004
 20
-1.16642
 30
0.0
 10
-2.7836900000000004
 20
-1.16642
 30
0.0
 10
-2.8675100000000002
 20
-1.8319000000000001
 30
0.0
 10
-2.8675100000000002
 20
-1.8319000000000001
 30
0.0
 10
-2.8675100000000002
 20
-1.8319000000000001
 30
0.0
 10
-2.8827500000000001
 20
-1.8319000000000001
 30
0.0
 10
-2.8954500000000003
 20
-1.8166600000000002
 30
0.0
 10
-2.8979900000000001
 20
-1.7988800000000003
 30
0.0
 10
-2.8979900000000001
 20
-1.7988800000000003
 30
0.0
 10
-2.8979900000000001
 20
-1.7988800000000003
 30
0.0
 10
-2.8344900000000002
 20
-1.1511800000000001
 30
0.0
 10
-2.8344900000000002
 20
-1.1511800000000001
 30
0.0
  0
ENDSEC
  0
SECTION
  2
OBJECTS
  0
DICTIONARY
  5
19
100
AcDbDictionary
280
     0
281
     1
  3
ACAD_GROUP
350
1A
  3
ACAD_MLINESTYLE
350
1B
  3
ACAD_LAYOUT
350
1E
  3
ACAD_PLOTSETTINGS
350
22
  3
ACAD_PLOTSTYLENAME
350
1F
  3
ACAD_WIPEOUT_VARS
350
23
  0
DICTIONARY
  5
1A
102
{ACAD_REACTORS
330
19
102
}
100
AcDbDictionary
280
     0
281
     1
  0
DICTIONARY
  5
1B
102
{ACAD_REACTORS
330
19
102
}
100
AcDbDictionary
280
     0
281
     1
  3
Standard
350
1C
  0
MLINESTYLE
  5
1C
102
{ACAD_REACTORS
330
1B
102
}
100
AcDbMlineStyle
  2
Standard
 70
     0
  3

 62
     0
 51
90.0
 52
90.0
 71
     2
 49
0.5
 62
   256
  6
BYLAYER
 49
-0.5
 62
   256
  6
BYLAYER
  0
ACDBDICTIONARYWDFLT
  5
1F
102
{ACAD_REACTORS
330
19
102
}
100
AcDbDictionary
281
     1
  3
Normal
350
1D
100
AcDbDictionaryWithDefault
340
1D
  0
ACDBPLACEHOLDER
  5
1D
102
{ACAD_REACTORS
330
1F
102
}
  0
LAYOUT
  5
20
102
{ACAD_REACTORS
330
1E
102
}
100
AcDbPlotSettings
  1

  2

  4

  6

 40
0.0
 41
0.0
 42
0.0
 43
0.0
 44
0.0
 45
0.0
 46
0.0
 47
0.0
 48
0.0
 49
0.0
140
0.0
141
0.0
142
1.0
143
1.0
 70
  1024
 72
     0
 73
     0
 74
     0
  7

 75
     0
147
1.0
148
0.0
149
0.0
100
AcDbLayout
  1
Model
 70
     0
 71
     0
 10
0.0
 20
0.0
 11
0.0
 21
0.0
 12
0.0
 22
0.0
 32
0.0
 14
0.0
 24
0.0
 34
0.0
 15
0.0
 25
0.0
 35
0.0
146
0.0
 13
0.0
 23
0.0
 33
0.0
 16
0.0
 26
0.0
 36
0.0
 17
0.0
 27
0.0
 37
0.0
 76
     0
330
A
331
0
345
0
346
0
  0
LAYOUT
  5
21
102
{ACAD_REACTORS
330
1E
102
}
100
AcDbPlotSettings
  1

  2

  4

  6

 40
0.0
 41
0.0
 42
0.0
 43
0.0
 44
0.0
 45
0.0
 46
0.0
 47
0.0
 48
0.0
 49
0.0
140
0.0
141
0.0
142
1.0
143
1.0
 70
     0
 72
     0
 73
     0
 74
     0
  7

 75
     0
147
1.0
148
0.0
149
0.0
100
AcDbLayout
  1
Layout1
 70
     0
 71
     0
 10
0.0
 20
0.0
 11
0.0
 21
0.0
 12
0.0
 22
0.0
 32
0.0
 14
0.0
 24
0.0
 34
0.0
 15
0.0
 25
0.0
 35
0.0
146
0.0
 13
0.0
 23
0.0
 33
0.0
 16
0.0
 26
0.0
 36
0.0
 17
0.0
 27
0.0
 37
0.0
 76
     0
330
B
331
0
345
0
346
0
  0
DICTIONARY
  5
1E
102
{ACAD_REACTORS
330
19
102
}
100
AcDbDictionary
280
     0
281
     1
  3
Layout1
350
21
  3
Model
350
20
  0
DICTIONARY
  5
22
102
{ACAD_REACTORS
330
19
102
}
100
AcDbDictionary
280
     0
281
     1
  0
WIPEOUTVARIABLES
  5
23
100
AcDbWipeoutVariables
 70
     1
  0
ENDSEC
  0
EOF
