  0
SECTION
  2
HEADER
  9
$ACADVER
  1
AC1015
  9
$ACADMAINTVER
 70
     6
  9
$DWGCODEPAGE
  3
DOS850
  9
$INSBASE
 10
0.0
 20
0.0
 30
0.0
  9
$EXTMIN
 10
-5.20431
 20
-6.03052
 30
1.000000E+20
  9
$EXTMAX
 10
5.20968
 20
6.02431
 30
-1.000000E+20
  9
$LIMMIN
 10
0.0
 20
0.0
  9
$LIMMAX
 10
0.0
 20
0.0
  9
$ORTHOMODE
 70
     0
  9
$REGENMODE
 70
     1
  9
$FILLMODE
 70
     1
  9
$QTEXTMODE
 70
     0
  9
$MIRRTEXT
 70
     1
  9
$LTSCALE
 40
1.0
  9
$ATTMODE
 70
     1
  9
$TEXTSIZE
 40
0.2
  9
$TRACEWID
 40
0.05
  9
$TEXTSTYLE
  7
Standard
  9
$CLAYER
  8
0
  9
$CELTYPE
  6
Continuous
  9
$CECOLOR
 62
   256
  9
$CELTSCALE
 40
1.0
  9
$DISPSILH
 70
     0
  9
$DIMSCALE
 40
1.0
  9
$DIMASZ
 40
0.18
  9
$DIMEXO
 40
0.0625
  9
$DIMDLI
 40
0.38
  9
$DIMRND
 40
0.0
  9
$DIMDLE
 40
0.0
  9
$DIMEXE
 40
0.18
  9
$DIMTP
 40
0.0
  9
$DIMTM
 40
0.0
  9
$DIMTXT
 40
0.18
  9
$DIMCEN
 40
0.09
  9
$DIMTSZ
 40
0.0
  9
$DIMTOL
 70
     0
  9
$DIMLIM
 70
     0
  9
$DIMTIH
 70
     1
  9
$DIMTOH
 70
     1
  9
$DIMSE1
 70
     0
  9
$DIMSE2
 70
     0
  9
$DIMTAD
 70
     0
  9
$DIMZIN
 70
     0
  9
$DIMBLK
  1

  9
$DIMASO
 70
     1
  9
$DIMSHO
 70
     1
  9
$DIMPOST
  1

  9
$DIMAPOST
  1

  9
$DIMALT
 70
     0
  9
$DIMALTD
 70
     2
  9
$DIMALTF
 40
25.4
  9
$DIMLFAC
 40
1.0
  9
$DIMTOFL
 70
     0
  9
$DIMTVP
 40
0.0
  9
$DIMTIX
 70
     0
  9
$DIMSOXD
 70
     0
  9
$DIMSAH
 70
     0
  9
$DIMBLK1
  1

  9
$DIMBLK2
  1

  9
$DIMSTYLE
  2
Standard
  9
$DIMCLRD
 70
     0
  9
$DIMCLRE
 70
     0
  9
$DIMCLRT
 70
     0
  9
$DIMTFAC
 40
1.0
  9
$DIMGAP
 40
0.09
  9
$DIMJUST
 70
     0
  9
$DIMSD1
 70
     0
  9
$DIMSD2
 70
     0
  9
$DIMTOLJ
 70
     1
  9
$DIMTZIN
 70
     0
  9
$DIMALTZ
 70
     0
  9
$DIMALTTZ
 70
     0
  9
$DIMUPT
 70
     0
  9
$DIMDEC
 70
     4
  9
$DIMTDEC
 70
     4
  9
$DIMALTU
 70
     2
  9
$DIMALTTD
 70
     2
  9
$DIMTXSTY
  7
Standard
  9
$DIMAUNIT
 70
     0
  9
$DIMADEC
 70
     0
  9
$DIMALTRND
 40
0.0
  9
$DIMAZIN
 70
     0
  9
$DIMDSEP
 70
     0
  9
$DIMATFIT
 70
     3
  9
$DIMFRAC
 70
     0
  9
$DIMLDRBLK
  1

  9
$DIMLUNIT
 70
     2
  9
$DIMLWD
 70
     0
  9
$DIMLWE
 70
     0
  9
$DIMTMOVE
 70
     0
  9
$LUNITS
 70
     2
  9
$LUPREC
 70
     4
  9
$SKETCHINC
 40
0.1
  9
$FILLETRAD
 40
0.0
  9
$AUNITS
 70
     0
  9
$AUPREC
 70
     0
  9
$MENU
  1
acad
  9
$ELEVATION
 40
0.0
  9
$PELEVATION
 40
0.0
  9
$THICKNESS
 40
0.0
  9
$LIMCHECK
 70
     0
  9
$CHAMFERA
 40
0.0
  9
$CHAMFERB
 40
0.0
  9
$CHAMFERC
 40
0.0
  9
$CHAMFERD
 40
0.0
  9
$SKPOLY
 70
     0
  9
$TDCREATE
 40
0.000000000
  9
$TDUCREATE
 40
0.000000000
  9
$TDUPDATE
 40
0.000000000
  9
$TDUUPDATE
 40
0.000000000
  9
$TDINDWG
 40
0.0000000000
  9
$TDUSRTIMER
 40
0.0000000000
  9
$USRTIMER
 70
     1
  9
$ANGBASE
 50
0.0
  9
$ANGDIR
 70
     0
  9
$PDMODE
 70
     0
  9
$PDSIZE
 40
0.0
  9
$PLINEWID
 40
0.0
  9
$SPLFRAME
 70
     0
  9
$SPLINETYPE
 70
     6
  9
$SPLINESEGS
 70
     8
  9
$HANDSEED
  5
3E
  9
$SURFTAB1
 70
     6
  9
$SURFTAB2
 70
     6
  9
$SURFTYPE
 70
     6
  9
$SURFU
 70
     6
  9
$SURFV
 70
     6
  9
$UCSBASE
  2

  9
$UCSNAME
  2

  9
$UCSORG
 10
0.0
 20
0.0
 30
0.0
  9
$UCSXDIR
 10
1.0
 20
0.0
 30
0.0
  9
$UCSYDIR
 10
0.0
 20
1.0
 30
0.0
  9
$UCSORTHOREF
  2

  9
$UCSORTHOVIEW
 70
     0
  9
$UCSORGTOP
 10
0.0
 20
0.0
 30
0.0
  9
$UCSORGBOTTOM
 10
0.0
 20
0.0
 30
0.0
  9
$UCSORGLEFT
 10
0.0
 20
0.0
 30
0.0
  9
$UCSORGRIGHT
 10
0.0
 20
0.0
 30
0.0
  9
$UCSORGFRONT
 10
0.0
 20
0.0
 30
0.0
  9
$UCSORGBACK
 10
0.0
 20
0.0
 30
0.0
  9
$PUCSBASE
  2

  9
$PUCSNAME
  2

  9
$PUCSORG
 10
0.0
 20
0.0
 30
0.0
  9
$PUCSXDIR
 10
1.0
 20
0.0
 30
0.0
  9
$PUCSYDIR
 10
0.0
 20
1.0
 30
0.0
  9
$PUCSORTHOREF
  2

  9
$PUCSORTHOVIEW
 70
     0
  9
$PUCSORGTOP
 10
0.0
 20
0.0
 30
0.0
  9
$PUCSORGBOTTOM
 10
0.0
 20
0.0
 30
0.0
  9
$PUCSORGLEFT
 10
0.0
 20
0.0
 30
0.0
  9
$PUCSORGRIGHT
 10
0.0
 20
0.0
 30
0.0
  9
$PUCSORGFRONT
 10
0.0
 20
0.0
 30
0.0
  9
$PUCSORGBACK
 10
0.0
 20
0.0
 30
0.0
  9
$USERI1
 70
     0
  9
$USERI2
 70
     0
  9
$USERI3
 70
     0
  9
$USERI4
 70
     0
  9
$USERI5
 70
     0
  9
$USERR1
 40
0.0
  9
$USERR2
 40
0.0
  9
$USERR3
 40
0.0
  9
$USERR4
 40
0.0
  9
$USERR5
 40
0.0
  9
$WORLDVIEW
 70
     1
  9
$SHADEDGE
 70
     3
  9
$SHADEDIF
 70
    70
  9
$TILEMODE
 70
     1
  9
$MAXACTVP
 70
    16
  9
$PINSBASE
 10
0.0
 20
0.0
 30
0.0
  9
$PLIMCHECK
 70
     0
  9
$PEXTMIN
 10
1.000000E+20
 20
1.000000E+20
 30
1.000000E+20
  9
$PEXTMAX
 10
-1.000000E+20
 20
-1.000000E+20
 30
-1.000000E+20
  9
$PLIMMIN
 10
0.0
 20
0.0
  9
$PLIMMAX
 10
12.0
 20
9.0
  9
$UNITMODE
 70
     0
  9
$VISRETAIN
 70
     0
  9
$PLINEGEN
 70
     1
  9
$PSLTSCALE
 70
     0
  9
$TREEDEPTH
 70
  3020
  9
$CMLSTYLE
  2
Standard
  9
$CMLJUST
 70
     0
  9
$CMLSCALE
 40
1.0
  9
$PROXYGRAPHICS
 70
     0
  9
$MEASUREMENT
 70
     0
  9
$CELWEIGHT
370
     0
  9
$ENDCAPS
280
     0
  9
$JOINSTYLE
280
     0
  9
$LWDISPLAY
290
     0
  9
$INSUNITS
 70
     5
  9
$HYPERLINKBASE
  1

  9
$XEDIT
290
     1
  9
$CEPSNTYPE
380
     0
  9
$PSTYLEMODE
290
     1
  9
$FINGERPRINTGUID
  2

  9
$VERSIONGUID
  2

  9
$EXTNAMES
290
     1
  9
$PSVPSCALE
 40
0.0
  0
ENDSEC
  0
SECTION
  2
CLASSES
  0
CLASS
  1
LWPOLYLINE
  2
AcDbPolyline
  3
AutoCAD 2000
 90
    32768
280
     0
281
     1
  0
CLASS
  1
IMAGE
  2
AcDbRasterImage
  3
ISM
 90
    32895
280
     0
281
     1
  0
CLASS
  1
OLE2FRAME
  2
AcDbOle2Frame
  3
AutoCAD 2000
 90
    32768
280
     0
281
     1
  0
CLASS
  1
HATCH
  2
AcDbHatch
  3
AutoCAD 2000
 90
    32768
280
     0
281
     1
  0
CLASS
  1
DICTIONARYVAR
  2
AcDbDictionaryVar
  3
AutoCAD 2000
 90
    32768
280
     0
281
     0
  0
CLASS
  1
RASTERVARIABLES
  2
AcDbRasterVariables
  3
ISM
 90
    32768
280
     0
281
     0
  0
CLASS
  1
IMAGEDEF
  2
AcDbRasterImageDef
  3
ISM
 90
    32768
280
     0
281
     0
  0
CLASS
  1
IMAGEDEF_REACTOR
  2
AcDbRasterImageDefReactor
  3
ISM
 90
    32769
280
     0
281
     0
  0
CLASS
  1
IDBUFFER
  2
AcDbIdBuffer
  3
AutoCAD 2000
 90
    32768
280
     0
281
     0
  0
CLASS
  1
SPATIAL_FILTER
  2
AcDbSpatialFilter
  3
AutoCAD 2000
 90
    32768
280
     0
281
     0
  0
CLASS
  1
XRECORD
  2
AcDbXrecord
  3
AutoCAD 2000
 90
    32768
280
     0
281
     0
  0
CLASS
  1
SORTENTSTABLE
  2
AcDbSortentsTable
  3
AutoCAD 2000
 90
    32768
280
     0
281
     0
  0
CLASS
  1
LAYER_INDEX
  2
AcDbLayerIndex
  3
AutoCAD 2000
 90
    32768
280
     0
281
     0
  0
CLASS
  1
SPATIAL_INDEX
  2
AcDbSpatialIndex
  3
AutoCAD 2000
 90
    32768
280
     0
281
     0
  0
CLASS
  1
OBJECT_PTR
  2
CAseDLPNTableRecord
  3
"ASE-LPNTableRecord"
 90
    32769
280
     0
281
     0
  0
CLASS
  1
LAYOUT
  2
AcDbLayout
  3
AutoCAD 2000
 90
        0
280
     0
281
     0
  0
CLASS
  1
PLOTSETTINGS
  2
AcDbPlotSettings
  3
AutoCAD 2000
 90
    32768
280
     0
281
     0
  0
CLASS
  1
ACDBDICTIONARYWDFLT
  2
AcDbDictionaryWithDefault
  3
AutoCAD 2000
 90
        0
280
     0
281
     0
  0
CLASS
  1
ACDBPLACEHOLDER
  2
AcDbPlaceHolder
  3
AutoCAD 2000
 90
        0
280
     0
281
     0
  0
CLASS
  1
VBA_PROJECT
  2
AcDbVbaProject
  3
acadvba
 90
    32768
280
     0
281
     0
  0
CLASS
  1
WIPEOUT
  2
AcDbWipeout
  3
WipeOut|AutoCAD Express Tool|expresstools@autodesk.com
 90
    32895
280
     0
281
     1
  0
CLASS
  1
WIPEOUTVARIABLES
  2
AcDbWipeoutVariables
  3
WipeOut|AutoCAD Express Tool|expresstools@autodesk.com
 90
        0
280
     0
281
     0
  0
CLASS
  1
RTEXT
  2
RText
  3
RText|AutoCAD Express Tool|expresstools@autodesk.com
 90
    32768
280
     0
281
     1
  0
CLASS
  1
ARCALIGNEDTEXT
  2
AcDbArcAlignedText
  3
ATEXT|AutoCAD Express Tool|expresstools@autodesk.com
 90
    32768
280
     0
281
     1
  0
ENDSEC
  0
SECTION
  2
TABLES
  0
TABLE
  2
VPORT
  5
7
100
AcDbSymbolTable
 70
     1
  0
VPORT
  5
15
100
AcDbSymbolTableRecord
100
AcDbViewportTableRecord
  2
*ACTIVE
 70
     0
 10
0.0
 20
0.0
 11
1.0
 21
1.0
 12
6.591288
 22
4.579184
 13
0.0
 23
0.0
 14
1.0
 24
1.0
 15
0.0
 25
0.0
 16
0.0
 26
0.0
 36
1.0
 17
0.0
 27
0.0
 37
0.0
 40
9.158369
 41
0.688564
 42
50.0
 43
0.0
 44
0.0
 50
0.0
 51
0.0
 71
     0
 72
   100
 73
     1
 74
     1
 75
     0
 76
     0
 77
     0
 78
     0
281
     0
 65
     0
110
0.0
120
0.0
130
0.0
111
1.0
121
0.0
131
0.0
112
0.0
122
1.0
132
0.0
345
0
346
0
 79
     0
146
0.0
  0
ENDTAB
  0
TABLE
  2
LTYPE
  5
4
100
AcDbSymbolTable
 70
     3
  0
LTYPE
  5
11
100
AcDbSymbolTableRecord
100
AcDbLinetypeTableRecord
  2
ByBlock
 70
    64
  3

 72
    65
 73
     0
 40
0.0
  0
LTYPE
  5
12
100
AcDbSymbolTableRecord
100
AcDbLinetypeTableRecord
  2
ByLayer
 70
    64
  3

 72
    65
 73
     0
 40
0.0
  0
LTYPE
  5
13
100
AcDbSymbolTableRecord
100
AcDbLinetypeTableRecord
  2
Continuous
 70
    64
  3
Solid line
 72
    65
 73
     0
 40
0.0
  0
ENDTAB
  0
TABLE
  2
LAYER
  5
2
100
AcDbSymbolTable
 70
     2
  0
LAYER
  5
14
100
AcDbSymbolTableRecord
100
AcDbLayerTableRecord
  2
0
 70
     0
 62
     7
  6
Continuous
290
     1
370
    -3
390
1D
  0
LAYER
  5
24
100
AcDbSymbolTableRecord
100
AcDbLayerTableRecord
  2
Ebene 1
 70
     0
 62
     7
  6
Continuous
290
     1
370
    -3
390
1F
  0
ENDTAB
  0
TABLE
  2
STYLE
  5
3
100
AcDbSymbolTable
 70
     1
  0
STYLE
  5
17
100
AcDbSymbolTableRecord
100
AcDbTextStyleTableRecord
  2
Standard
 70
     0
 40
0.0
 41
1.0
 50
0.0
 71
     0
 42
0.0
  3
txt
  4

  0
ENDTAB
  0
TABLE
  2
VIEW
  5
5
100
AcDbSymbolTable
 70
     0
  0
ENDTAB
  0
TABLE
  2
UCS
  5
6
100
AcDbSymbolTable
 70
     0
  0
ENDTAB
  0
TABLE
  2
APPID
  5
8
100
AcDbSymbolTable
 70
     1
  0
APPID
  5
16
100
AcDbSymbolTableRecord
100
AcDbRegAppTableRecord
  2
ACAD
 70
     0
  0
ENDTAB
  0
TABLE
  2
DIMSTYLE
  5
9
100
AcDbSymbolTable
 70
     1
100
AcDbDimStyleTable
 71
     0
  0
DIMSTYLE
105
18
100
AcDbSymbolTableRecord
100
AcDbDimStyleTableRecord
  2
Standard
 70
     0
  3

  4

 40
1.0
 41
0.18
 42
0.0625
 43
0.38
 44
0.18
 45
0.0
 46
0.0
 47
0.0
 48
0.0
 71
     0
 72
     0
 73
     1
 74
     1
 75
     0
 76
     0
 77
     0
 78
     0
 79
     0
140
0.18
141
0.09
142
0.0
143
25.4
144
1.0
145
0.0
146
1.0
147
0.09
148
0.0
170
     0
171
     2
172
     0
173
     0
174
     0
175
     0
176
     0
177
     0
178
     0
179
     0
271
     4
272
     4
273
     2
274
     2
275
     0
276
     0
277
     2
278
    46
279
     0
280
     0
281
     0
282
     0
283
     1
284
     0
285
     0
286
     0
288
     0
340
17
341
0
342
0
343
0
344
0
371
    -2
372
    -2
  0
ENDTAB
  0
TABLE
  2
BLOCK_RECORD
  5
1
100
AcDbSymbolTable
 70
     0
  0
BLOCK_RECORD
  5
A
100
AcDbSymbolTableRecord
100
AcDbBlockTableRecord
  2
*MODEL_SPACE
340
20
  0
BLOCK_RECORD
  5
B
100
AcDbSymbolTableRecord
100
AcDbBlockTableRecord
  2
*PAPER_SPACE
340
21
  0
ENDTAB
  0
ENDSEC
  0
SECTION
  2
BLOCKS
  0
BLOCK
  5
D
100
AcDbEntity
  8
0
100
AcDbBlockBegin
  2
*MODEL_SPACE
 70
     0
 10
0.0
 20
0.0
 30
0.0
  3
*MODEL_SPACE
  1

  0
ENDBLK
  5
E
100
AcDbEntity
  8
0
100
AcDbBlockEnd
  0
BLOCK
  5
F
100
AcDbEntity
 67
     1
  8
0
100
AcDbBlockBegin
  2
*PAPER_SPACE
 70
     0
 10
0.0
 20
0.0
 30
0.0
  3
*PAPER_SPACE
  1

  0
ENDBLK
  5
10
100
AcDbEntity
 67
     1
  8
0
100
AcDbBlockEnd
  0
ENDSEC
  0
SECTION
  2
ENTITIES
  0
SPLINE
  5
25
100
AcDbEntity
  8
Ebene 1
100
AcDbSpline
210
0.0
220
0.0
230
1.0
 70
     1
 71
     3
 72
   136
 73
   132
 74
     0
 42
0.0000000001
 43
0.0000000001
 40
0.0
 40
0.0
 40
0.0
 40
0.0
 40
0.0303030303030303
 40
0.0303030303030303
 40
0.0303030303030303
 40
0.0303030303030303
 40
0.0606060606060606
 40
0.0606060606060606
 40
0.0606060606060606
 40
0.0606060606060606
 40
0.0909090909090909
 40
0.0909090909090909
 40
0.0909090909090909
 40
0.0909090909090909
 40
0.1212121212121212
 40
0.1212121212121212
 40
0.1212121212121212
 40
0.1212121212121212
 40
0.1515151515151515
 40
0.1515151515151515
 40
0.1515151515151515
 40
0.1515151515151515
 40
0.1818181818181818
 40
0.1818181818181818
 40
0.1818181818181818
 40
0.1818181818181818
 40
0.2121212121212121
 40
0.2121212121212121
 40
0.2121212121212121
 40
0.2121212121212121
 40
0.2424242424242424
 40
0.2424242424242424
 40
0.2424242424242424
 40
0.2424242424242424
 40
0.2727272727272727
 40
0.2727272727272727
 40
0.2727272727272727
 40
0.2727272727272727
 40
0.303030303030303
 40
0.303030303030303
 40
0.303030303030303
 40
0.303030303030303
 40
0.3333333333333333
 40
0.3333333333333333
 40
0.3333333333333333
 40
0.3333333333333333
 40
0.3636363636363635
 40
0.3636363636363635
 40
0.3636363636363635
 40
0.3636363636363635
 40
0.3939393939393938
 40
0.3939393939393938
 40
0.3939393939393938
 40
0.3939393939393938
 40
0.4242424242424241
 40
0.4242424242424241
 40
0.4242424242424241
 40
0.4242424242424241
 40
0.4545454545454544
 40
0.4545454545454544
 40
0.4545454545454544
 40
0.4545454545454544
 40
0.4848484848484846
 40
0.4848484848484846
 40
0.4848484848484846
 40
0.4848484848484846
 40
0.5151515151515149
 40
0.5151515151515149
 40
0.5151515151515149
 40
0.5151515151515149
 40
0.5454545454545452
 40
0.5454545454545452
 40
0.5454545454545452
 40
0.5454545454545452
 40
0.5757575757575755
 40
0.5757575757575755
 40
0.5757575757575755
 40
0.5757575757575755
 40
0.6060606060606057
 40
0.6060606060606057
 40
0.6060606060606057
 40
0.6060606060606057
 40
0.636363636363636
 40
0.636363636363636
 40
0.636363636363636
 40
0.636363636363636
 40
0.6666666666666663
 40
0.6666666666666663
 40
0.6666666666666663
 40
0.6666666666666663
 40
0.6969696969696966
 40
0.6969696969696966
 40
0.6969696969696966
 40
0.6969696969696966
 40
0.7272727272727269
 40
0.7272727272727269
 40
0.7272727272727269
 40
0.7272727272727269
 40
0.7575757575757571
 40
0.7575757575757571
 40
0.7575757575757571
 40
0.7575757575757571
 40
0.7878787878787874
 40
0.7878787878787874
 40
0.7878787878787874
 40
0.7878787878787874
 40
0.8181818181818177
 40
0.8181818181818177
 40
0.8181818181818177
 40
0.8181818181818177
 40
0.848484848484848
 40
0.848484848484848
 40
0.848484848484848
 40
0.848484848484848
 40
0.8787878787878782
 40
0.8787878787878782
 40
0.8787878787878782
 40
0.8787878787878782
 40
0.9090909090909085
 40
0.9090909090909085
 40
0.9090909090909085
 40
0.9090909090909085
 40
0.9393939393939388
 40
0.9393939393939388
 40
0.9393939393939388
 40
0.9393939393939388
 40
0.9696969696969691
 40
0.9696969696969691
 40
0.9696969696969691
 40
0.9696969696969691
 40
1.0
 40
1.0
 40
1.0
 40
1.0
 10
-0.3021100000000001
 20
6.0243100000000007
 30
0.0
 10
0.9196200000000001
 20
6.0243100000000007
 30
0.0
 10
2.08548
 20
5.7855500000000006
 30
0.0
 10
2.9770200000000004
 20
4.9168700000000003
 30
0.0
 10
2.9770200000000004
 20
4.9168700000000003
 30
0.0
 10
3.2335600000000002
 20
4.9956100000000001
 30
0.0
 10
3.4316800000000001
 20
5.2343700000000002
 30
0.0
 10
3.7085400000000002
 20
5.2521500000000003
 30
0.0
 10
3.7085400000000002
 20
5.2521500000000003
 30
0.0
 10
3.8660200000000002
 20
5.1734100000000005
 30
0.0
 10
4.0031800000000004
 20
5.0565700000000007
 30
0.0
 10
4.1022400000000001
 20
4.9371900000000002
 30
0.0
 10
4.1022400000000001
 20
4.9371900000000002
 30
0.0
 10
4.1022400000000001
 20
4.9371900000000002
 30
0.0
 10
3.5282000000000004
 20
4.34537
 30
0.0
 10
3.5282000000000004
 20
4.34537
 30
0.0
 10
3.5282000000000004
 20
4.34537
 30
0.0
 10
4.12256
 20
3.0398100000000001
 30
0.0
 10
3.8457000000000003
 20
1.4396100000000001
 30
0.0
 10
4.5569000000000006
 20
0.21279
 30
0.0
 10
4.5569000000000006
 20
0.21279
 30
0.0
 10
4.7753400000000008
 20
0.13405
 30
0.0
 10
5.0115600000000002
 20
0.27121
 30
0.0
 10
5.2096800000000005
 20
0.23311
 30
0.0
 10
5.2096800000000005
 20
0.23311
 30
0.0
 10
4.7143800000000002
 20
-0.219
 30
0.0
 10
4.0641400000000001
 20
-0.8311400000000001
 30
0.0
 10
3.3504000000000005
 20
-0.69398
 30
0.0
 10
3.3504000000000005
 20
-0.69398
 30
0.0
 10
3.2742000000000004
 20
-1.12832
 30
0.0
 10
3.7263200000000003
 20
-1.6033000000000002
 30
0.0
 10
3.3326200000000004
 20
-1.9589000000000001
 30
0.0
 10
3.3326200000000004
 20
-1.9589000000000001
 30
0.0
 10
2.6595200000000001
 20
-2.0376400000000001
 30
0.0
 10
2.1464400000000001
 20
-2.4923000000000002
 30
0.0
 10
1.4555600000000002
 20
-2.5126200000000001
 30
0.0
 10
1.4555600000000002
 20
-2.5126200000000001
 30
0.0
 10
1.4276200000000001
 20
-2.9799800000000003
 30
0.0
 10
1.7603600000000001
 20
-3.4752800000000001
 30
0.0
 10
1.7502000000000002
 20
-3.9680400000000002
 30
0.0
 10
1.7502000000000002
 20
-3.9680400000000002
 30
0.0
 10
1.7476600000000002
 20
-4.0645600000000002
 30
0.0
 10
1.6079600000000001
 20
-3.9756600000000004
 30
0.0
 10
1.5597000000000001
 20
-4.0798000000000005
 30
0.0
 10
1.5597000000000001
 20
-4.0798000000000005
 30
0.0
 10
1.4835
 20
-4.2474400000000001
 30
0.0
 10
1.4936600000000002
 20
-4.6081200000000004
 30
0.0
 10
1.3539600000000001
 20
-4.7249600000000003
 30
0.0
 10
1.3539600000000001
 20
-4.7249600000000003
 30
0.0
 10
1.3336400000000002
 20
-5.0424600000000002
 30
0.0
 10
1.3539600000000001
 20
-5.4183800000000009
 30
0.0
 10
1.1380600000000001
 20
-5.6342800000000004
 30
0.0
 10
1.1380600000000001
 20
-5.6342800000000004
 30
0.0
 10
1.1380600000000001
 20
-5.6342800000000004
 30
0.0
 10
0.9602600000000001
 20
-5.1618400000000007
 30
0.0
 10
0.9602600000000001
 20
-5.1618400000000007
 30
0.0
 10
0.9602600000000001
 20
-5.1618400000000007
 30
0.0
 10
0.8408800000000001
 20
-5.2786800000000005
 30
0.0
 10
0.78246
 20
-5.8324000000000007
 30
0.0
 10
0.6046600000000001
 20
-5.3574200000000003
 30
0.0
 10
0.6046600000000001
 20
-5.3574200000000003
 30
0.0
 10
0.5462400000000001
 20
-5.8933600000000004
 30
0.0
 10
0.30494
 20
-6.0102000000000002
 30
0.0
 10
0.11698
 20
-5.4564800000000009
 30
0.0
 10
0.11698
 20
-5.4564800000000009
 30
0.0
 10
0.0738
 20
-5.6546000000000003
 30
0.0
 10
0.07126
 20
-5.8730400000000005
 30
0.0
 10
-0.06589
 20
-6.0305200000000001
 30
0.0
 10
-0.06589
 20
-6.0305200000000001
 30
0.0
 10
-0.25639
 20
-5.9695600000000004
 30
0.0
 10
-0.18273
 20
-5.6952400000000001
 30
0.0
 10
-0.28687
 20
-5.5352200000000007
 30
0.0
 10
-0.28687
 20
-5.5352200000000007
 30
0.0
 10
-0.4900700000000001
 20
-6.2083200000000005
 30
0.0
 10
-0.71613
 20
-5.9111400000000005
 30
0.0
 10
-0.7999500000000001
 20
-5.3574200000000003
 30
0.0
 10
-0.7999500000000001
 20
-5.3574200000000003
 30
0.0
 10
-0.9675900000000001
 20
-5.4564800000000009
 30
0.0
 10
-0.9777500000000001
 20
-5.7536600000000009
 30
0.0
 10
-1.1326900000000002
 20
-5.8527200000000006
 30
0.0
 10
-1.1326900000000002
 20
-5.8527200000000006
 30
0.0
 10
-1.2368300000000001
 20
-5.5961800000000004
 30
0.0
 10
-1.3028700000000002
 20
-5.2990000000000004
 30
0.0
 10
-1.25461
 20
-5.0018200000000004
 30
0.0
 10
-1.25461
 20
-5.0018200000000004
 30
0.0
 10
-1.3485900000000002
 20
-4.9434000000000005
 30
0.0
 10
-1.3917700000000002
 20
-5.1618400000000007
 30
0.0
 10
-1.4806700000000002
 20
-5.1415200000000008
 30
0.0
 10
-1.4806700000000002
 20
-5.1415200000000008
 30
0.0
 10
-1.4806700000000002
 20
-5.1415200000000008
 30
0.0
 10
-1.5086100000000002
 20
-4.6665400000000004
 30
0.0
 10
-1.5086100000000002
 20
-4.6665400000000004
 30
0.0
 10
-1.5086100000000002
 20
-4.6665400000000004
 30
0.0
 10
-1.54925
 20
-4.5293800000000006
 30
0.0
 10
-1.6076700000000002
 20
-4.7656000000000001
 30
0.0
 10
-1.6787900000000002
 20
-4.7249600000000003
 30
0.0
 10
-1.6787900000000002
 20
-4.7249600000000003
 30
0.0
 10
-1.8159500000000002
 20
-4.0544000000000002
 30
0.0
 10
-1.4501900000000001
 20
-3.3609800000000001
 30
0.0
 10
-1.7295900000000002
 20
-2.7310600000000003
 30
0.0
 10
-1.7295900000000002
 20
-2.7310600000000003
 30
0.0
 10
-2.5068300000000003
 20
-3.2847800000000005
 30
0.0
 10
-3.2027900000000002
 20
-2.4313400000000001
 30
0.0
 10
-3.8352500000000003
 20
-2.05796
 30
0.0
 10
-3.8352500000000003
 20
-2.05796
 30
0.0
 10
-3.8631900000000003
 20
-1.6439400000000002
 30
0.0
 10
-3.5558500000000004
 20
-1.3264400000000001
 30
0.0
 10
-3.5888700000000004
 20
-0.9124200000000001
 30
0.0
 10
-3.5888700000000004
 20
-0.9124200000000001
 30
0.0
 10
-4.0562300000000002
 20
-1.20706
 30
0.0
 10
-4.91221
 20
-0.59492
 30
0.0
 10
-5.2043100000000004
 20
-0.08184
 30
0.0
 10
-5.2043100000000004
 20
-0.08184
 30
0.0
 10
-3.5228300000000004
 20
-0.1809
 30
0.0
 10
-4.2975300000000001
 20
2.3082900000000004
 30
0.0
 10
-3.8022300000000002
 20
3.3954100000000005
 30
0.0
 10
-3.8022300000000002
 20
3.3954100000000005
 30
0.0
 10
-3.9343100000000004
 20
3.6519500000000003
 30
0.0
 10
-4.3508700000000005
 20
3.7103700000000002
 30
0.0
 10
-4.39405
 20
3.9897700000000005
 30
0.0
 10
-4.39405
 20
3.9897700000000005
 30
0.0
 10
-4.31785
 20
4.1269300000000007
 30
0.0
 10
-4.2441900000000006
 20
4.2640900000000004
 30
0.0
 10
-4.1121100000000004
 20
4.38347
 30
0.0
 10
-4.1121100000000004
 20
4.38347
 30
0.0
 10
-3.8962100000000004
 20
4.5028500000000005
 30
0.0
 10
-3.6904700000000004
 20
4.2844100000000003
 30
0.0
 10
-3.4694900000000004
 20
4.2844100000000003
 30
0.0
 10
-3.4694900000000004
 20
4.2844100000000003
 30
0.0
 10
-2.73543
 20
5.35121
 30
0.0
 10
-1.5365500000000001
 20
5.9252500000000001
 30
0.0
 10
-0.3021100000000001
 20
6.0243100000000007
 30
0.0
  0
SPLINE
  5
26
100
AcDbEntity
  8
Ebene 1
 62
     7
100
AcDbSpline
210
0.0
220
0.0
230
1.0
 70
     1
 71
     3
 72
    84
 73
    80
 74
     0
 42
0.0000000001
 43
0.0000000001
 40
0.0
 40
0.0
 40
0.0
 40
0.0
 40
0.05
 40
0.05
 40
0.05
 40
0.05
 40
0.1
 40
0.1
 40
0.1
 40
0.1
 40
0.15
 40
0.15
 40
0.15
 40
0.15
 40
0.2
 40
0.2
 40
0.2
 40
0.2
 40
0.25
 40
0.25
 40
0.25
 40
0.25
 40
0.3
 40
0.3
 40
0.3
 40
0.3
 40
0.35
 40
0.35
 40
0.35
 40
0.35
 40
0.4
 40
0.4
 40
0.4
 40
0.4
 40
0.45
 40
0.45
 40
0.45
 40
0.45
 40
0.4999999999999999
 40
0.4999999999999999
 40
0.4999999999999999
 40
0.4999999999999999
 40
0.5499999999999999
 40
0.5499999999999999
 40
0.5499999999999999
 40
0.5499999999999999
 40
0.6
 40
0.6
 40
0.6
 40
0.6
 40
0.65
 40
0.65
 40
0.65
 40
0.65
 40
0.7000000000000001
 40
0.7000000000000001
 40
0.7000000000000001
 40
0.7000000000000001
 40
0.7500000000000001
 40
0.7500000000000001
 40
0.7500000000000001
 40
0.7500000000000001
 40
0.8000000000000002
 40
0.8000000000000002
 40
0.8000000000000002
 40
0.8000000000000002
 40
0.8500000000000002
 40
0.8500000000000002
 40
0.8500000000000002
 40
0.8500000000000002
 40
0.9000000000000002
 40
0.9000000000000002
 40
0.9000000000000002
 40
0.9000000000000002
 40
0.9500000000000003
 40
0.9500000000000003
 40
0.9500000000000003
 40
0.9500000000000003
 40
1.0
 40
1.0
 40
1.0
 40
1.0
 10
-0.40117
 20
5.9633500000000002
 30
0.0
 10
0.9018400000000001
 20
6.0039900000000008
 30
0.0
 10
2.3648800000000003
 20
5.6687100000000008
 30
0.0
 10
2.9770200000000004
 20
4.4241100000000007
 30
0.0
 10
2.9770200000000004
 20
4.4241100000000007
 30
0.0
 10
2.9770200000000004
 20
4.4241100000000007
 30
0.0
 10
3.5104200000000003
 20
3.9694500000000001
 30
0.0
 10
3.5104200000000003
 20
3.9694500000000001
 30
0.0
 10
3.5104200000000003
 20
3.9694500000000001
 30
0.0
 10
3.9854000000000003
 20
2.9026500000000004
 30
0.0
 10
4.0235000000000003
 20
1.6936100000000001
 30
0.0
 10
4.1022400000000001
 20
0.50997
 30
0.0
 10
4.1022400000000001
 20
0.50997
 30
0.0
 10
4.3206800000000003
 20
0.25343
 30
0.0
 10
4.5772200000000005
 20
0.05531
 30
0.0
 10
4.9328200000000004
 20
0.11373
 30
0.0
 10
4.9328200000000004
 20
0.11373
 30
0.0
 10
4.5365800000000007
 20
-0.16058
 30
0.0
 10
4.1022400000000001
 20
-0.47554
 30
0.0
 10
3.5891600000000001
 20
-0.5161800000000001
 30
0.0
 10
3.5891600000000001
 20
-0.5161800000000001
 30
0.0
 10
3.0354400000000004
 20
0.01467
 30
0.0
 10
2.8576400000000004
 20
0.9824100000000001
 30
0.0
 10
2.7001600000000003
 20
1.5970900000000001
 30
0.0
 10
2.7001600000000003
 20
1.5970900000000001
 30
0.0
 10
2.1058000000000003
 20
1.4396100000000001
 30
0.0
 10
1.1380600000000001
 20
0.25343
 30
0.0
 10
0.9602600000000001
 20
1.35833
 30
0.0
 10
0.9602600000000001
 20
1.35833
 30
0.0
 10
0.8535800000000001
 20
1.4726300000000001
 30
0.0
 10
0.9602600000000001
 20
1.1729100000000001
 30
0.0
 10
0.9602600000000001
 20
1.0865500000000001
 30
0.0
 10
0.9602600000000001
 20
1.0865500000000001
 30
0.0
 10
0.9602600000000001
 20
0.25851
 30
0.0
 10
-0.04557
 20
0.07309
 30
0.0
 10
-0.7516900000000001
 20
0.23311
 30
0.0
 10
-0.7516900000000001
 20
0.23311
 30
0.0
 10
-1.1352300000000002
 20
1.0433700000000001
 30
0.0
 10
-1.00061
 20
1.9933300000000003
 30
0.0
 10
-1.1326900000000002
 20
2.8620100000000002
 30
0.0
 10
-1.1326900000000002
 20
2.8620100000000002
 30
0.0
 10
-1.2190500000000002
 20
2.1101700000000001
 30
0.0
 10
-1.04379
 20
1.06369
 30
0.0
 10
-1.1961900000000001
 20
0.27121
 30
0.0
 10
-1.1961900000000001
 20
0.27121
 30
0.0
 10
-1.8616700000000002
 20
0.07563
 30
0.0
 10
-3.0605500000000001
 20
0.5887100000000001
 30
0.0
 10
-2.5398500000000004
 20
1.39897
 30
0.0
 10
-2.5398500000000004
 20
1.39897
 30
0.0
 10
-2.7811500000000002
 20
1.35833
 30
0.0
 10
-2.7201900000000001
 20
0.9646300000000001
 30
0.0
 10
-2.9437100000000003
 20
0.8046100000000001
 30
0.0
 10
-2.9437100000000003
 20
0.8046100000000001
 30
0.0
 10
-3.0097500000000004
 20
1.1805300000000001
 30
0.0
 10
-2.9640300000000002
 20
1.3786500000000002
 30
0.0
 10
-3.1316700000000002
 20
0.9062100000000001
 30
0.0
 10
-3.1316700000000002
 20
0.9062100000000001
 30
0.0
 10
-3.3526500000000001
 20
0.3905900000000001
 30
0.0
 10
-3.4313900000000004
 20
-0.19868
 30
0.0
 10
-3.7463500000000005
 20
-0.69398
 30
0.0
 10
-3.7463500000000005
 20
-0.69398
 30
0.0
 10
-4.1705300000000003
 20
-0.8311400000000001
 30
0.0
 10
-4.5845500000000001
 20
-0.5161800000000001
 30
0.0
 10
-4.9223700000000008
 20
-0.25964
 30
0.0
 10
-4.9223700000000008
 20
-0.25964
 30
0.0
 10
-4.7496500000000008
 20
-0.16058
 30
0.0
 10
-4.4499300000000002
 20
-0.29774
 30
0.0
 10
-4.3203900000000006
 20
-0.08184
 30
0.0
 10
-4.3203900000000006
 20
-0.08184
 30
0.0
 10
-3.9647900000000003
 20
0.4109100000000001
 30
0.0
 10
-3.9546300000000003
 20
1.02305
 30
0.0
 10
-3.7412700000000001
 20
1.5564500000000001
 30
0.0
 10
-3.7412700000000001
 20
1.5564500000000001
 30
0.0
 10
-3.8581100000000004
 20
1.7139300000000002
 30
0.0
 10
-3.8225500000000001
 20
1.3380100000000001
 30
0.0
 10
-3.9139900000000005
 20
1.39897
 30
0.0
 10
-3.9139900000000005
 20
1.39897
 30
0.0
 10
-4.2137100000000007
 20
3.6138500000000002
 30
0.0
 10
-2.6592300000000004
 20
5.8668300000000002
 30
0.0
 10
-0.40117
 20
5.9633500000000002
 30
0.0
  0
SPLINE
  5
27
100
AcDbEntity
  8
Ebene 1
100
AcDbSpline
210
0.0
220
0.0
230
1.0
 70
     1
 71
     3
 72
    16
 73
    12
 74
     0
 42
0.0000000001
 43
0.0000000001
 40
0.0
 40
0.0
 40
0.0
 40
0.0
 40
0.3333333333333333
 40
0.3333333333333333
 40
0.3333333333333333
 40
0.3333333333333333
 40
0.6666666666666666
 40
0.6666666666666666
 40
0.6666666666666666
 40
0.6666666666666666
 40
1.0
 40
1.0
 40
1.0
 40
1.0
 10
0.66308
 20
5.5290100000000004
 30
0.0
 10
1.1380600000000001
 20
5.6077500000000002
 30
0.0
 10
1.8492600000000001
 20
5.2521500000000003
 30
0.0
 10
1.7502000000000002
 20
4.7009700000000008
 30
0.0
 10
1.7502000000000002
 20
4.7009700000000008
 30
0.0
 10
1.27776
 20
4.38347
 30
0.0
 10
0.48528
 20
4.7593900000000007
 30
0.0
 10
0.5056000000000001
 20
5.35121
 30
0.0
 10
0.5056000000000001
 20
5.35121
 30
0.0
 10
0.5462400000000001
 20
5.4299500000000007
 30
0.0
 10
0.5843400000000001
 20
5.5112300000000003
 30
0.0
 10
0.66308
 20
5.5290100000000004
 30
0.0
  0
SPLINE
  5
28
100
AcDbEntity
  8
Ebene 1
 62
     7
100
AcDbSpline
210
0.0
220
0.0
230
1.0
 70
     1
 71
     3
 72
    24
 73
    20
 74
     0
 42
0.0000000001
 43
0.0000000001
 40
0.0
 40
0.0
 40
0.0
 40
0.0
 40
0.2
 40
0.2
 40
0.2
 40
0.2
 40
0.4
 40
0.4
 40
0.4
 40
0.4
 40
0.6000000000000001
 40
0.6000000000000001
 40
0.6000000000000001
 40
0.6000000000000001
 40
0.8
 40
0.8
 40
0.8
 40
0.8
 40
1.0
 40
1.0
 40
1.0
 40
1.0
 10
0.8815200000000001
 20
5.4299500000000007
 30
0.0
 10
1.0390000000000001
 20
5.4121700000000006
 30
0.0
 10
1.19648
 20
5.3715300000000008
 30
0.0
 10
1.31586
 20
5.2724700000000002
 30
0.0
 10
1.31586
 20
5.2724700000000002
 30
0.0
 10
1.3946000000000001
 20
5.1556300000000004
 30
0.0
 10
1.6511400000000001
 20
5.0362500000000008
 30
0.0
 10
1.5317600000000002
 20
4.8965500000000004
 30
0.0
 10
1.5317600000000002
 20
4.8965500000000004
 30
0.0
 10
1.27776
 20
5.0743500000000008
 30
0.0
 10
0.9780400000000001
 20
5.2140500000000003
 30
0.0
 10
0.66308
 20
5.2140500000000003
 30
0.0
 10
0.66308
 20
5.2140500000000003
 30
0.0
 10
0.66308
 20
5.2140500000000003
 30
0.0
 10
0.6224400000000001
 20
5.31311
 30
0.0
 10
0.6224400000000001
 20
5.31311
 30
0.0
 10
0.6224400000000001
 20
5.31311
 30
0.0
 10
0.6224400000000001
 20
5.31311
 30
0.0
 10
0.8815200000000001
 20
5.4299500000000007
 30
0.0
 10
0.8815200000000001
 20
5.4299500000000007
 30
0.0
  0
SPLINE
  5
29
100
AcDbEntity
  8
Ebene 1
100
AcDbSpline
210
0.0
220
0.0
230
1.0
 70
     1
 71
     3
 72
    20
 73
    16
 74
     0
 42
0.0000000001
 43
0.0000000001
 40
0.0
 40
0.0
 40
0.0
 40
0.0
 40
0.25
 40
0.25
 40
0.25
 40
0.25
 40
0.5
 40
0.5
 40
0.5
 40
0.5
 40
0.75
 40
0.75
 40
0.75
 40
0.75
 40
1.0
 40
1.0
 40
1.0
 40
1.0
 10
-2.14107
 20
5.2521500000000003
 30
0.0
 10
-2.0851900000000003
 20
5.2724700000000002
 30
0.0
 10
-2.0394700000000001
 20
5.2343700000000002
 30
0.0
 10
-2.06487
 20
5.1734100000000005
 30
0.0
 10
-2.06487
 20
5.1734100000000005
 30
0.0
 10
-3.0046700000000004
 20
4.2259900000000004
 30
0.0
 10
-3.4237700000000002
 20
2.8823300000000001
 30
0.0
 10
-3.2866100000000005
 20
1.5767700000000002
 30
0.0
 10
-3.2866100000000005
 20
1.5767700000000002
 30
0.0
 10
-3.4313900000000004
 20
1.7139300000000002
 30
0.0
 10
-3.5228300000000004
 20
1.9933300000000003
 30
0.0
 10
-3.7412700000000001
 20
2.0695300000000003
 30
0.0
 10
-3.7412700000000001
 20
2.0695300000000003
 30
0.0
 10
-3.5888700000000004
 20
3.2582500000000003
 30
0.0
 10
-3.0961100000000004
 20
4.4418900000000008
 30
0.0
 10
-2.14107
 20
5.2521500000000003
 30
0.0
  0
SPLINE
  5
2A
100
AcDbEntity
  8
Ebene 1
 62
     7
100
AcDbSpline
210
0.0
220
0.0
230
1.0
 70
     1
 71
     3
 72
    12
 73
     8
 74
     0
 42
0.0000000001
 43
0.0000000001
 40
0.0
 40
0.0
 40
0.0
 40
0.0
 40
0.5
 40
0.5
 40
0.5
 40
0.5
 40
1.0
 40
1.0
 40
1.0
 40
1.0
 10
3.6679000000000004
 20
5.1734100000000005
 30
0.0
 10
3.7466400000000002
 20
5.1556300000000004
 30
0.0
 10
3.8457000000000003
 20
5.0743500000000008
 30
0.0
 10
3.8457000000000003
 20
4.9956100000000001
 30
0.0
 10
3.8457000000000003
 20
4.9956100000000001
 30
0.0
 10
3.7466400000000002
 20
4.9956100000000001
 30
0.0
 10
3.7085400000000002
 20
5.1149900000000006
 30
0.0
 10
3.6679000000000004
 20
5.1734100000000005
 30
0.0
  0
SPLINE
  5
2B
100
AcDbEntity
  8
Ebene 1
 62
     7
100
AcDbSpline
210
0.0
220
0.0
230
1.0
 70
     1
 71
     3
 72
    12
 73
     8
 74
     0
 42
0.0000000001
 43
0.0000000001
 40
0.0
 40
0.0
 40
0.0
 40
0.0
 40
0.5
 40
0.5
 40
0.5
 40
0.5
 40
1.0
 40
1.0
 40
1.0
 40
1.0
 10
3.5485200000000003
 20
5.1353100000000005
 30
0.0
 10
3.5485200000000003
 20
5.1353100000000005
 30
0.0
 10
3.8660200000000002
 20
4.8178100000000006
 30
0.0
 10
3.8660200000000002
 20
4.8178100000000006
 30
0.0
 10
3.8660200000000002
 20
4.8178100000000006
 30
0.0
 10
3.7263200000000003
 20
4.7797100000000006
 30
0.0
 10
3.5282000000000004
 20
4.9956100000000001
 30
0.0
 10
3.5485200000000003
 20
5.1353100000000005
 30
0.0
  0
SPLINE
  5
2C
100
AcDbEntity
  8
Ebene 1
 62
     7
100
AcDbSpline
210
0.0
220
0.0
230
1.0
 70
     1
 71
     3
 72
    16
 73
    12
 74
     0
 42
0.0000000001
 43
0.0000000001
 40
0.0
 40
0.0
 40
0.0
 40
0.0
 40
0.3333333333333333
 40
0.3333333333333333
 40
0.3333333333333333
 40
0.3333333333333333
 40
0.6666666666666666
 40
0.6666666666666666
 40
0.6666666666666666
 40
0.6666666666666666
 40
1.0
 40
1.0
 40
1.0
 40
1.0
 10
3.4316800000000001
 20
4.9956100000000001
 30
0.0
 10
3.5282000000000004
 20
5.01593
 30
0.0
 10
3.5485200000000003
 20
4.9168700000000003
 30
0.0
 10
3.5688400000000002
 20
4.8584500000000004
 30
0.0
 10
3.5688400000000002
 20
4.8584500000000004
 30
0.0
 10
3.4316800000000001
 20
4.7009700000000008
 30
0.0
 10
3.3123000000000005
 20
4.4825300000000006
 30
0.0
 10
3.0964
 20
4.4622100000000007
 30
0.0
 10
3.0964
 20
4.4622100000000007
 30
0.0
 10
2.7789000000000001
 20
4.7009700000000008
 30
0.0
 10
3.2538800000000001
 20
4.8965500000000004
 30
0.0
 10
3.4316800000000001
 20
4.9956100000000001
 30
0.0
  0
SPLINE
  5
2D
100
AcDbEntity
  8
Ebene 1
 62
     7
100
AcDbSpline
210
0.0
220
0.0
230
1.0
 70
     1
 71
     3
 72
    20
 73
    16
 74
     0
 42
0.0000000001
 43
0.0000000001
 40
0.0
 40
0.0
 40
0.0
 40
0.0
 40
0.25
 40
0.25
 40
0.25
 40
0.25
 40
0.5
 40
0.5
 40
0.5
 40
0.5
 40
0.75
 40
0.75
 40
0.75
 40
0.75
 40
1.0
 40
1.0
 40
1.0
 40
1.0
 10
3.7085400000000002
 20
4.7009700000000008
 30
0.0
 10
3.7085400000000002
 20
4.7009700000000008
 30
0.0
 10
3.7872800000000004
 20
4.7009700000000008
 30
0.0
 10
3.7872800000000004
 20
4.7009700000000008
 30
0.0
 10
3.7872800000000004
 20
4.7009700000000008
 30
0.0
 10
3.6298000000000004
 20
4.5815900000000003
 30
0.0
 10
3.4901000000000004
 20
4.2844100000000003
 30
0.0
 10
3.2742000000000004
 20
4.3631500000000001
 30
0.0
 10
3.2742000000000004
 20
4.3631500000000001
 30
0.0
 10
3.2742000000000004
 20
4.3631500000000001
 30
0.0
 10
3.2742000000000004
 20
4.4241100000000007
 30
0.0
 10
3.2742000000000004
 20
4.4241100000000007
 30
0.0
 10
3.2742000000000004
 20
4.4241100000000007
 30
0.0
 10
3.2742000000000004
 20
4.4241100000000007
 30
0.0
 10
3.7085400000000002
 20
4.7009700000000008
 30
0.0
 10
3.7085400000000002
 20
4.7009700000000008
 30
0.0
  0
SPLINE
  5
2E
100
AcDbEntity
  8
Ebene 1
 62
     7
100
AcDbSpline
210
0.0
220
0.0
230
1.0
 70
     1
 71
     3
 72
    20
 73
    16
 74
     0
 42
0.0000000001
 43
0.0000000001
 40
0.0
 40
0.0
 40
0.0
 40
0.0
 40
0.25
 40
0.25
 40
0.25
 40
0.25
 40
0.5
 40
0.5
 40
0.5
 40
0.5
 40
0.75
 40
0.75
 40
0.75
 40
0.75
 40
1.0
 40
1.0
 40
1.0
 40
1.0
 10
-3.9190700000000005
 20
4.34537
 30
0.0
 10
-3.9190700000000005
 20
4.34537
 30
0.0
 10
-3.5482300000000002
 20
4.2259900000000004
 30
0.0
 10
-3.5482300000000002
 20
4.2259900000000004
 30
0.0
 10
-3.5482300000000002
 20
4.2259900000000004
 30
0.0
 10
-3.5533100000000002
 20
4.08629
 30
0.0
 10
-3.6803100000000004
 20
3.9897700000000005
 30
0.0
 10
-3.7615900000000004
 20
3.8881700000000001
 30
0.0
 10
-3.7615900000000004
 20
3.8881700000000001
 30
0.0
 10
-3.7615900000000004
 20
3.8881700000000001
 30
0.0
 10
-4.1121100000000004
 20
4.04819
 30
0.0
 10
-4.1121100000000004
 20
4.04819
 30
0.0
 10
-4.1121100000000004
 20
4.04819
 30
0.0
 10
-4.1121100000000004
 20
4.04819
 30
0.0
 10
-3.9190700000000005
 20
4.34537
 30
0.0
 10
-3.9190700000000005
 20
4.34537
 30
0.0
  0
SPLINE
  5
2F
100
AcDbEntity
  8
Ebene 1
 62
     7
100
AcDbSpline
210
0.0
220
0.0
230
1.0
 70
     1
 71
     3
 72
    20
 73
    16
 74
     0
 42
0.0000000001
 43
0.0000000001
 40
0.0
 40
0.0
 40
0.0
 40
0.0
 40
0.25
 40
0.25
 40
0.25
 40
0.25
 40
0.5
 40
0.5
 40
0.5
 40
0.5
 40
0.75
 40
0.75
 40
0.75
 40
0.75
 40
1.0
 40
1.0
 40
1.0
 40
1.0
 10
-4.2365700000000004
 20
3.9491300000000003
 30
0.0
 10
-4.1552899999999999
 20
3.9161100000000002
 30
0.0
 10
-3.9317700000000002
 20
3.8424500000000004
 30
0.0
 10
-3.8581100000000004
 20
3.7764100000000003
 30
0.0
 10
-3.8581100000000004
 20
3.7764100000000003
 30
0.0
 10
-3.8022300000000002
 20
3.7256100000000001
 30
0.0
 10
-3.7844500000000001
 20
3.6544900000000005
 30
0.0
 10
-3.8454100000000002
 20
3.6341700000000001
 30
0.0
 10
-3.8454100000000002
 20
3.6341700000000001
 30
0.0
 10
-3.8454100000000002
 20
3.6341700000000001
 30
0.0
 10
-4.2492700000000001
 20
3.8881700000000001
 30
0.0
 10
-4.2492700000000001
 20
3.8881700000000001
 30
0.0
 10
-4.2492700000000001
 20
3.8881700000000001
 30
0.0
 10
-4.2492700000000001
 20
3.8881700000000001
 30
0.0
 10
-4.2365700000000004
 20
3.9491300000000003
 30
0.0
 10
-4.2365700000000004
 20
3.9491300000000003
 30
0.0
  0
SPLINE
  5
30
100
AcDbEntity
  8
Ebene 1
100
AcDbSpline
210
0.0
220
0.0
230
1.0
 70
     1
 71
     3
 72
    28
 73
    24
 74
     0
 42
0.0000000001
 43
0.0000000001
 40
0.0
 40
0.0
 40
0.0
 40
0.0
 40
0.1666666666666667
 40
0.1666666666666667
 40
0.1666666666666667
 40
0.1666666666666667
 40
0.3333333333333333
 40
0.3333333333333333
 40
0.3333333333333333
 40
0.3333333333333333
 40
0.5
 40
0.5
 40
0.5
 40
0.5
 40
0.6666666666666666
 40
0.6666666666666666
 40
0.6666666666666666
 40
0.6666666666666666
 40
0.8333333333333333
 40
0.8333333333333333
 40
0.8333333333333333
 40
0.8333333333333333
 40
1.0
 40
1.0
 40
1.0
 40
1.0
 10
3.2538800000000001
 20
2.5267300000000001
 30
0.0
 10
3.3504000000000005
 20
2.4454500000000001
 30
0.0
 10
3.3910400000000003
 20
2.3082900000000004
 30
0.0
 10
3.4316800000000001
 20
2.1711300000000002
 30
0.0
 10
3.4316800000000001
 20
2.1711300000000002
 30
0.0
 10
3.9041200000000003
 20
1.5767700000000002
 30
0.0
 10
3.4316800000000001
 20
0.48965
 30
0.0
 10
4.2800400000000005
 20
0.17469
 30
0.0
 10
4.2800400000000005
 20
0.17469
 30
0.0
 10
4.2800400000000005
 20
0.17469
 30
0.0
 10
4.2800400000000005
 20
0.09341
 30
0.0
 10
4.2800400000000005
 20
0.09341
 30
0.0
 10
4.2800400000000005
 20
0.09341
 30
0.0
 10
4.1428799999999999
 20
0.01467
 30
0.0
 10
3.9854000000000003
 20
0.01467
 30
0.0
 10
3.8457000000000003
 20
0.05531
 30
0.0
 10
3.8457000000000003
 20
0.05531
 30
0.0
 10
3.8457000000000003
 20
0.05531
 30
0.0
 10
3.5282000000000004
 20
0.50997
 30
0.0
 10
3.5282000000000004
 20
0.50997
 30
0.0
 10
3.5282000000000004
 20
0.50997
 30
0.0
 10
3.6094800000000005
 20
1.2008500000000002
 30
0.0
 10
3.4113600000000002
 20
1.8917300000000001
 30
0.0
 10
3.2538800000000001
 20
2.5267300000000001
 30
0.0
  0
SPLINE
  5
31
100
AcDbEntity
  8
Ebene 1
 62
     7
100
AcDbSpline
210
0.0
220
0.0
230
1.0
 70
     1
 71
     3
 72
   204
 73
   200
 74
     0
 42
0.0000000001
 43
0.0000000001
 40
0.0
 40
0.0
 40
0.0
 40
0.0
 40
0.02
 40
0.02
 40
0.02
 40
0.02
 40
0.04
 40
0.04
 40
0.04
 40
0.04
 40
0.06
 40
0.06
 40
0.06
 40
0.06
 40
0.08
 40
0.08
 40
0.08
 40
0.08
 40
0.1
 40
0.1
 40
0.1
 40
0.1
 40
0.12
 40
0.12
 40
0.12
 40
0.12
 40
0.14
 40
0.14
 40
0.14
 40
0.14
 40
0.16
 40
0.16
 40
0.16
 40
0.16
 40
0.18
 40
0.18
 40
0.18
 40
0.18
 40
0.2
 40
0.2
 40
0.2
 40
0.2
 40
0.22
 40
0.22
 40
0.22
 40
0.22
 40
0.24
 40
0.24
 40
0.24
 40
0.24
 40
0.26
 40
0.26
 40
0.26
 40
0.26
 40
0.28
 40
0.28
 40
0.28
 40
0.28
 40
0.3
 40
0.3
 40
0.3
 40
0.3
 40
0.32
 40
0.32
 40
0.32
 40
0.32
 40
0.34
 40
0.34
 40
0.34
 40
0.34
 40
0.36
 40
0.36
 40
0.36
 40
0.36
 40
0.3800000000000001
 40
0.3800000000000001
 40
0.3800000000000001
 40
0.3800000000000001
 40
0.4000000000000001
 40
0.4000000000000001
 40
0.4000000000000001
 40
0.4000000000000001
 40
0.4200000000000001
 40
0.4200000000000001
 40
0.4200000000000001
 40
0.4200000000000001
 40
0.4400000000000001
 40
0.4400000000000001
 40
0.4400000000000001
 40
0.4400000000000001
 40
0.4600000000000001
 40
0.4600000000000001
 40
0.4600000000000001
 40
0.4600000000000001
 40
0.4800000000000002
 40
0.4800000000000002
 40
0.4800000000000002
 40
0.4800000000000002
 40
0.5000000000000001
 40
0.5000000000000001
 40
0.5000000000000001
 40
0.5000000000000001
 40
0.5200000000000001
 40
0.5200000000000001
 40
0.5200000000000001
 40
0.5200000000000001
 40
0.5400000000000002
 40
0.5400000000000002
 40
0.5400000000000002
 40
0.5400000000000002
 40
0.5600000000000002
 40
0.5600000000000002
 40
0.5600000000000002
 40
0.5600000000000002
 40
0.5800000000000002
 40
0.5800000000000002
 40
0.5800000000000002
 40
0.5800000000000002
 40
0.6000000000000002
 40
0.6000000000000002
 40
0.6000000000000002
 40
0.6000000000000002
 40
0.6200000000000002
 40
0.6200000000000002
 40
0.6200000000000002
 40
0.6200000000000002
 40
0.6400000000000002
 40
0.6400000000000002
 40
0.6400000000000002
 40
0.6400000000000002
 40
0.6600000000000003
 40
0.6600000000000003
 40
0.6600000000000003
 40
0.6600000000000003
 40
0.6800000000000003
 40
0.6800000000000003
 40
0.6800000000000003
 40
0.6800000000000003
 40
0.7000000000000003
 40
0.7000000000000003
 40
0.7000000000000003
 40
0.7000000000000003
 40
0.7200000000000003
 40
0.7200000000000003
 40
0.7200000000000003
 40
0.7200000000000003
 40
0.7400000000000003
 40
0.7400000000000003
 40
0.7400000000000003
 40
0.7400000000000003
 40
0.7600000000000003
 40
0.7600000000000003
 40
0.7600000000000003
 40
0.7600000000000003
 40
0.7800000000000004
 40
0.7800000000000004
 40
0.7800000000000004
 40
0.7800000000000004
 40
0.8000000000000004
 40
0.8000000000000004
 40
0.8000000000000004
 40
0.8000000000000004
 40
0.8200000000000004
 40
0.8200000000000004
 40
0.8200000000000004
 40
0.8200000000000004
 40
0.8400000000000004
 40
0.8400000000000004
 40
0.8400000000000004
 40
0.8400000000000004
 40
0.8600000000000004
 40
0.8600000000000004
 40
0.8600000000000004
 40
0.8600000000000004
 40
0.8800000000000005
 40
0.8800000000000005
 40
0.8800000000000005
 40
0.8800000000000005
 40
0.9000000000000005
 40
0.9000000000000005
 40
0.9000000000000005
 40
0.9000000000000005
 40
0.9200000000000005
 40
0.9200000000000005
 40
0.9200000000000005
 40
0.9200000000000005
 40
0.9400000000000005
 40
0.9400000000000005
 40
0.9400000000000005
 40
0.9400000000000005
 40
0.9600000000000005
 40
0.9600000000000005
 40
0.9600000000000005
 40
0.9600000000000005
 40
0.9800000000000005
 40
0.9800000000000005
 40
0.9800000000000005
 40
0.9800000000000005
 40
1.0
 40
1.0
 40
1.0
 40
1.0
 10
2.4029800000000003
 20
1.3786500000000002
 30
0.0
 10
2.9567000000000001
 20
0.6471300000000001
 30
0.0
 10
3.3707200000000004
 20
-0.4171200000000001
 30
0.0
 10
2.9948000000000001
 20
-1.3264400000000001
 30
0.0
 10
2.9948000000000001
 20
-1.3264400000000001
 30
0.0
 10
3.0151200000000005
 20
-1.4839200000000001
 30
0.0
 10
3.0964
 20
-1.3442200000000002
 30
0.0
 10
3.1141800000000002
 20
-1.2680200000000001
 30
0.0
 10
3.1141800000000002
 20
-1.2680200000000001
 30
0.0
 10
3.7466400000000002
 20
-1.0292600000000001
 30
0.0
 10
2.8982800000000002
 20
-2.5329400000000004
 30
0.0
 10
2.7408000000000001
 20
-1.6820400000000002
 30
0.0
 10
2.7408000000000001
 20
-1.6820400000000002
 30
0.0
 10
2.7408000000000001
 20
-1.6820400000000002
 30
0.0
 10
2.6188800000000003
 20
-1.7201400000000002
 30
0.0
 10
2.6188800000000003
 20
-1.7201400000000002
 30
0.0
 10
2.6188800000000003
 20
-1.7201400000000002
 30
0.0
 10
2.4614000000000003
 20
-2.4313400000000001
 30
0.0
 10
1.6511400000000001
 20
-2.35514
 30
0.0
 10
1.05932
 20
-2.3754600000000003
 30
0.0
 10
1.05932
 20
-2.3754600000000003
 30
0.0
 10
1.05932
 20
-2.3754600000000003
 30
0.0
 10
0.74182
 20
-2.8275800000000002
 30
0.0
 10
0.74182
 20
-2.8275800000000002
 30
0.0
 10
0.74182
 20
-2.8275800000000002
 30
0.0
 10
1.1380600000000001
 20
-2.4923000000000002
 30
0.0
 10
1.0796400000000002
 20
-2.9266400000000004
 30
0.0
 10
1.1761600000000001
 20
-3.2847800000000005
 30
0.0
 10
1.1761600000000001
 20
-3.2847800000000005
 30
0.0
 10
1.27776
 20
-3.3609800000000001
 30
0.0
 10
1.1177400000000002
 20
-2.9088600000000002
 30
0.0
 10
1.2574400000000001
 20
-2.7894800000000002
 30
0.0
 10
1.2574400000000001
 20
-2.7894800000000002
 30
0.0
 10
1.3742800000000002
 20
-2.9469600000000002
 30
0.0
 10
1.2955400000000001
 20
-3.3025600000000002
 30
0.0
 10
1.5317600000000002
 20
-3.3432000000000004
 30
0.0
 10
1.5317600000000002
 20
-3.3432000000000004
 30
0.0
 10
1.4352400000000001
 20
-3.3863800000000004
 30
0.0
 10
1.3031600000000001
 20
-3.3889200000000002
 30
0.0
 10
1.2650600000000001
 20
-3.4371800000000001
 30
0.0
 10
1.2650600000000001
 20
-3.4371800000000001
 30
0.0
 10
1.11012
 20
-3.6454600000000004
 30
0.0
 10
1.4936600000000002
 20
-3.9553400000000005
 30
0.0
 10
1.4149200000000002
 20
-4.4684200000000001
 30
0.0
 10
1.4149200000000002
 20
-4.4684200000000001
 30
0.0
 10
1.0796400000000002
 20
-3.9350200000000002
 30
0.0
 10
1.31586
 20
-3.9756600000000004
 30
0.0
 10
1.01868
 20
-3.6200600000000005
 30
0.0
 10
1.01868
 20
-3.6200600000000005
 30
0.0
 10
1.11012
 20
-3.8613600000000003
 30
0.0
 10
0.9805800000000001
 20
-3.8537400000000002
 30
0.0
 10
0.912
 20
-3.9883600000000001
 30
0.0
 10
0.912
 20
-3.9883600000000001
 30
0.0
 10
0.8231000000000001
 20
-4.1560000000000006
 30
0.0
 10
0.9399400000000001
 20
-4.5725600000000002
 30
0.0
 10
0.8612000000000001
 20
-4.7452800000000002
 30
0.0
 10
0.8612000000000001
 20
-4.7452800000000002
 30
0.0
 10
0.6834
 20
-4.2322000000000006
 30
0.0
 10
0.57418
 20
-4.9561000000000002
 30
0.0
 10
0.55386
 20
-4.7173400000000001
 30
0.0
 10
0.55386
 20
-4.7173400000000001
 30
0.0
 10
0.4090800000000001
 20
-4.1001200000000004
 30
0.0
 10
0.48528
 20
-5.0018200000000004
 30
0.0
 10
0.46496
 20
-5.0424600000000002
 30
0.0
 10
0.46496
 20
-5.0424600000000002
 30
0.0
 10
0.13984
 20
-4.5852600000000008
 30
0.0
 10
0.2643
 20
-4.81386
 30
0.0
 10
0.37606
 20
-5.1313600000000008
 30
0.0
 10
0.37606
 20
-5.1313600000000008
 30
0.0
 10
0.4522600000000001
 20
-5.3498000000000001
 30
0.0
 10
0.5487800000000001
 20
-5.5987200000000001
 30
0.0
 10
0.3786000000000001
 20
-5.7257200000000008
 30
0.0
 10
0.3786000000000001
 20
-5.7257200000000008
 30
0.0
 10
0.10174
 20
-5.2532800000000002
 30
0.0
 10
0.1881
 20
-4.5090600000000007
 30
0.0
 10
0.02808
 20
-4.2322000000000006
 30
0.0
 10
0.02808
 20
-4.2322000000000006
 30
0.0
 10
0.02808
 20
-4.2322000000000006
 30
0.0
 10
0.05094
 20
-4.48874
 30
0.0
 10
0.05094
 20
-4.48874
 30
0.0
 10
0.05094
 20
-4.48874
 30
0.0
 10
0.05094
 20
-4.48874
 30
0.0
 10
0.08904
 20
-4.7249600000000003
 30
0.0
 10
0.08904
 20
-4.7249600000000003
 30
0.0
 10
0.08904
 20
-4.7249600000000003
 30
0.0
 10
0.08904
 20
-4.7249600000000003
 30
0.0
 10
0.08904
 20
-4.82402
 30
0.0
 10
0.08904
 20
-4.82402
 30
0.0
 10
0.08904
 20
-4.82402
 30
0.0
 10
0.0738
 20
-5.1008800000000001
 30
0.0
 10
-0.05319
 20
-4.5293800000000006
 30
0.0
 10
-0.11923
 20
-4.7452800000000002
 30
0.0
 10
-0.11923
 20
-4.7452800000000002
 30
0.0
 10
-0.11923
 20
-4.7452800000000002
 30
0.0
 10
-0.05065
 20
-4.82402
 30
0.0
 10
-0.05065
 20
-4.82402
 30
0.0
 10
-0.05065
 20
-4.82402
 30
0.0
 10
-0.05065
 20
-4.82402
 30
0.0
 10
-0.00493
 20
-4.9637200000000004
 30
0.0
 10
-0.00493
 20
-4.9637200000000004
 30
0.0
 10
-0.00493
 20
-4.9637200000000004
 30
0.0
 10
-0.00493
 20
-4.9637200000000004
 30
0.0
 10
0.07126
 20
-5.3574200000000003
 30
0.0
 10
0.07126
 20
-5.3574200000000003
 30
0.0
 10
0.07126
 20
-5.3574200000000003
 30
0.0
 10
0.05348
 20
-5.4564800000000009
 30
0.0
 10
0.0611
 20
-5.5555400000000006
 30
0.0
 10
0.01792
 20
-5.6342800000000004
 30
0.0
 10
0.01792
 20
-5.6342800000000004
 30
0.0
 10
-0.29703
 20
-6.2286400000000004
 30
0.0
 10
-0.06335
 20
-4.2322000000000006
 30
0.0
 10
-0.24369
 20
-5.0221400000000003
 30
0.0
 10
-0.24369
 20
-5.0221400000000003
 30
0.0
 10
-0.25385
 20
-5.3574200000000003
 30
0.0
 10
-0.35291
 20
-5.1212000000000009
 30
0.0
 10
-0.3224300000000001
 20
-4.9027600000000007
 30
0.0
 10
-0.3224300000000001
 20
-4.9027600000000007
 30
0.0
 10
-0.3224300000000001
 20
-4.9027600000000007
 30
0.0
 10
-0.3224300000000001
 20
-4.7656000000000001
 30
0.0
 10
-0.3224300000000001
 20
-4.7656000000000001
 30
0.0
 10
-0.3224300000000001
 20
-4.7656000000000001
 30
0.0
 10
-0.4291100000000001
 20
-4.48874
 30
0.0
 10
-0.27671
 20
-5.2990000000000004
 30
0.0
 10
-0.42403
 20
-5.1415200000000008
 30
0.0
 10
-0.42403
 20
-5.1415200000000008
 30
0.0
 10
-0.42403
 20
-5.1415200000000008
 30
0.0
 10
-0.47483
 20
-4.9637200000000004
 30
0.0
 10
-0.47483
 20
-4.9637200000000004
 30
0.0
 10
-0.47483
 20
-4.9637200000000004
 30
0.0
 10
-0.47483
 20
-4.9637200000000004
 30
0.0
 10
-0.5586500000000001
 20
-4.6665400000000004
 30
0.0
 10
-0.5586500000000001
 20
-4.6665400000000004
 30
0.0
 10
-0.5586500000000001
 20
-4.6665400000000004
 30
0.0
 10
-0.5586500000000001
 20
-4.6665400000000004
 30
0.0
 10
-0.69835
 20
-4.8849800000000005
 30
0.0
 10
-0.69835
 20
-4.8849800000000005
 30
0.0
 10
-0.69835
 20
-4.8849800000000005
 30
0.0
 10
-0.88631
 20
-5.4564800000000009
 30
0.0
 10
-0.6196100000000001
 20
-3.7572200000000002
 30
0.0
 10
-0.7567700000000001
 20
-4.1128200000000001
 30
0.0
 10
-0.7567700000000001
 20
-4.1128200000000001
 30
0.0
 10
-0.7567700000000001
 20
-4.1128200000000001
 30
0.0
 10
-0.7948700000000001
 20
-4.3744400000000008
 30
0.0
 10
-0.7948700000000001
 20
-4.3744400000000008
 30
0.0
 10
-0.7948700000000001
 20
-4.3744400000000008
 30
0.0
 10
-0.7999500000000001
 20
-4.4938200000000004
 30
0.0
 10
-0.8151900000000001
 20
-4.7351200000000002
 30
0.0
 10
-0.88631
 20
-4.6360600000000005
 30
0.0
 10
-0.88631
 20
-4.6360600000000005
 30
0.0
 10
-1.2393700000000001
 20
-3.9832800000000002
 30
0.0
 10
-0.9599700000000001
 20
-3.2238200000000004
 30
0.0
 10
-1.4730500000000002
 20
-2.57104
 30
0.0
 10
-1.4730500000000002
 20
-2.57104
 30
0.0
 10
-1.9734300000000002
 20
-2.6294600000000004
 30
0.0
 10
-2.8192500000000003
 20
-3.1450800000000001
 30
0.0
 10
-2.8954500000000003
 20
-2.2154400000000001
 30
0.0
 10
-2.8954500000000003
 20
-2.2154400000000001
 30
0.0
 10
-3.5329900000000003
 20
-2.4948400000000004
 30
0.0
 10
-3.7387300000000003
 20
-1.6972800000000001
 30
0.0
 10
-3.3780500000000004
 20
-1.7709400000000002
 30
0.0
 10
-3.3780500000000004
 20
-1.7709400000000002
 30
0.0
 10
-3.2942300000000002
 20
-1.7861800000000001
 30
0.0
 10
-3.0402300000000002
 20
-1.9843000000000002
 30
0.0
 10
-3.0173700000000001
 20
-1.7811000000000001
 30
0.0
 10
-3.0173700000000001
 20
-1.7811000000000001
 30
0.0
 10
-3.7285700000000004
 20
-1.2477
 30
0.0
 10
-3.5101300000000002
 20
-0.37648
 30
0.0
 10
-3.1418300000000001
 20
0.29153
 30
0.0
 10
-3.1418300000000001
 20
0.29153
 30
0.0
 10
-2.9005300000000003
 20
0.5683900000000001
 30
0.0
 10
-2.5423900000000001
 20
0.29153
 30
0.0
 10
-2.31887
 20
0.13405
 30
0.0
 10
-2.31887
 20
0.13405
 30
0.0
 10
-2.3849100000000001
 20
0.6268100000000001
 30
0.0
 10
-1.5771900000000001
 20
-0.08184
 30
0.0
 10
-1.1352300000000002
 20
0.09341
 30
0.0
 10
-1.1352300000000002
 20
0.09341
 30
0.0
 10
-1.1072900000000001
 20
0.19247
 30
0.0
 10
-1.0742700000000001
 20
0.29153
 30
0.0
 10
-0.9980700000000001
 20
0.35249
 30
0.0
 10
-0.9980700000000001
 20
0.35249
 30
0.0
 10
-0.9777500000000001
 20
0.25343
 30
0.0
 10
-0.9752100000000001
 20
0.13405
 30
0.0
 10
-0.92949
 20
0.03499
 30
0.0
 10
-0.92949
 20
0.03499
 30
0.0
 10
-0.28179
 20
0.03499
 30
0.0
 10
0.6834
 20
0.03499
 30
0.0
 10
0.9780400000000001
 20
0.6877700000000001
 30
0.0
 10
0.9780400000000001
 20
0.6877700000000001
 30
0.0
 10
1.3539600000000001
 20
0.5683900000000001
 30
0.0
 10
1.7298800000000001
 20
0.9824100000000001
 30
0.0
 10
2.08548
 20
1.1221100000000002
 30
0.0
 10
2.08548
 20
1.1221100000000002
 30
0.0
 10
2.2251800000000004
 20
1.1424300000000001
 30
0.0
 10
2.34456
 20
0.9646300000000001
 30
0.0
 10
2.4817200000000001
 20
1.0433700000000001
 30
0.0
 10
2.4817200000000001
 20
1.0433700000000001
 30
0.0
 10
2.4410800000000004
 20
1.1805300000000001
 30
0.0
 10
2.20486
 20
1.2618100000000001
 30
0.0
 10
2.4029800000000003
 20
1.3786500000000002
 30
0.0
  0
SPLINE
  5
32
100
AcDbEntity
  8
Ebene 1
100
AcDbSpline
210
0.0
220
0.0
230
1.0
 70
     1
 71
     3
 72
    44
 73
    40
 74
     0
 42
0.0000000001
 43
0.0000000001
 40
0.0
 40
0.0
 40
0.0
 40
0.0
 40
0.1
 40
0.1
 40
0.1
 40
0.1
 40
0.2
 40
0.2
 40
0.2
 40
0.2
 40
0.3
 40
0.3
 40
0.3
 40
0.3
 40
0.4
 40
0.4
 40
0.4
 40
0.4
 40
0.5
 40
0.5
 40
0.5
 40
0.5
 40
0.6
 40
0.6
 40
0.6
 40
0.6
 40
0.7
 40
0.7
 40
0.7
 40
0.7
 40
0.7999999999999999
 40
0.7999999999999999
 40
0.7999999999999999
 40
0.7999999999999999
 40
0.8999999999999999
 40
0.8999999999999999
 40
0.8999999999999999
 40
0.8999999999999999
 40
1.0
 40
1.0
 40
1.0
 40
1.0
 10
1.8289400000000002
 20
0.48965
 30
0.0
 10
1.8289400000000002
 20
0.48965
 30
0.0
 10
2.2455000000000003
 20
0.46933
 30
0.0
 10
2.2455000000000003
 20
0.46933
 30
0.0
 10
2.2455000000000003
 20
0.46933
 30
0.0
 10
2.1870800000000004
 20
0.37027
 30
0.0
 10
2.0270600000000001
 20
0.48965
 30
0.0
 10
1.9483200000000001
 20
0.3905900000000001
 30
0.0
 10
1.9483200000000001
 20
0.3905900000000001
 30
0.0
 10
2.1464400000000001
 20
0.31185
 30
0.0
 10
2.4029800000000003
 20
0.11373
 30
0.0
 10
2.6011000000000002
 20
-0.08184
 30
0.0
 10
2.6011000000000002
 20
-0.08184
 30
0.0
 10
2.5604600000000004
 20
-0.19868
 30
0.0
 10
2.3648800000000003
 20
0.09341
 30
0.0
 10
2.2632800000000004
 20
0.05531
 30
0.0
 10
2.2632800000000004
 20
0.05531
 30
0.0
 10
2.3242400000000001
 20
-0.219
 30
0.0
 10
2.50204
 20
-0.5161800000000001
 30
0.0
 10
2.4233000000000002
 20
-0.8108200000000001
 30
0.0
 10
2.4233000000000002
 20
-0.8108200000000001
 30
0.0
 10
1.7298800000000001
 20
-1.5626600000000002
 30
0.0
 10
1.0390000000000001
 20
-1.6439400000000002
 30
0.0
 10
0.24398
 20
-1.0292600000000001
 30
0.0
 10
0.24398
 20
-1.0292600000000001
 30
0.0
 10
0.24398
 20
-1.0292600000000001
 30
0.0
 10
-0.02017
 20
-1.3848600000000002
 30
0.0
 10
-0.02017
 20
-1.3848600000000002
 30
0.0
 10
-0.02017
 20
-1.3848600000000002
 30
0.0
 10
-0.00493
 20
-1.12832
 30
0.0
 10
0.28716
 20
-0.8921000000000001
 30
0.0
 10
0.04586
 20
-0.63302
 30
0.0
 10
0.04586
 20
-0.63302
 30
0.0
 10
-0.03795
 20
-0.4374400000000001
 30
0.0
 10
-0.31735
 20
-0.5365000000000001
 30
0.0
 10
-0.41387
 20
-0.37648
 30
0.0
 10
-0.41387
 20
-0.37648
 30
0.0
 10
0.46496
 20
-0.7320800000000001
 30
0.0
 10
1.05932
 20
0.25343
 30
0.0
 10
1.8289400000000002
 20
0.48965
 30
0.0
  0
SPLINE
  5
33
100
AcDbEntity
  8
Ebene 1
100
AcDbSpline
210
0.0
220
0.0
230
1.0
 70
     1
 71
     3
 72
    60
 73
    56
 74
     0
 42
0.0000000001
 43
0.0000000001
 40
0.0
 40
0.0
 40
0.0
 40
0.0
 40
0.0714285714285714
 40
0.0714285714285714
 40
0.0714285714285714
 40
0.0714285714285714
 40
0.1428571428571429
 40
0.1428571428571429
 40
0.1428571428571429
 40
0.1428571428571429
 40
0.2142857142857143
 40
0.2142857142857143
 40
0.2142857142857143
 40
0.2142857142857143
 40
0.2857142857142857
 40
0.2857142857142857
 40
0.2857142857142857
 40
0.2857142857142857
 40
0.3571428571428571
 40
0.3571428571428571
 40
0.3571428571428571
 40
0.3571428571428571
 40
0.4285714285714285
 40
0.4285714285714285
 40
0.4285714285714285
 40
0.4285714285714285
 40
0.4999999999999999
 40
0.4999999999999999
 40
0.4999999999999999
 40
0.4999999999999999
 40
0.5714285714285713
 40
0.5714285714285713
 40
0.5714285714285713
 40
0.5714285714285713
 40
0.6428571428571427
 40
0.6428571428571427
 40
0.6428571428571427
 40
0.6428571428571427
 40
0.7142857142857141
 40
0.7142857142857141
 40
0.7142857142857141
 40
0.7142857142857141
 40
0.7857142857142855
 40
0.7857142857142855
 40
0.7857142857142855
 40
0.7857142857142855
 40
0.8571428571428569
 40
0.8571428571428569
 40
0.8571428571428569
 40
0.8571428571428569
 40
0.9285714285714283
 40
0.9285714285714283
 40
0.9285714285714283
 40
0.9285714285714283
 40
1.0
 40
1.0
 40
1.0
 40
1.0
 10
-3.1367500000000001
 20
-0.7320800000000001
 30
0.0
 10
-3.1697700000000002
 20
-0.7955800000000001
 30
0.0
 10
-3.1926300000000003
 20
-0.8667
 30
0.0
 10
-3.2612100000000002
 20
-0.8921000000000001
 30
0.0
 10
-3.2612100000000002
 20
-0.8921000000000001
 30
0.0
 10
-3.2739100000000003
 20
-0.7727200000000001
 30
0.0
 10
-3.2002500000000005
 20
-0.65334
 30
0.0
 10
-3.1215100000000002
 20
-0.5746
 30
0.0
 10
-3.1215100000000002
 20
-0.5746
 30
0.0
 10
-3.0681700000000003
 20
-0.4171200000000001
 30
0.0
 10
-2.5855700000000001
 20
-0.31806
 30
0.0
 10
-2.8522700000000003
 20
-0.219
 30
0.0
 10
-2.8522700000000003
 20
-0.219
 30
0.0
 10
-3.0097500000000004
 20
-0.16058
 30
0.0
 10
-3.1392900000000004
 20
-0.3587
 30
0.0
 10
-3.2815300000000001
 20
-0.37648
 30
0.0
 10
-3.2815300000000001
 20
-0.37648
 30
0.0
 10
-3.0376900000000004
 20
0.05531
 30
0.0
 10
-2.4407900000000002
 20
-0.09962
 30
0.0
 10
-2.1156700000000002
 20
-0.37648
 30
0.0
 10
-2.1156700000000002
 20
-0.37648
 30
0.0
 10
-1.62799
 20
-0.47554
 30
0.0
 10
-1.1428500000000001
 20
-0.65334
 30
0.0
 10
-0.70089
 20
-0.3968
 30
0.0
 10
-0.70089
 20
-0.3968
 30
0.0
 10
-0.73899
 20
-0.49586
 30
0.0
 10
-0.9218700000000001
 20
-0.49586
 30
0.0
 10
-0.9752100000000001
 20
-0.61524
 30
0.0
 10
-0.9752100000000001
 20
-0.61524
 30
0.0
 10
-1.0158500000000001
 20
-0.8514600000000001
 30
0.0
 10
-1.00315
 20
-1.1080000000000001
 30
0.0
 10
-0.8609100000000001
 20
-1.3061200000000002
 30
0.0
 10
-0.8609100000000001
 20
-1.3061200000000002
 30
0.0
 10
-0.9574300000000001
 20
-1.3264400000000001
 30
0.0
 10
-0.9777500000000001
 20
-1.1867400000000001
 30
0.0
 10
-1.0488700000000002
 20
-1.1486400000000001
 30
0.0
 10
-1.0488700000000002
 20
-1.1486400000000001
 30
0.0
 10
-1.4425700000000001
 20
-1.7404600000000001
 30
0.0
 10
-2.4509500000000002
 20
-2.23576
 30
0.0
 10
-2.9056100000000002
 20
-1.5220200000000002
 30
0.0
 10
-2.9056100000000002
 20
-1.5220200000000002
 30
0.0
 10
-2.8471900000000003
 20
-1.50424
 30
0.0
 10
-2.6643100000000004
 20
-1.6998200000000001
 30
0.0
 10
-2.7074900000000004
 20
-1.5626600000000002
 30
0.0
 10
-2.7074900000000004
 20
-1.5626600000000002
 30
0.0
 10
-2.7532100000000002
 20
-1.5220200000000002
 30
0.0
 10
-2.7608300000000003
 20
-1.4763000000000002
 30
0.0
 10
-2.7862300000000002
 20
-1.41788
 30
0.0
 10
-2.7862300000000002
 20
-1.41788
 30
0.0
 10
-2.9437100000000003
 20
-1.2807200000000001
 30
0.0
 10
-3.1189700000000005
 20
-1.0978400000000001
 30
0.0
 10
-3.1240500000000004
 20
-0.8997200000000001
 30
0.0
 10
-3.1240500000000004
 20
-0.8997200000000001
 30
0.0
 10
-3.1265900000000002
 20
-0.75748
 30
0.0
 10
-2.9818100000000003
 20
-0.4349
 30
0.0
 10
-3.1367500000000001
 20
-0.7320800000000001
 30
0.0
  0
SPLINE
  5
34
100
AcDbEntity
  8
Ebene 1
100
AcDbSpline
210
0.0
220
0.0
230
1.0
 70
     1
 71
     3
 72
    40
 73
    36
 74
     0
 42
0.0000000001
 43
0.0000000001
 40
0.0
 40
0.0
 40
0.0
 40
0.0
 40
0.1111111111111111
 40
0.1111111111111111
 40
0.1111111111111111
 40
0.1111111111111111
 40
0.2222222222222222
 40
0.2222222222222222
 40
0.2222222222222222
 40
0.2222222222222222
 40
0.3333333333333333
 40
0.3333333333333333
 40
0.3333333333333333
 40
0.3333333333333333
 40
0.4444444444444444
 40
0.4444444444444444
 40
0.4444444444444444
 40
0.4444444444444444
 40
0.5555555555555556
 40
0.5555555555555556
 40
0.5555555555555556
 40
0.5555555555555556
 40
0.6666666666666667
 40
0.6666666666666667
 40
0.6666666666666667
 40
0.6666666666666667
 40
0.7777777777777779
 40
0.7777777777777779
 40
0.7777777777777779
 40
0.7777777777777779
 40
0.8888888888888891
 40
0.8888888888888891
 40
0.8888888888888891
 40
0.8888888888888891
 40
1.0
 40
1.0
 40
1.0
 40
1.0
 10
-0.65771
 20
-1.4839200000000001
 30
0.0
 10
-0.65771
 20
-1.4839200000000001
 30
0.0
 10
-0.12939
 20
-1.50424
 30
0.0
 10
-0.12939
 20
-1.50424
 30
0.0
 10
-0.12939
 20
-1.50424
 30
0.0
 10
0.08396
 20
-1.9995400000000001
 30
0.0
 10
0.36336
 20
-2.5126200000000001
 30
0.0
 10
0.3024
 20
-3.0663400000000003
 30
0.0
 10
0.3024
 20
-3.0663400000000003
 30
0.0
 10
0.14238
 20
-3.0866600000000002
 30
0.0
 10
-0.01255
 20
-3.1247600000000002
 30
0.0
 10
-0.17765
 20
-3.1247600000000002
 30
0.0
 10
-0.17765
 20
-3.1247600000000002
 30
0.0
 10
-0.24369
 20
-3.0257000000000001
 30
0.0
 10
-0.15479
 20
-2.8479000000000001
 30
0.0
 10
-0.25639
 20
-2.7691600000000003
 30
0.0
 10
-0.25639
 20
-2.7691600000000003
 30
0.0
 10
-0.41387
 20
-3.0460200000000004
 30
0.0
 10
-0.24369
 20
-3.3432000000000004
 30
0.0
 10
-0.28687
 20
-3.6200600000000005
 30
0.0
 10
-0.28687
 20
-3.6200600000000005
 30
0.0
 10
-0.28687
 20
-3.6200600000000005
 30
0.0
 10
-0.42403
 20
-3.2238200000000004
 30
0.0
 10
-0.42403
 20
-3.2238200000000004
 30
0.0
 10
-0.42403
 20
-3.2238200000000004
 30
0.0
 10
-0.52563
 20
-3.0866600000000002
 30
0.0
 10
-0.71867
 20
-3.1831800000000001
 30
0.0
 10
-0.8507500000000001
 20
-3.1247600000000002
 30
0.0
 10
-0.8507500000000001
 20
-3.1247600000000002
 30
0.0
 10
-0.9599700000000001
 20
-2.6294600000000004
 30
0.0
 10
-0.7567700000000001
 20
-2.1367000000000003
 30
0.0
 10
-0.7567700000000001
 20
-1.6439400000000002
 30
0.0
 10
-0.7567700000000001
 20
-1.6439400000000002
 30
0.0
 10
-0.7567700000000001
 20
-1.6439400000000002
 30
0.0
 10
-0.65771
 20
-1.4839200000000001
 30
0.0
 10
-0.65771
 20
-1.4839200000000001
 30
0.0
  0
SPLINE
  5
35
100
AcDbEntity
  8
Ebene 1
 62
     7
100
AcDbSpline
210
0.0
220
0.0
230
1.0
 70
     1
 71
     3
 72
    24
 73
    20
 74
     0
 42
0.0000000001
 43
0.0000000001
 40
0.0
 40
0.0
 40
0.0
 40
0.0
 40
0.2
 40
0.2
 40
0.2
 40
0.2
 40
0.4
 40
0.4
 40
0.4
 40
0.4
 40
0.6000000000000001
 40
0.6000000000000001
 40
0.6000000000000001
 40
0.6000000000000001
 40
0.8
 40
0.8
 40
0.8
 40
0.8
 40
1.0
 40
1.0
 40
1.0
 40
1.0
 10
-1.3892300000000002
 20
-3.0866600000000002
 30
0.0
 10
-1.2393700000000001
 20
-3.4016200000000003
 30
0.0
 10
-1.17079
 20
-3.7572200000000002
 30
0.0
 10
-1.1758700000000002
 20
-4.13314
 30
0.0
 10
-1.1758700000000002
 20
-4.13314
 30
0.0
 10
-1.1758700000000002
 20
-4.13314
 30
0.0
 10
-1.2850900000000001
 20
-4.1737800000000007
 30
0.0
 10
-1.2850900000000001
 20
-4.1737800000000007
 30
0.0
 10
-1.2850900000000001
 20
-4.1737800000000007
 30
0.0
 10
-1.29271
 20
-4.0544000000000002
 30
0.0
 10
-1.2774700000000001
 20
-3.9553400000000005
 30
0.0
 10
-1.25207
 20
-3.8562800000000004
 30
0.0
 10
-1.25207
 20
-3.8562800000000004
 30
0.0
 10
-1.25207
 20
-3.8562800000000004
 30
0.0
 10
-1.3435100000000002
 20
-3.8181800000000004
 30
0.0
 10
-1.3435100000000002
 20
-3.8181800000000004
 30
0.0
 10
-1.3435100000000002
 20
-3.8181800000000004
 30
0.0
 10
-1.3435100000000002
 20
-3.8181800000000004
 30
0.0
 10
-1.3892300000000002
 20
-3.0866600000000002
 30
0.0
 10
-1.3892300000000002
 20
-3.0866600000000002
 30
0.0
  0
SPLINE
  5
36
100
AcDbEntity
  8
Ebene 1
 62
     7
100
AcDbSpline
210
0.0
220
0.0
230
1.0
 70
     1
 71
     3
 72
    16
 73
    12
 74
     0
 42
0.0000000001
 43
0.0000000001
 40
0.0
 40
0.0
 40
0.0
 40
0.0
 40
0.3333333333333333
 40
0.3333333333333333
 40
0.3333333333333333
 40
0.3333333333333333
 40
0.6666666666666666
 40
0.6666666666666666
 40
0.6666666666666666
 40
0.6666666666666666
 40
1.0
 40
1.0
 40
1.0
 40
1.0
 10
-1.5086100000000002
 20
-3.2847800000000005
 30
0.0
 10
-1.5086100000000002
 20
-3.2847800000000005
 30
0.0
 10
-1.4730500000000002
 20
-3.2847800000000005
 30
0.0
 10
-1.4730500000000002
 20
-3.2847800000000005
 30
0.0
 10
-1.4730500000000002
 20
-3.2847800000000005
 30
0.0
 10
-1.4324100000000002
 20
-3.5006800000000005
 30
0.0
 10
-1.3587500000000001
 20
-3.8181800000000004
 30
0.0
 10
-1.5619500000000002
 20
-3.9350200000000002
 30
0.0
 10
-1.5619500000000002
 20
-3.9350200000000002
 30
0.0
 10
-1.5517900000000002
 20
-3.7165800000000004
 30
0.0
 10
-1.5670300000000001
 20
-3.4803600000000001
 30
0.0
 10
-1.5086100000000002
 20
-3.2847800000000005
 30
0.0
  0
SPLINE
  5
37
100
AcDbEntity
  8
Ebene 1
 62
     7
100
AcDbSpline
210
0.0
220
0.0
230
1.0
 70
     1
 71
     3
 72
    16
 73
    12
 74
     0
 42
0.0000000001
 43
0.0000000001
 40
0.0
 40
0.0
 40
0.0
 40
0.0
 40
0.3333333333333333
 40
0.3333333333333333
 40
0.3333333333333333
 40
0.3333333333333333
 40
0.6666666666666666
 40
0.6666666666666666
 40
0.6666666666666666
 40
0.6666666666666666
 40
1.0
 40
1.0
 40
1.0
 40
1.0
 10
1.4352400000000001
 20
-3.4219400000000002
 30
0.0
 10
1.6333600000000001
 20
-3.4625800000000004
 30
0.0
 10
1.61304
 20
-3.7369000000000003
 30
0.0
 10
1.5724
 20
-3.8943800000000004
 30
0.0
 10
1.5724
 20
-3.8943800000000004
 30
0.0
 10
1.5724
 20
-3.8943800000000004
 30
0.0
 10
1.5139800000000001
 20
-3.8359600000000005
 30
0.0
 10
1.5139800000000001
 20
-3.8359600000000005
 30
0.0
 10
1.5139800000000001
 20
-3.8359600000000005
 30
0.0
 10
1.5520800000000001
 20
-3.6784800000000004
 30
0.0
 10
1.31586
 20
-3.5591000000000004
 30
0.0
 10
1.4352400000000001
 20
-3.4219400000000002
 30
0.0
  0
SPLINE
  5
38
100
AcDbEntity
  8
Ebene 1
 62
     7
100
AcDbSpline
210
0.0
220
0.0
230
1.0
 70
     1
 71
     3
 72
    16
 73
    12
 74
     0
 42
0.0000000001
 43
0.0000000001
 40
0.0
 40
0.0
 40
0.0
 40
0.0
 40
0.3333333333333333
 40
0.3333333333333333
 40
0.3333333333333333
 40
0.3333333333333333
 40
0.6666666666666666
 40
0.6666666666666666
 40
0.6666666666666666
 40
0.6666666666666666
 40
1.0
 40
1.0
 40
1.0
 40
1.0
 10
-1.5086100000000002
 20
-4.1737800000000007
 30
0.0
 10
-1.3892300000000002
 20
-4.2525200000000005
 30
0.0
 10
-1.5517900000000002
 20
-4.3896800000000002
 30
0.0
 10
-1.6025900000000002
 20
-4.4684200000000001
 30
0.0
 10
-1.6025900000000002
 20
-4.4684200000000001
 30
0.0
 10
-1.6025900000000002
 20
-4.4684200000000001
 30
0.0
 10
-1.5975100000000002
 20
-4.0975800000000007
 30
0.0
 10
-1.5975100000000002
 20
-4.0975800000000007
 30
0.0
 10
-1.5975100000000002
 20
-4.0975800000000007
 30
0.0
 10
-1.5975100000000002
 20
-4.0975800000000007
 30
0.0
 10
-1.5086100000000002
 20
-4.1737800000000007
 30
0.0
 10
-1.5086100000000002
 20
-4.1737800000000007
 30
0.0
  0
SPLINE
  5
39
100
AcDbEntity
  8
Ebene 1
 62
     7
100
AcDbSpline
210
0.0
220
0.0
230
1.0
 70
     1
 71
     3
 72
    12
 73
     8
 74
     0
 42
0.0000000001
 43
0.0000000001
 40
0.0
 40
0.0
 40
0.0
 40
0.0
 40
0.5
 40
0.5
 40
0.5
 40
0.5
 40
1.0
 40
1.0
 40
1.0
 40
1.0
 10
0.9602600000000001
 20
-4.19156
 30
0.0
 10
1.27776
 20
-4.4684200000000001
 30
0.0
 10
1.2955400000000001
 20
-4.9637200000000004
 30
0.0
 10
1.1761600000000001
 20
-5.3574200000000003
 30
0.0
 10
1.1761600000000001
 20
-5.3574200000000003
 30
0.0
 10
1.05932
 20
-5.0018200000000004
 30
0.0
 10
0.9196200000000001
 20
-4.5878000000000005
 30
0.0
 10
0.9602600000000001
 20
-4.19156
 30
0.0
  0
SPLINE
  5
3A
100
AcDbEntity
  8
Ebene 1
 62
     7
100
AcDbSpline
210
0.0
220
0.0
230
1.0
 70
     1
 71
     3
 72
    12
 73
     8
 74
     0
 42
0.0000000001
 43
0.0000000001
 40
0.0
 40
0.0
 40
0.0
 40
0.0
 40
0.5
 40
0.5
 40
0.5
 40
0.5
 40
1.0
 40
1.0
 40
1.0
 40
1.0
 10
-1.2317500000000001
 20
-4.2322000000000006
 30
0.0
 10
-1.04125
 20
-4.3515800000000002
 30
0.0
 10
-1.2012700000000001
 20
-4.6665400000000004
 30
0.0
 10
-1.3231900000000001
 20
-4.78592
 30
0.0
 10
-1.3231900000000001
 20
-4.78592
 30
0.0
 10
-1.4019300000000001
 20
-4.6081200000000004
 30
0.0
 10
-1.3892300000000002
 20
-4.3693600000000004
 30
0.0
 10
-1.2317500000000001
 20
-4.2322000000000006
 30
0.0
  0
SPLINE
  5
3B
100
AcDbEntity
  8
Ebene 1
 62
     7
100
AcDbSpline
210
0.0
220
0.0
230
1.0
 70
     1
 71
     3
 72
    12
 73
     8
 74
     0
 42
0.0000000001
 43
0.0000000001
 40
0.0
 40
0.0
 40
0.0
 40
0.0
 40
0.5
 40
0.5
 40
0.5
 40
0.5
 40
1.0
 40
1.0
 40
1.0
 40
1.0
 10
-1.0133100000000002
 20
-4.5090600000000007
 30
0.0
 10
-0.8101100000000001
 20
-4.8037000000000001
 30
0.0
 10
-0.8405900000000001
 20
-5.2405800000000005
 30
0.0
 10
-1.08697
 20
-5.5174400000000006
 30
0.0
 10
-1.08697
 20
-5.5174400000000006
 30
0.0
 10
-1.2215900000000002
 20
-5.1999400000000007
 30
0.0
 10
-1.1326900000000002
 20
-4.8037000000000001
 30
0.0
 10
-1.0133100000000002
 20
-4.5090600000000007
 30
0.0
  0
SPLINE
  5
3C
100
AcDbEntity
  8
Ebene 1
 62
     7
100
AcDbSpline
210
0.0
220
0.0
230
1.0
 70
     1
 71
     3
 72
    12
 73
     8
 74
     0
 42
0.0000000001
 43
0.0000000001
 40
0.0
 40
0.0
 40
0.0
 40
0.0
 40
0.5
 40
0.5
 40
0.5
 40
0.5
 40
1.0
 40
1.0
 40
1.0
 40
1.0
 10
0.6834
 20
-4.6462200000000005
 30
0.0
 10
0.9399400000000001
 20
-4.8443400000000008
 30
0.0
 10
0.8612000000000001
 20
-5.1999400000000007
 30
0.0
 10
0.76214
 20
-5.4564800000000009
 30
0.0
 10
0.76214
 20
-5.4564800000000009
 30
0.0
 10
0.5640200000000001
 20
-5.2405800000000005
 30
0.0
 10
0.5462400000000001
 20
-4.9027600000000007
 30
0.0
 10
0.6834
 20
-4.6462200000000005
 30
0.0
  0
SPLINE
  5
3D
100
AcDbEntity
  8
Ebene 1
 62
     7
100
AcDbSpline
210
0.0
220
0.0
230
1.0
 70
     1
 71
     3
 72
    12
 73
     8
 74
     0
 42
0.0000000001
 43
0.0000000001
 40
0.0
 40
0.0
 40
0.0
 40
0.0
 40
0.5
 40
0.5
 40
0.5
 40
0.5
 40
1.0
 40
1.0
 40
1.0
 40
1.0
 10
-0.5992900000000001
 20
-4.8443400000000008
 30
0.0
 10
-0.48753
 20
-5.1008800000000001
 30
0.0
 10
-0.35037
 20
-5.4971200000000007
 30
0.0
 10
-0.55357
 20
-5.7536600000000009
 30
0.0
 10
-0.55357
 20
-5.7536600000000009
 30
0.0
 10
-0.6196100000000001
 20
-5.4768000000000008
 30
0.0
 10
-0.76185
 20
-5.1212000000000009
 30
0.0
 10
-0.5992900000000001
 20
-4.8443400000000008
 30
0.0
  0
ENDSEC
  0
SECTION
  2
OBJECTS
  0
DICTIONARY
  5
19
100
AcDbDictionary
280
     0
281
     1
  3
ACAD_GROUP
350
1A
  3
ACAD_MLINESTYLE
350
1B
  3
ACAD_LAYOUT
350
1E
  3
ACAD_PLOTSETTINGS
350
22
  3
ACAD_PLOTSTYLENAME
350
1F
  3
ACAD_WIPEOUT_VARS
350
23
  0
DICTIONARY
  5
1A
102
{ACAD_REACTORS
330
19
102
}
100
AcDbDictionary
280
     0
281
     1
  0
DICTIONARY
  5
1B
102
{ACAD_REACTORS
330
19
102
}
100
AcDbDictionary
280
     0
281
     1
  3
Standard
350
1C
  0
MLINESTYLE
  5
1C
102
{ACAD_REACTORS
330
1B
102
}
100
AcDbMlineStyle
  2
Standard
 70
     0
  3

 62
     0
 51
90.0
 52
90.0
 71
     2
 49
0.5
 62
   256
  6
BYLAYER
 49
-0.5
 62
   256
  6
BYLAYER
  0
ACDBDICTIONARYWDFLT
  5
1F
102
{ACAD_REACTORS
330
19
102
}
100
AcDbDictionary
281
     1
  3
Normal
350
1D
100
AcDbDictionaryWithDefault
340
1D
  0
ACDBPLACEHOLDER
  5
1D
102
{ACAD_REACTORS
330
1F
102
}
  0
LAYOUT
  5
20
102
{ACAD_REACTORS
330
1E
102
}
100
AcDbPlotSettings
  1

  2

  4

  6

 40
0.0
 41
0.0
 42
0.0
 43
0.0
 44
0.0
 45
0.0
 46
0.0
 47
0.0
 48
0.0
 49
0.0
140
0.0
141
0.0
142
1.0
143
1.0
 70
  1024
 72
     0
 73
     0
 74
     0
  7

 75
     0
147
1.0
148
0.0
149
0.0
100
AcDbLayout
  1
Model
 70
     0
 71
     0
 10
0.0
 20
0.0
 11
0.0
 21
0.0
 12
0.0
 22
0.0
 32
0.0
 14
0.0
 24
0.0
 34
0.0
 15
0.0
 25
0.0
 35
0.0
146
0.0
 13
0.0
 23
0.0
 33
0.0
 16
0.0
 26
0.0
 36
0.0
 17
0.0
 27
0.0
 37
0.0
 76
     0
330
A
331
0
345
0
346
0
  0
LAYOUT
  5
21
102
{ACAD_REACTORS
330
1E
102
}
100
AcDbPlotSettings
  1

  2

  4

  6

 40
0.0
 41
0.0
 42
0.0
 43
0.0
 44
0.0
 45
0.0
 46
0.0
 47
0.0
 48
0.0
 49
0.0
140
0.0
141
0.0
142
1.0
143
1.0
 70
     0
 72
     0
 73
     0
 74
     0
  7

 75
     0
147
1.0
148
0.0
149
0.0
100
AcDbLayout
  1
Layout1
 70
     0
 71
     0
 10
0.0
 20
0.0
 11
0.0
 21
0.0
 12
0.0
 22
0.0
 32
0.0
 14
0.0
 24
0.0
 34
0.0
 15
0.0
 25
0.0
 35
0.0
146
0.0
 13
0.0
 23
0.0
 33
0.0
 16
0.0
 26
0.0
 36
0.0
 17
0.0
 27
0.0
 37
0.0
 76
     0
330
B
331
0
345
0
346
0
  0
DICTIONARY
  5
1E
102
{ACAD_REACTORS
330
19
102
}
100
AcDbDictionary
280
     0
281
     1
  3
Layout1
350
21
  3
Model
350
20
  0
DICTIONARY
  5
22
102
{ACAD_REACTORS
330
19
102
}
100
AcDbDictionary
280
     0
281
     1
  0
WIPEOUTVARIABLES
  5
23
100
AcDbWipeoutVariables
 70
     1
  0
ENDSEC
  0
EOF
