  0
SECTION
  2
HEADER
  9
$ACADVER
  1
AC1015
  9
$ACADMAINTVER
 70
     6
  9
$DWGCODEPAGE
  3
DOS850
  9
$INSBASE
 10
0.0
 20
0.0
 30
0.0
  9
$EXTMIN
 10
-4.16168
 20
-5.78985
 30
1.000000E+20
  9
$EXTMAX
 10
4.16828
 20
5.78209
 30
-1.000000E+20
  9
$LIMMIN
 10
0.0
 20
0.0
  9
$LIMMAX
 10
0.0
 20
0.0
  9
$ORTHOMODE
 70
     0
  9
$REGENMODE
 70
     1
  9
$FILLMODE
 70
     1
  9
$QTEXTMODE
 70
     0
  9
$MIRRTEXT
 70
     1
  9
$LTSCALE
 40
1.0
  9
$ATTMODE
 70
     1
  9
$TEXTSIZE
 40
0.2
  9
$TRACEWID
 40
0.05
  9
$TEXTSTYLE
  7
Standard
  9
$CLAYER
  8
0
  9
$CELTYPE
  6
Continuous
  9
$CECOLOR
 62
   256
  9
$CELTSCALE
 40
1.0
  9
$DISPSILH
 70
     0
  9
$DIMSCALE
 40
1.0
  9
$DIMASZ
 40
0.18
  9
$DIMEXO
 40
0.0625
  9
$DIMDLI
 40
0.38
  9
$DIMRND
 40
0.0
  9
$DIMDLE
 40
0.0
  9
$DIMEXE
 40
0.18
  9
$DIMTP
 40
0.0
  9
$DIMTM
 40
0.0
  9
$DIMTXT
 40
0.18
  9
$DIMCEN
 40
0.09
  9
$DIMTSZ
 40
0.0
  9
$DIMTOL
 70
     0
  9
$DIMLIM
 70
     0
  9
$DIMTIH
 70
     1
  9
$DIMTOH
 70
     1
  9
$DIMSE1
 70
     0
  9
$DIMSE2
 70
     0
  9
$DIMTAD
 70
     0
  9
$DIMZIN
 70
     0
  9
$DIMBLK
  1

  9
$DIMASO
 70
     1
  9
$DIMSHO
 70
     1
  9
$DIMPOST
  1

  9
$DIMAPOST
  1

  9
$DIMALT
 70
     0
  9
$DIMALTD
 70
     2
  9
$DIMALTF
 40
25.4
  9
$DIMLFAC
 40
1.0
  9
$DIMTOFL
 70
     0
  9
$DIMTVP
 40
0.0
  9
$DIMTIX
 70
     0
  9
$DIMSOXD
 70
     0
  9
$DIMSAH
 70
     0
  9
$DIMBLK1
  1

  9
$DIMBLK2
  1

  9
$DIMSTYLE
  2
Standard
  9
$DIMCLRD
 70
     0
  9
$DIMCLRE
 70
     0
  9
$DIMCLRT
 70
     0
  9
$DIMTFAC
 40
1.0
  9
$DIMGAP
 40
0.09
  9
$DIMJUST
 70
     0
  9
$DIMSD1
 70
     0
  9
$DIMSD2
 70
     0
  9
$DIMTOLJ
 70
     1
  9
$DIMTZIN
 70
     0
  9
$DIMALTZ
 70
     0
  9
$DIMALTTZ
 70
     0
  9
$DIMUPT
 70
     0
  9
$DIMDEC
 70
     4
  9
$DIMTDEC
 70
     4
  9
$DIMALTU
 70
     2
  9
$DIMALTTD
 70
     2
  9
$DIMTXSTY
  7
Standard
  9
$DIMAUNIT
 70
     0
  9
$DIMADEC
 70
     0
  9
$DIMALTRND
 40
0.0
  9
$DIMAZIN
 70
     0
  9
$DIMDSEP
 70
     0
  9
$DIMATFIT
 70
     3
  9
$DIMFRAC
 70
     0
  9
$DIMLDRBLK
  1

  9
$DIMLUNIT
 70
     2
  9
$DIMLWD
 70
     0
  9
$DIMLWE
 70
     0
  9
$DIMTMOVE
 70
     0
  9
$LUNITS
 70
     2
  9
$LUPREC
 70
     4
  9
$SKETCHINC
 40
0.1
  9
$FILLETRAD
 40
0.0
  9
$AUNITS
 70
     0
  9
$AUPREC
 70
     0
  9
$MENU
  1
acad
  9
$ELEVATION
 40
0.0
  9
$PELEVATION
 40
0.0
  9
$THICKNESS
 40
0.0
  9
$LIMCHECK
 70
     0
  9
$CHAMFERA
 40
0.0
  9
$CHAMFERB
 40
0.0
  9
$CHAMFERC
 40
0.0
  9
$CHAMFERD
 40
0.0
  9
$SKPOLY
 70
     0
  9
$TDCREATE
 40
0.000000000
  9
$TDUCREATE
 40
0.000000000
  9
$TDUPDATE
 40
0.000000000
  9
$TDUUPDATE
 40
0.000000000
  9
$TDINDWG
 40
0.0000000000
  9
$TDUSRTIMER
 40
0.0000000000
  9
$USRTIMER
 70
     1
  9
$ANGBASE
 50
0.0
  9
$ANGDIR
 70
     0
  9
$PDMODE
 70
     0
  9
$PDSIZE
 40
0.0
  9
$PLINEWID
 40
0.0
  9
$SPLFRAME
 70
     0
  9
$SPLINETYPE
 70
     6
  9
$SPLINESEGS
 70
     8
  9
$HANDSEED
  5
6D
  9
$SURFTAB1
 70
     6
  9
$SURFTAB2
 70
     6
  9
$SURFTYPE
 70
     6
  9
$SURFU
 70
     6
  9
$SURFV
 70
     6
  9
$UCSBASE
  2

  9
$UCSNAME
  2

  9
$UCSORG
 10
0.0
 20
0.0
 30
0.0
  9
$UCSXDIR
 10
1.0
 20
0.0
 30
0.0
  9
$UCSYDIR
 10
0.0
 20
1.0
 30
0.0
  9
$UCSORTHOREF
  2

  9
$UCSORTHOVIEW
 70
     0
  9
$UCSORGTOP
 10
0.0
 20
0.0
 30
0.0
  9
$UCSORGBOTTOM
 10
0.0
 20
0.0
 30
0.0
  9
$UCSORGLEFT
 10
0.0
 20
0.0
 30
0.0
  9
$UCSORGRIGHT
 10
0.0
 20
0.0
 30
0.0
  9
$UCSORGFRONT
 10
0.0
 20
0.0
 30
0.0
  9
$UCSORGBACK
 10
0.0
 20
0.0
 30
0.0
  9
$PUCSBASE
  2

  9
$PUCSNAME
  2

  9
$PUCSORG
 10
0.0
 20
0.0
 30
0.0
  9
$PUCSXDIR
 10
1.0
 20
0.0
 30
0.0
  9
$PUCSYDIR
 10
0.0
 20
1.0
 30
0.0
  9
$PUCSORTHOREF
  2

  9
$PUCSORTHOVIEW
 70
     0
  9
$PUCSORGTOP
 10
0.0
 20
0.0
 30
0.0
  9
$PUCSORGBOTTOM
 10
0.0
 20
0.0
 30
0.0
  9
$PUCSORGLEFT
 10
0.0
 20
0.0
 30
0.0
  9
$PUCSORGRIGHT
 10
0.0
 20
0.0
 30
0.0
  9
$PUCSORGFRONT
 10
0.0
 20
0.0
 30
0.0
  9
$PUCSORGBACK
 10
0.0
 20
0.0
 30
0.0
  9
$USERI1
 70
     0
  9
$USERI2
 70
     0
  9
$USERI3
 70
     0
  9
$USERI4
 70
     0
  9
$USERI5
 70
     0
  9
$USERR1
 40
0.0
  9
$USERR2
 40
0.0
  9
$USERR3
 40
0.0
  9
$USERR4
 40
0.0
  9
$USERR5
 40
0.0
  9
$WORLDVIEW
 70
     1
  9
$SHADEDGE
 70
     3
  9
$SHADEDIF
 70
    70
  9
$TILEMODE
 70
     1
  9
$MAXACTVP
 70
    16
  9
$PINSBASE
 10
0.0
 20
0.0
 30
0.0
  9
$PLIMCHECK
 70
     0
  9
$PEXTMIN
 10
1.000000E+20
 20
1.000000E+20
 30
1.000000E+20
  9
$PEXTMAX
 10
-1.000000E+20
 20
-1.000000E+20
 30
-1.000000E+20
  9
$PLIMMIN
 10
0.0
 20
0.0
  9
$PLIMMAX
 10
12.0
 20
9.0
  9
$UNITMODE
 70
     0
  9
$VISRETAIN
 70
     0
  9
$PLINEGEN
 70
     1
  9
$PSLTSCALE
 70
     0
  9
$TREEDEPTH
 70
  3020
  9
$CMLSTYLE
  2
Standard
  9
$CMLJUST
 70
     0
  9
$CMLSCALE
 40
1.0
  9
$PROXYGRAPHICS
 70
     0
  9
$MEASUREMENT
 70
     0
  9
$CELWEIGHT
370
     0
  9
$ENDCAPS
280
     0
  9
$JOINSTYLE
280
     0
  9
$LWDISPLAY
290
     0
  9
$INSUNITS
 70
     5
  9
$HYPERLINKBASE
  1

  9
$XEDIT
290
     1
  9
$CEPSNTYPE
380
     0
  9
$PSTYLEMODE
290
     1
  9
$FINGERPRINTGUID
  2

  9
$VERSIONGUID
  2

  9
$EXTNAMES
290
     1
  9
$PSVPSCALE
 40
0.0
  0
ENDSEC
  0
SECTION
  2
CLASSES
  0
CLASS
  1
LWPOLYLINE
  2
AcDbPolyline
  3
AutoCAD 2000
 90
    32768
280
     0
281
     1
  0
CLASS
  1
IMAGE
  2
AcDbRasterImage
  3
ISM
 90
    32895
280
     0
281
     1
  0
CLASS
  1
OLE2FRAME
  2
AcDbOle2Frame
  3
AutoCAD 2000
 90
    32768
280
     0
281
     1
  0
CLASS
  1
HATCH
  2
AcDbHatch
  3
AutoCAD 2000
 90
    32768
280
     0
281
     1
  0
CLASS
  1
DICTIONARYVAR
  2
AcDbDictionaryVar
  3
AutoCAD 2000
 90
    32768
280
     0
281
     0
  0
CLASS
  1
RASTERVARIABLES
  2
AcDbRasterVariables
  3
ISM
 90
    32768
280
     0
281
     0
  0
CLASS
  1
IMAGEDEF
  2
AcDbRasterImageDef
  3
ISM
 90
    32768
280
     0
281
     0
  0
CLASS
  1
IMAGEDEF_REACTOR
  2
AcDbRasterImageDefReactor
  3
ISM
 90
    32769
280
     0
281
     0
  0
CLASS
  1
IDBUFFER
  2
AcDbIdBuffer
  3
AutoCAD 2000
 90
    32768
280
     0
281
     0
  0
CLASS
  1
SPATIAL_FILTER
  2
AcDbSpatialFilter
  3
AutoCAD 2000
 90
    32768
280
     0
281
     0
  0
CLASS
  1
XRECORD
  2
AcDbXrecord
  3
AutoCAD 2000
 90
    32768
280
     0
281
     0
  0
CLASS
  1
SORTENTSTABLE
  2
AcDbSortentsTable
  3
AutoCAD 2000
 90
    32768
280
     0
281
     0
  0
CLASS
  1
LAYER_INDEX
  2
AcDbLayerIndex
  3
AutoCAD 2000
 90
    32768
280
     0
281
     0
  0
CLASS
  1
SPATIAL_INDEX
  2
AcDbSpatialIndex
  3
AutoCAD 2000
 90
    32768
280
     0
281
     0
  0
CLASS
  1
OBJECT_PTR
  2
CAseDLPNTableRecord
  3
"ASE-LPNTableRecord"
 90
    32769
280
     0
281
     0
  0
CLASS
  1
LAYOUT
  2
AcDbLayout
  3
AutoCAD 2000
 90
        0
280
     0
281
     0
  0
CLASS
  1
PLOTSETTINGS
  2
AcDbPlotSettings
  3
AutoCAD 2000
 90
    32768
280
     0
281
     0
  0
CLASS
  1
ACDBDICTIONARYWDFLT
  2
AcDbDictionaryWithDefault
  3
AutoCAD 2000
 90
        0
280
     0
281
     0
  0
CLASS
  1
ACDBPLACEHOLDER
  2
AcDbPlaceHolder
  3
AutoCAD 2000
 90
        0
280
     0
281
     0
  0
CLASS
  1
VBA_PROJECT
  2
AcDbVbaProject
  3
acadvba
 90
    32768
280
     0
281
     0
  0
CLASS
  1
WIPEOUT
  2
AcDbWipeout
  3
WipeOut|AutoCAD Express Tool|expresstools@autodesk.com
 90
    32895
280
     0
281
     1
  0
CLASS
  1
WIPEOUTVARIABLES
  2
AcDbWipeoutVariables
  3
WipeOut|AutoCAD Express Tool|expresstools@autodesk.com
 90
        0
280
     0
281
     0
  0
CLASS
  1
RTEXT
  2
RText
  3
RText|AutoCAD Express Tool|expresstools@autodesk.com
 90
    32768
280
     0
281
     1
  0
CLASS
  1
ARCALIGNEDTEXT
  2
AcDbArcAlignedText
  3
ATEXT|AutoCAD Express Tool|expresstools@autodesk.com
 90
    32768
280
     0
281
     1
  0
ENDSEC
  0
SECTION
  2
TABLES
  0
TABLE
  2
VPORT
  5
7
100
AcDbSymbolTable
 70
     1
  0
VPORT
  5
15
100
AcDbSymbolTableRecord
100
AcDbViewportTableRecord
  2
*ACTIVE
 70
     0
 10
0.0
 20
0.0
 11
1.0
 21
1.0
 12
6.591288
 22
4.579184
 13
0.0
 23
0.0
 14
1.0
 24
1.0
 15
0.0
 25
0.0
 16
0.0
 26
0.0
 36
1.0
 17
0.0
 27
0.0
 37
0.0
 40
9.158369
 41
0.688564
 42
50.0
 43
0.0
 44
0.0
 50
0.0
 51
0.0
 71
     0
 72
   100
 73
     1
 74
     1
 75
     0
 76
     0
 77
     0
 78
     0
281
     0
 65
     0
110
0.0
120
0.0
130
0.0
111
1.0
121
0.0
131
0.0
112
0.0
122
1.0
132
0.0
345
0
346
0
 79
     0
146
0.0
  0
ENDTAB
  0
TABLE
  2
LTYPE
  5
4
100
AcDbSymbolTable
 70
     3
  0
LTYPE
  5
11
100
AcDbSymbolTableRecord
100
AcDbLinetypeTableRecord
  2
ByBlock
 70
    64
  3

 72
    65
 73
     0
 40
0.0
  0
LTYPE
  5
12
100
AcDbSymbolTableRecord
100
AcDbLinetypeTableRecord
  2
ByLayer
 70
    64
  3

 72
    65
 73
     0
 40
0.0
  0
LTYPE
  5
13
100
AcDbSymbolTableRecord
100
AcDbLinetypeTableRecord
  2
Continuous
 70
    64
  3
Solid line
 72
    65
 73
     0
 40
0.0
  0
ENDTAB
  0
TABLE
  2
LAYER
  5
2
100
AcDbSymbolTable
 70
     2
  0
LAYER
  5
14
100
AcDbSymbolTableRecord
100
AcDbLayerTableRecord
  2
0
 70
     0
 62
     7
  6
Continuous
290
     1
370
    -3
390
1D
  0
LAYER
  5
24
100
AcDbSymbolTableRecord
100
AcDbLayerTableRecord
  2
Ebene 1
 70
     0
 62
     7
  6
Continuous
290
     1
370
    -3
390
1F
  0
ENDTAB
  0
TABLE
  2
STYLE
  5
3
100
AcDbSymbolTable
 70
     1
  0
STYLE
  5
17
100
AcDbSymbolTableRecord
100
AcDbTextStyleTableRecord
  2
Standard
 70
     0
 40
0.0
 41
1.0
 50
0.0
 71
     0
 42
0.0
  3
txt
  4

  0
ENDTAB
  0
TABLE
  2
VIEW
  5
5
100
AcDbSymbolTable
 70
     0
  0
ENDTAB
  0
TABLE
  2
UCS
  5
6
100
AcDbSymbolTable
 70
     0
  0
ENDTAB
  0
TABLE
  2
APPID
  5
8
100
AcDbSymbolTable
 70
     1
  0
APPID
  5
16
100
AcDbSymbolTableRecord
100
AcDbRegAppTableRecord
  2
ACAD
 70
     0
  0
ENDTAB
  0
TABLE
  2
DIMSTYLE
  5
9
100
AcDbSymbolTable
 70
     1
100
AcDbDimStyleTable
 71
     0
  0
DIMSTYLE
105
18
100
AcDbSymbolTableRecord
100
AcDbDimStyleTableRecord
  2
Standard
 70
     0
  3

  4

 40
1.0
 41
0.18
 42
0.0625
 43
0.38
 44
0.18
 45
0.0
 46
0.0
 47
0.0
 48
0.0
 71
     0
 72
     0
 73
     1
 74
     1
 75
     0
 76
     0
 77
     0
 78
     0
 79
     0
140
0.18
141
0.09
142
0.0
143
25.4
144
1.0
145
0.0
146
1.0
147
0.09
148
0.0
170
     0
171
     2
172
     0
173
     0
174
     0
175
     0
176
     0
177
     0
178
     0
179
     0
271
     4
272
     4
273
     2
274
     2
275
     0
276
     0
277
     2
278
    46
279
     0
280
     0
281
     0
282
     0
283
     1
284
     0
285
     0
286
     0
288
     0
340
17
341
0
342
0
343
0
344
0
371
    -2
372
    -2
  0
ENDTAB
  0
TABLE
  2
BLOCK_RECORD
  5
1
100
AcDbSymbolTable
 70
     0
  0
BLOCK_RECORD
  5
A
100
AcDbSymbolTableRecord
100
AcDbBlockTableRecord
  2
*MODEL_SPACE
340
20
  0
BLOCK_RECORD
  5
B
100
AcDbSymbolTableRecord
100
AcDbBlockTableRecord
  2
*PAPER_SPACE
340
21
  0
ENDTAB
  0
ENDSEC
  0
SECTION
  2
BLOCKS
  0
BLOCK
  5
D
100
AcDbEntity
  8
0
100
AcDbBlockBegin
  2
*MODEL_SPACE
 70
     0
 10
0.0
 20
0.0
 30
0.0
  3
*MODEL_SPACE
  1

  0
ENDBLK
  5
E
100
AcDbEntity
  8
0
100
AcDbBlockEnd
  0
BLOCK
  5
F
100
AcDbEntity
 67
     1
  8
0
100
AcDbBlockBegin
  2
*PAPER_SPACE
 70
     0
 10
0.0
 20
0.0
 30
0.0
  3
*PAPER_SPACE
  1

  0
ENDBLK
  5
10
100
AcDbEntity
 67
     1
  8
0
100
AcDbBlockEnd
  0
ENDSEC
  0
SECTION
  2
ENTITIES
  0
SPLINE
  5
25
100
AcDbEntity
  8
Ebene 1
100
AcDbSpline
210
0.0
220
0.0
230
1.0
 70
     1
 71
     3
 72
    40
 73
    36
 74
     0
 42
0.0000000001
 43
0.0000000001
 40
0.0
 40
0.0
 40
0.0
 40
0.0
 40
0.1111111111111111
 40
0.1111111111111111
 40
0.1111111111111111
 40
0.1111111111111111
 40
0.2222222222222222
 40
0.2222222222222222
 40
0.2222222222222222
 40
0.2222222222222222
 40
0.3333333333333333
 40
0.3333333333333333
 40
0.3333333333333333
 40
0.3333333333333333
 40
0.4444444444444444
 40
0.4444444444444444
 40
0.4444444444444444
 40
0.4444444444444444
 40
0.5555555555555556
 40
0.5555555555555556
 40
0.5555555555555556
 40
0.5555555555555556
 40
0.6666666666666667
 40
0.6666666666666667
 40
0.6666666666666667
 40
0.6666666666666667
 40
0.7777777777777779
 40
0.7777777777777779
 40
0.7777777777777779
 40
0.7777777777777779
 40
0.8888888888888891
 40
0.8888888888888891
 40
0.8888888888888891
 40
0.8888888888888891
 40
1.0
 40
1.0
 40
1.0
 40
1.0
 10
-0.02525
 20
5.7703100000000003
 30
0.0
 10
1.8365600000000002
 20
5.9531900000000002
 30
0.0
 10
2.6823800000000002
 20
4.1675700000000004
 30
0.0
 10
3.1726000000000001
 20
2.7121500000000003
 30
0.0
 10
3.1726000000000001
 20
2.7121500000000003
 30
0.0
 10
4.0590600000000006
 20
1.44723
 30
0.0
 10
4.8134400000000008
 20
-0.46538
 30
0.0
 10
3.2767400000000002
 20
-1.5804400000000001
 30
0.0
 10
3.2767400000000002
 20
-1.5804400000000001
 30
0.0
 10
3.5612200000000005
 20
-1.6591800000000001
 30
0.0
 10
3.8609400000000003
 20
-1.7582400000000002
 30
0.0
 10
4.1682800000000002
 20
-1.8039600000000002
 30
0.0
 10
4.1682800000000002
 20
-1.8039600000000002
 30
0.0
 10
3.7568000000000001
 20
-3.5235400000000001
 30
0.0
 10
2.4791800000000004
 20
-5.6241200000000005
 30
0.0
 10
0.5208400000000001
 20
-5.7790600000000003
 30
0.0
 10
0.5208400000000001
 20
-5.7790600000000003
 30
0.0
 10
-1.6889500000000002
 20
-5.9543200000000001
 30
0.0
 10
-4.0079700000000003
 20
-4.1890200000000002
 30
0.0
 10
-4.1095700000000006
 20
-1.9131800000000001
 30
0.0
 10
-4.1095700000000006
 20
-1.9131800000000001
 30
0.0
 10
-4.1095700000000006
 20
-1.9131800000000001
 30
0.0
 10
-3.0554700000000001
 20
-1.4534400000000001
 30
0.0
 10
-3.0554700000000001
 20
-1.4534400000000001
 30
0.0
 10
-3.0554700000000001
 20
-1.4534400000000001
 30
0.0
 10
-3.5050500000000002
 20
-1.0292600000000001
 30
0.0
 10
-4.0384500000000001
 20
-0.6685800000000001
 30
0.0
 10
-4.1298900000000005
 20
-0.03104
 30
0.0
 10
-4.1298900000000005
 20
-0.03104
 30
0.0
 10
-4.13497
 20
0.23311
 30
0.0
 10
-4.18323
 20
0.4972700000000001
 30
0.0
 10
-4.1502100000000004
 20
0.7538100000000001
 30
0.0
 10
-4.1502100000000004
 20
0.7538100000000001
 30
0.0
 10
-2.9284700000000004
 20
2.5165700000000002
 30
0.0
 10
-2.6719300000000001
 20
5.6128300000000007
 30
0.0
 10
-0.02525
 20
5.7703100000000003
 30
0.0
  0
SPLINE
  5
26
100
AcDbEntity
  8
Ebene 1
 62
     7
100
AcDbSpline
210
0.0
220
0.0
230
1.0
 70
     1
 71
     3
 72
    32
 73
    28
 74
     0
 42
0.0000000001
 43
0.0000000001
 40
0.0
 40
0.0
 40
0.0
 40
0.0
 40
0.1428571428571429
 40
0.1428571428571429
 40
0.1428571428571429
 40
0.1428571428571429
 40
0.2857142857142857
 40
0.2857142857142857
 40
0.2857142857142857
 40
0.2857142857142857
 40
0.4285714285714286
 40
0.4285714285714286
 40
0.4285714285714286
 40
0.4285714285714286
 40
0.5714285714285714
 40
0.5714285714285714
 40
0.5714285714285714
 40
0.5714285714285714
 40
0.7142857142857142
 40
0.7142857142857142
 40
0.7142857142857142
 40
0.7142857142857142
 40
0.857142857142857
 40
0.857142857142857
 40
0.857142857142857
 40
0.857142857142857
 40
1.0
 40
1.0
 40
1.0
 40
1.0
 10
0.37606
 20
5.5518700000000001
 30
0.0
 10
0.6072000000000001
 20
5.5188500000000005
 30
0.0
 10
0.8358000000000001
 20
5.4782100000000007
 30
0.0
 10
1.0644
 20
5.4197900000000008
 30
0.0
 10
1.0644
 20
5.4197900000000008
 30
0.0
 10
0.7570600000000001
 20
4.7771700000000008
 30
0.0
 10
0.59704
 20
4.0431100000000004
 30
0.0
 10
0.6300600000000001
 20
3.3065100000000003
 30
0.0
 10
0.6300600000000001
 20
3.3065100000000003
 30
0.0
 10
0.6199
 20
3.2836500000000002
 30
0.0
 10
0.59958
 20
3.2607900000000001
 30
0.0
 10
0.57418
 20
3.2531700000000003
 30
0.0
 10
0.57418
 20
3.2531700000000003
 30
0.0
 10
0.3887600000000001
 20
3.2074500000000001
 30
0.0
 10
0.45734
 20
3.4741500000000003
 30
0.0
 10
0.28716
 20
3.4589100000000004
 30
0.0
 10
0.28716
 20
3.4589100000000004
 30
0.0
 10
0.28716
 20
3.4589100000000004
 30
0.0
 10
0.46496
 20
4.4952300000000003
 30
0.0
 10
0.46496
 20
4.4952300000000003
 30
0.0
 10
0.46496
 20
4.4952300000000003
 30
0.0
 10
0.14746
 20
4.7339900000000004
 30
0.0
 10
0.2897
 20
5.1835700000000005
 30
0.0
 10
0.28716
 20
5.5315500000000002
 30
0.0
 10
0.28716
 20
5.5315500000000002
 30
0.0
 10
0.28716
 20
5.5315500000000002
 30
0.0
 10
0.37606
 20
5.5518700000000001
 30
0.0
 10
0.37606
 20
5.5518700000000001
 30
0.0
  0
SPLINE
  5
27
100
AcDbEntity
  8
Ebene 1
 62
     7
100
AcDbSpline
210
0.0
220
0.0
230
1.0
 70
     1
 71
     3
 72
    40
 73
    36
 74
     0
 42
0.0000000001
 43
0.0000000001
 40
0.0
 40
0.0
 40
0.0
 40
0.0
 40
0.1111111111111111
 40
0.1111111111111111
 40
0.1111111111111111
 40
0.1111111111111111
 40
0.2222222222222222
 40
0.2222222222222222
 40
0.2222222222222222
 40
0.2222222222222222
 40
0.3333333333333333
 40
0.3333333333333333
 40
0.3333333333333333
 40
0.3333333333333333
 40
0.4444444444444444
 40
0.4444444444444444
 40
0.4444444444444444
 40
0.4444444444444444
 40
0.5555555555555556
 40
0.5555555555555556
 40
0.5555555555555556
 40
0.5555555555555556
 40
0.6666666666666667
 40
0.6666666666666667
 40
0.6666666666666667
 40
0.6666666666666667
 40
0.7777777777777779
 40
0.7777777777777779
 40
0.7777777777777779
 40
0.7777777777777779
 40
0.8888888888888891
 40
0.8888888888888891
 40
0.8888888888888891
 40
0.8888888888888891
 40
1.0
 40
1.0
 40
1.0
 40
1.0
 10
-0.46213
 20
5.5163100000000007
 30
0.0
 10
-0.46213
 20
5.5163100000000007
 30
0.0
 10
-0.17511
 20
5.4934500000000002
 30
0.0
 10
-0.17511
 20
5.4934500000000002
 30
0.0
 10
-0.17511
 20
5.4934500000000002
 30
0.0
 10
-0.12431
 20
5.2140500000000003
 30
0.0
 10
-0.11415
 20
4.9270300000000002
 30
0.0
 10
-0.09891
 20
4.6400100000000002
 30
0.0
 10
-0.09891
 20
4.6400100000000002
 30
0.0
 10
-0.4824500000000001
 20
4.4850700000000003
 30
0.0
 10
-0.16495
 20
4.03803
 30
0.0
 10
0.06364
 20
3.8551500000000005
 30
0.0
 10
0.06364
 20
3.8551500000000005
 30
0.0
 10
0.06364
 20
3.8551500000000005
 30
0.0
 10
0.04332
 20
3.4944700000000002
 30
0.0
 10
0.04332
 20
3.4944700000000002
 30
0.0
 10
0.04332
 20
3.4944700000000002
 30
0.0
 10
-0.03541
 20
3.5833700000000004
 30
0.0
 10
-0.21067
 20
3.6925900000000005
 30
0.0
 10
-0.31989
 20
3.5503500000000003
 30
0.0
 10
-0.31989
 20
3.5503500000000003
 30
0.0
 10
-0.40879
 20
3.4385900000000005
 30
0.0
 10
-0.21321
 20
3.1845900000000005
 30
0.0
 10
-0.4799100000000001
 20
3.2531700000000003
 30
0.0
 10
-0.4799100000000001
 20
3.2531700000000003
 30
0.0
 10
-0.5815100000000001
 20
3.9364300000000005
 30
0.0
 10
-0.8355100000000001
 20
4.6298500000000002
 30
0.0
 10
-0.8583700000000001
 20
5.3308900000000001
 30
0.0
 10
-0.8583700000000001
 20
5.3308900000000001
 30
0.0
 10
-0.8583700000000001
 20
5.3308900000000001
 30
0.0
 10
-0.7567700000000001
 20
5.3385100000000003
 30
0.0
 10
-0.7567700000000001
 20
5.3385100000000003
 30
0.0
 10
-0.7567700000000001
 20
5.3385100000000003
 30
0.0
 10
-0.80503
 20
5.5010700000000003
 30
0.0
 10
-0.55103
 20
5.4604300000000006
 30
0.0
 10
-0.46213
 20
5.5163100000000007
 30
0.0
  0
SPLINE
  5
28
100
AcDbEntity
  8
Ebene 1
 62
     7
100
AcDbSpline
210
0.0
220
0.0
230
1.0
 70
     1
 71
     3
 72
    24
 73
    20
 74
     0
 42
0.0000000001
 43
0.0000000001
 40
0.0
 40
0.0
 40
0.0
 40
0.0
 40
0.2
 40
0.2
 40
0.2
 40
0.2
 40
0.4
 40
0.4
 40
0.4
 40
0.4
 40
0.6000000000000001
 40
0.6000000000000001
 40
0.6000000000000001
 40
0.6000000000000001
 40
0.8
 40
0.8
 40
0.8
 40
0.8
 40
1.0
 40
1.0
 40
1.0
 40
1.0
 10
1.5978000000000001
 20
5.1505500000000008
 30
0.0
 10
1.8441800000000002
 20
5.0438700000000001
 30
0.0
 10
1.9711800000000002
 20
4.8381300000000005
 30
0.0
 10
2.1413600000000002
 20
4.6222300000000001
 30
0.0
 10
2.1413600000000002
 20
4.6222300000000001
 30
0.0
 10
1.5825600000000002
 20
4.4063300000000005
 30
0.0
 10
1.3539600000000001
 20
3.8602300000000005
 30
0.0
 10
1.2650600000000001
 20
3.2938100000000001
 30
0.0
 10
1.2650600000000001
 20
3.2938100000000001
 30
0.0
 10
1.2650600000000001
 20
3.2938100000000001
 30
0.0
 10
0.9755
 20
3.2531700000000003
 30
0.0
 10
0.9755
 20
3.2531700000000003
 30
0.0
 10
0.9755
 20
3.2531700000000003
 30
0.0
 10
0.9755
 20
3.2531700000000003
 30
0.0
 10
0.9221600000000001
 20
3.2887300000000002
 30
0.0
 10
0.9221600000000001
 20
3.2887300000000002
 30
0.0
 10
0.9221600000000001
 20
3.2887300000000002
 30
0.0
 10
0.95518
 20
3.9694500000000001
 30
0.0
 10
1.1736200000000001
 20
4.6146100000000008
 30
0.0
 10
1.5978000000000001
 20
5.1505500000000008
 30
0.0
  0
SPLINE
  5
29
100
AcDbEntity
  8
Ebene 1
 62
     7
100
AcDbSpline
210
0.0
220
0.0
230
1.0
 70
     1
 71
     3
 72
    24
 73
    20
 74
     0
 42
0.0000000001
 43
0.0000000001
 40
0.0
 40
0.0
 40
0.0
 40
0.0
 40
0.2
 40
0.2
 40
0.2
 40
0.2
 40
0.4
 40
0.4
 40
0.4
 40
0.4
 40
0.6000000000000001
 40
0.6000000000000001
 40
0.6000000000000001
 40
0.6000000000000001
 40
0.8
 40
0.8
 40
0.8
 40
0.8
 40
1.0
 40
1.0
 40
1.0
 40
1.0
 10
-1.3943100000000002
 20
5.1327700000000007
 30
0.0
 10
-1.0209300000000001
 20
4.6374700000000004
 30
0.0
 10
-1.0945900000000002
 20
3.9084900000000005
 30
0.0
 10
-0.8837700000000001
 20
3.3268300000000002
 30
0.0
 10
-0.8837700000000001
 20
3.3268300000000002
 30
0.0
 10
-0.88885
 20
3.2861900000000004
 30
0.0
 10
-0.8634500000000001
 20
3.2303100000000002
 30
0.0
 10
-0.9040900000000001
 20
3.2049100000000004
 30
0.0
 10
-0.9040900000000001
 20
3.2049100000000004
 30
0.0
 10
-0.9040900000000001
 20
3.2049100000000004
 30
0.0
 10
-1.1504700000000001
 20
3.1845900000000005
 30
0.0
 10
-1.1504700000000001
 20
3.1845900000000005
 30
0.0
 10
-1.1504700000000001
 20
3.1845900000000005
 30
0.0
 10
-1.38161
 20
3.6697300000000004
 30
0.0
 10
-1.5924300000000002
 20
4.1802700000000002
 30
0.0
 10
-1.9962900000000001
 20
4.5663500000000008
 30
0.0
 10
-1.9962900000000001
 20
4.5663500000000008
 30
0.0
 10
-1.8845300000000003
 20
4.8203500000000004
 30
0.0
 10
-1.6102100000000001
 20
4.9854500000000002
 30
0.0
 10
-1.3943100000000002
 20
5.1327700000000007
 30
0.0
  0
SPLINE
  5
2A
100
AcDbEntity
  8
Ebene 1
 62
     7
100
AcDbSpline
210
0.0
220
0.0
230
1.0
 70
     1
 71
     3
 72
    56
 73
    52
 74
     0
 42
0.0000000001
 43
0.0000000001
 40
0.0
 40
0.0
 40
0.0
 40
0.0
 40
0.0769230769230769
 40
0.0769230769230769
 40
0.0769230769230769
 40
0.0769230769230769
 40
0.1538461538461539
 40
0.1538461538461539
 40
0.1538461538461539
 40
0.1538461538461539
 40
0.2307692307692308
 40
0.2307692307692308
 40
0.2307692307692308
 40
0.2307692307692308
 40
0.3076923076923077
 40
0.3076923076923077
 40
0.3076923076923077
 40
0.3076923076923077
 40
0.3846153846153846
 40
0.3846153846153846
 40
0.3846153846153846
 40
0.3846153846153846
 40
0.4615384615384616
 40
0.4615384615384616
 40
0.4615384615384616
 40
0.4615384615384616
 40
0.5384615384615386
 40
0.5384615384615386
 40
0.5384615384615386
 40
0.5384615384615386
 40
0.6153846153846154
 40
0.6153846153846154
 40
0.6153846153846154
 40
0.6153846153846154
 40
0.6923076923076923
 40
0.6923076923076923
 40
0.6923076923076923
 40
0.6923076923076923
 40
0.7692307692307692
 40
0.7692307692307692
 40
0.7692307692307692
 40
0.7692307692307692
 40
0.846153846153846
 40
0.846153846153846
 40
0.846153846153846
 40
0.846153846153846
 40
0.9230769230769229
 40
0.9230769230769229
 40
0.9230769230769229
 40
0.9230769230769229
 40
1.0
 40
1.0
 40
1.0
 40
1.0
 10
0.17286
 20
4.6400100000000002
 30
0.0
 10
0.36336
 20
4.5587300000000006
 30
0.0
 10
0.28716
 20
4.5155500000000002
 30
0.0
 10
0.16016
 20
4.4545900000000005
 30
0.0
 10
0.16016
 20
4.4545900000000005
 30
0.0
 10
0.28208
 20
4.0050100000000004
 30
0.0
 10
0.2516000000000001
 20
3.5935300000000003
 30
0.0
 10
0.19826
 20
3.1490300000000002
 30
0.0
 10
0.19826
 20
3.1490300000000002
 30
0.0
 10
0.19826
 20
3.1490300000000002
 30
0.0
 10
0.41162
 20
3.1261700000000001
 30
0.0
 10
0.41162
 20
3.1261700000000001
 30
0.0
 10
0.41162
 20
3.1261700000000001
 30
0.0
 10
0.7519800000000001
 20
3.0855300000000003
 30
0.0
 10
0.9780400000000001
 20
3.1337900000000003
 30
0.0
 10
1.3234800000000002
 20
3.1439500000000002
 30
0.0
 10
1.3234800000000002
 20
3.1439500000000002
 30
0.0
 10
1.3234800000000002
 20
3.1439500000000002
 30
0.0
 10
1.78068
 20
3.1058500000000002
 30
0.0
 10
1.78068
 20
3.1058500000000002
 30
0.0
 10
1.78068
 20
3.1058500000000002
 30
0.0
 10
1.2676000000000001
 20
2.9051900000000002
 30
0.0
 10
0.68086
 20
2.8391500000000001
 30
0.0
 10
0.17286
 20
2.59531
 30
0.0
 10
0.17286
 20
2.59531
 30
0.0
 10
-0.37069
 20
2.8467700000000002
 30
0.0
 10
-1.03363
 20
2.7934300000000003
 30
0.0
 10
-1.5924300000000002
 20
2.9432900000000002
 30
0.0
 10
-1.5924300000000002
 20
2.9432900000000002
 30
0.0
 10
-1.4959100000000001
 20
3.1541100000000002
 30
0.0
 10
-1.2317500000000001
 20
3.0245700000000002
 30
0.0
 10
-1.04633
 20
3.0702900000000004
 30
0.0
 10
-1.04633
 20
3.0702900000000004
 30
0.0
 10
-1.04633
 20
3.0702900000000004
 30
0.0
 10
-0.13447
 20
3.1261700000000001
 30
0.0
 10
-0.13447
 20
3.1261700000000001
 30
0.0
 10
-0.13447
 20
3.1261700000000001
 30
0.0
 10
-0.02017
 20
3.1210900000000001
 30
0.0
 10
-0.07605
 20
3.2506300000000001
 30
0.0
 10
-0.05573
 20
3.3217500000000002
 30
0.0
 10
-0.05573
 20
3.3217500000000002
 30
0.0
 10
0.4090800000000001
 20
3.5376500000000002
 30
0.0
 10
0.023
 20
4.1142300000000001
 30
0.0
 10
-0.02017
 20
4.4723700000000006
 30
0.0
 10
-0.02017
 20
4.4723700000000006
 30
0.0
 10
-0.02017
 20
4.4723700000000006
 30
0.0
 10
0.11444
 20
4.4799900000000008
 30
0.0
 10
0.11444
 20
4.4799900000000008
 30
0.0
 10
0.11444
 20
4.4799900000000008
 30
0.0
 10
0.12206
 20
4.5536500000000002
 30
0.0
 10
0.08142
 20
4.6222300000000001
 30
0.0
 10
0.17286
 20
4.6400100000000002
 30
0.0
  0
SPLINE
  5
2B
100
AcDbEntity
  8
Ebene 1
 62
     7
100
AcDbSpline
210
0.0
220
0.0
230
1.0
 70
     1
 71
     3
 72
    12
 73
     8
 74
     0
 42
0.0000000001
 43
0.0000000001
 40
0.0
 40
0.0
 40
0.0
 40
0.0
 40
0.5
 40
0.5
 40
0.5
 40
0.5
 40
1.0
 40
1.0
 40
1.0
 40
1.0
 10
0.2643
 20
4.38347
 30
0.0
 10
0.34812
 20
4.3758500000000007
 30
0.0
 10
0.31002
 20
4.2742500000000003
 30
0.0
 10
0.27954
 20
4.2259900000000004
 30
0.0
 10
0.27954
 20
4.2259900000000004
 30
0.0
 10
0.22112
 20
4.2513900000000007
 30
0.0
 10
0.2135
 20
4.3428300000000002
 30
0.0
 10
0.2643
 20
4.38347
 30
0.0
  0
SPLINE
  5
2C
100
AcDbEntity
  8
Ebene 1
 62
     7
100
AcDbSpline
210
0.0
220
0.0
230
1.0
 70
     1
 71
     3
 72
    40
 73
    36
 74
     0
 42
0.0000000001
 43
0.0000000001
 40
0.0
 40
0.0
 40
0.0
 40
0.0
 40
0.1111111111111111
 40
0.1111111111111111
 40
0.1111111111111111
 40
0.1111111111111111
 40
0.2222222222222222
 40
0.2222222222222222
 40
0.2222222222222222
 40
0.2222222222222222
 40
0.3333333333333333
 40
0.3333333333333333
 40
0.3333333333333333
 40
0.3333333333333333
 40
0.4444444444444444
 40
0.4444444444444444
 40
0.4444444444444444
 40
0.4444444444444444
 40
0.5555555555555556
 40
0.5555555555555556
 40
0.5555555555555556
 40
0.5555555555555556
 40
0.6666666666666667
 40
0.6666666666666667
 40
0.6666666666666667
 40
0.6666666666666667
 40
0.7777777777777779
 40
0.7777777777777779
 40
0.7777777777777779
 40
0.7777777777777779
 40
0.8888888888888891
 40
0.8888888888888891
 40
0.8888888888888891
 40
0.8888888888888891
 40
1.0
 40
1.0
 40
1.0
 40
1.0
 10
2.3801200000000002
 20
4.2031300000000007
 30
0.0
 10
2.4131400000000003
 20
4.20059
 30
0.0
 10
2.4487000000000001
 20
4.21075
 30
0.0
 10
2.46902
 20
4.1802700000000002
 30
0.0
 10
2.46902
 20
4.1802700000000002
 30
0.0
 10
2.6138000000000003
 20
3.7433900000000002
 30
0.0
 10
2.7839800000000001
 20
3.3166700000000002
 30
0.0
 10
3.0176600000000002
 20
2.9128100000000003
 30
0.0
 10
3.0176600000000002
 20
2.9128100000000003
 30
0.0
 10
2.6417400000000004
 20
3.1058500000000002
 30
0.0
 10
2.2404200000000003
 20
2.8823300000000001
 30
0.0
 10
1.8949800000000001
 20
2.7477100000000001
 30
0.0
 10
1.8949800000000001
 20
2.7477100000000001
 30
0.0
 10
1.8543400000000001
 20
2.8670900000000001
 30
0.0
 10
1.7832200000000002
 20
3.0423500000000003
 30
0.0
 10
1.9407000000000001
 20
3.1109300000000002
 30
0.0
 10
1.9407000000000001
 20
3.1109300000000002
 30
0.0
 10
1.9000600000000001
 20
3.3573100000000005
 30
0.0
 10
2.2404200000000003
 20
3.6265500000000004
 30
0.0
 10
2.4233000000000002
 20
3.3496900000000003
 30
0.0
 10
2.4233000000000002
 20
3.3496900000000003
 30
0.0
 10
2.46902
 20
3.3217500000000002
 30
0.0
 10
2.4868000000000001
 20
3.3776300000000004
 30
0.0
 10
2.46902
 20
3.4131900000000002
 30
0.0
 10
2.46902
 20
3.4131900000000002
 30
0.0
 10
2.3471000000000002
 20
3.5274900000000002
 30
0.0
 10
2.1972400000000003
 20
3.6824300000000001
 30
0.0
 10
2.0219800000000001
 20
3.6138500000000002
 30
0.0
 10
2.0219800000000001
 20
3.6138500000000002
 30
0.0
 10
1.8848200000000002
 20
3.5147900000000001
 30
0.0
 10
1.8365600000000002
 20
3.2785700000000002
 30
0.0
 10
1.65622
 20
3.2760300000000004
 30
0.0
 10
1.65622
 20
3.2760300000000004
 30
0.0
 10
1.7451200000000002
 20
3.6468700000000003
 30
0.0
 10
1.9610200000000002
 20
4.1294700000000004
 30
0.0
 10
2.3801200000000002
 20
4.2031300000000007
 30
0.0
  0
SPLINE
  5
2D
100
AcDbEntity
  8
Ebene 1
 62
     7
100
AcDbSpline
210
0.0
220
0.0
230
1.0
 70
     1
 71
     3
 72
    28
 73
    24
 74
     0
 42
0.0000000001
 43
0.0000000001
 40
0.0
 40
0.0
 40
0.0
 40
0.0
 40
0.1666666666666667
 40
0.1666666666666667
 40
0.1666666666666667
 40
0.1666666666666667
 40
0.3333333333333333
 40
0.3333333333333333
 40
0.3333333333333333
 40
0.3333333333333333
 40
0.5
 40
0.5
 40
0.5
 40
0.5
 40
0.6666666666666666
 40
0.6666666666666666
 40
0.6666666666666666
 40
0.6666666666666666
 40
0.8333333333333333
 40
0.8333333333333333
 40
0.8333333333333333
 40
0.8333333333333333
 40
1.0
 40
1.0
 40
1.0
 40
1.0
 10
-2.4331700000000001
 20
4.0024700000000006
 30
0.0
 10
-1.9658100000000001
 20
4.0253300000000003
 30
0.0
 10
-1.6203700000000001
 20
3.5147900000000001
 30
0.0
 10
-1.50607
 20
3.1490300000000002
 30
0.0
 10
-1.50607
 20
3.1490300000000002
 30
0.0
 10
-1.79817
 20
3.2760300000000004
 30
0.0
 10
-2.2198100000000003
 20
3.6519500000000003
 30
0.0
 10
-2.5068300000000003
 20
3.3623900000000004
 30
0.0
 10
-2.5068300000000003
 20
3.3623900000000004
 30
0.0
 10
-2.5169900000000003
 20
3.3268300000000002
 30
0.0
 10
-2.4890500000000002
 20
3.2709500000000005
 30
0.0
 10
-2.4509500000000002
 20
3.3065100000000003
 30
0.0
 10
-2.4509500000000002
 20
3.3065100000000003
 30
0.0
 10
-2.1918700000000002
 20
3.5655900000000003
 30
0.0
 10
-1.5644900000000002
 20
3.0575900000000003
 30
0.0
 10
-1.8362700000000001
 20
2.7654900000000002
 30
0.0
 10
-1.8362700000000001
 20
2.7654900000000002
 30
0.0
 10
-2.1232900000000003
 20
2.9763100000000002
 30
0.0
 10
-2.4636500000000003
 20
3.0575900000000003
 30
0.0
 10
-2.8116300000000001
 20
3.0753700000000004
 30
0.0
 10
-2.8116300000000001
 20
3.0753700000000004
 30
0.0
 10
-2.69733
 20
3.3827100000000003
 30
0.0
 10
-2.5804900000000002
 20
3.7052900000000002
 30
0.0
 10
-2.4331700000000001
 20
4.0024700000000006
 30
0.0
  0
SPLINE
  5
2E
100
AcDbEntity
  8
Ebene 1
 62
     7
100
AcDbSpline
210
0.0
220
0.0
230
1.0
 70
     1
 71
     3
 72
     8
 73
     4
 74
     0
 42
0.0000000001
 43
0.0000000001
 40
0.0
 40
0.0
 40
0.0
 40
0.0
 40
1.0
 40
1.0
 40
1.0
 40
1.0
 10
-0.17003
 20
3.5630500000000005
 30
0.0
 10
-0.07605
 20
3.5147900000000001
 30
0.0
 10
-0.26909
 20
3.5046300000000001
 30
0.0
 10
-0.17003
 20
3.5630500000000005
 30
0.0
  0
SPLINE
  5
2F
100
AcDbEntity
  8
Ebene 1
 62
     7
100
AcDbSpline
210
0.0
220
0.0
230
1.0
 70
     1
 71
     3
 72
    16
 73
    12
 74
     0
 42
0.0000000001
 43
0.0000000001
 40
0.0
 40
0.0
 40
0.0
 40
0.0
 40
0.3333333333333333
 40
0.3333333333333333
 40
0.3333333333333333
 40
0.3333333333333333
 40
0.6666666666666666
 40
0.6666666666666666
 40
0.6666666666666666
 40
0.6666666666666666
 40
1.0
 40
1.0
 40
1.0
 40
1.0
 10
0.3024
 20
3.3801700000000001
 30
0.0
 10
0.37606
 20
3.3700100000000002
 30
0.0
 10
0.404
 20
3.2607900000000001
 30
0.0
 10
0.32018
 20
3.2328500000000004
 30
0.0
 10
0.32018
 20
3.2328500000000004
 30
0.0
 10
0.32018
 20
3.2328500000000004
 30
0.0
 10
0.30748
 20
3.2506300000000001
 30
0.0
 10
0.30748
 20
3.2506300000000001
 30
0.0
 10
0.30748
 20
3.2506300000000001
 30
0.0
 10
0.3532
 20
3.3065100000000003
 30
0.0
 10
0.21096
 20
3.3420700000000001
 30
0.0
 10
0.3024
 20
3.3801700000000001
 30
0.0
  0
SPLINE
  5
30
100
AcDbEntity
  8
Ebene 1
100
AcDbSpline
210
0.0
220
0.0
230
1.0
 70
     1
 71
     3
 72
    12
 73
     8
 74
     0
 42
0.0000000001
 43
0.0000000001
 40
0.0
 40
0.0
 40
0.0
 40
0.0
 40
0.5
 40
0.5
 40
0.5
 40
0.5
 40
1.0
 40
1.0
 40
1.0
 40
1.0
 10
-0.35291
 20
3.0525100000000003
 30
0.0
 10
-0.26401
 20
3.0728300000000002
 30
0.0
 10
-0.18781
 20
2.9229700000000003
 30
0.0
 10
-0.24623
 20
2.8569300000000002
 30
0.0
 10
-0.24623
 20
2.8569300000000002
 30
0.0
 10
-0.38085
 20
2.8086700000000002
 30
0.0
 10
-0.42403
 20
2.9712300000000003
 30
0.0
 10
-0.35291
 20
3.0525100000000003
 30
0.0
  0
SPLINE
  5
31
100
AcDbEntity
  8
Ebene 1
100
AcDbSpline
210
0.0
220
0.0
230
1.0
 70
     1
 71
     3
 72
    12
 73
     8
 74
     0
 42
0.0000000001
 43
0.0000000001
 40
0.0
 40
0.0
 40
0.0
 40
0.0
 40
0.5
 40
0.5
 40
0.5
 40
0.5
 40
1.0
 40
1.0
 40
1.0
 40
1.0
 10
0.06364
 20
3.0525100000000003
 30
0.0
 10
0.20334
 20
3.0956900000000003
 30
0.0
 10
0.40654
 20
2.9483700000000002
 30
0.0
 10
0.29732
 20
2.8213700000000004
 30
0.0
 10
0.29732
 20
2.8213700000000004
 30
0.0
 10
0.12206
 20
2.6537300000000004
 30
0.0
 10
-0.16749
 20
2.9178900000000003
 30
0.0
 10
0.06364
 20
3.0525100000000003
 30
0.0
  0
SPLINE
  5
32
100
AcDbEntity
  8
Ebene 1
100
AcDbSpline
210
0.0
220
0.0
230
1.0
 70
     1
 71
     3
 72
    16
 73
    12
 74
     0
 42
0.0000000001
 43
0.0000000001
 40
0.0
 40
0.0
 40
0.0
 40
0.0
 40
0.3333333333333333
 40
0.3333333333333333
 40
0.3333333333333333
 40
0.3333333333333333
 40
0.6666666666666666
 40
0.6666666666666666
 40
0.6666666666666666
 40
0.6666666666666666
 40
1.0
 40
1.0
 40
1.0
 40
1.0
 10
0.5208400000000001
 20
3.0525100000000003
 30
0.0
 10
0.6046600000000001
 20
3.0652100000000004
 30
0.0
 10
0.7164200000000001
 20
2.9991700000000003
 30
0.0
 10
0.6453000000000001
 20
2.9128100000000003
 30
0.0
 10
0.6453000000000001
 20
2.9128100000000003
 30
0.0
 10
0.6453000000000001
 20
2.9128100000000003
 30
0.0
 10
0.49036
 20
2.9128100000000003
 30
0.0
 10
0.49036
 20
2.9128100000000003
 30
0.0
 10
0.49036
 20
2.9128100000000003
 30
0.0
 10
0.49036
 20
2.9128100000000003
 30
0.0
 10
0.5208400000000001
 20
3.0525100000000003
 30
0.0
 10
0.5208400000000001
 20
3.0525100000000003
 30
0.0
  0
SPLINE
  5
33
100
AcDbEntity
  8
Ebene 1
100
AcDbSpline
210
0.0
220
0.0
230
1.0
 70
     1
 71
     3
 72
    12
 73
     8
 74
     0
 42
0.0000000001
 43
0.0000000001
 40
0.0
 40
0.0
 40
0.0
 40
0.0
 40
0.5
 40
0.5
 40
0.5
 40
0.5
 40
1.0
 40
1.0
 40
1.0
 40
1.0
 10
0.9043800000000001
 20
2.9966300000000001
 30
0.0
 10
0.93486
 20
3.01187
 30
0.0
 10
0.9501000000000001
 20
2.9712300000000003
 30
0.0
 10
0.93486
 20
2.9483700000000002
 30
0.0
 10
0.93486
 20
2.9483700000000002
 30
0.0
 10
0.9043800000000001
 20
2.93059
 30
0.0
 10
0.8739000000000001
 20
2.9763100000000002
 30
0.0
 10
0.9043800000000001
 20
2.9966300000000001
 30
0.0
  0
SPLINE
  5
34
100
AcDbEntity
  8
Ebene 1
100
AcDbSpline
210
0.0
220
0.0
230
1.0
 70
     1
 71
     3
 72
    12
 73
     8
 74
     0
 42
0.0000000001
 43
0.0000000001
 40
0.0
 40
0.0
 40
0.0
 40
0.0
 40
0.5
 40
0.5
 40
0.5
 40
0.5
 40
1.0
 40
1.0
 40
1.0
 40
1.0
 10
-0.70089
 20
2.9788500000000004
 30
0.0
 10
-0.6475500000000001
 20
2.9940900000000004
 30
0.0
 10
-0.6043700000000001
 20
2.9636100000000001
 30
0.0
 10
-0.6297700000000001
 20
2.9128100000000003
 30
0.0
 10
-0.6297700000000001
 20
2.9128100000000003
 30
0.0
 10
-0.6856500000000001
 20
2.8848700000000003
 30
0.0
 10
-0.7135900000000001
 20
2.9280500000000003
 30
0.0
 10
-0.70089
 20
2.9788500000000004
 30
0.0
  0
SPLINE
  5
35
100
AcDbEntity
  8
Ebene 1
 62
     7
100
AcDbSpline
210
0.0
220
0.0
230
1.0
 70
     1
 71
     3
 72
   144
 73
   140
 74
     0
 42
0.0000000001
 43
0.0000000001
 40
0.0
 40
0.0
 40
0.0
 40
0.0
 40
0.0285714285714286
 40
0.0285714285714286
 40
0.0285714285714286
 40
0.0285714285714286
 40
0.0571428571428571
 40
0.0571428571428571
 40
0.0571428571428571
 40
0.0571428571428571
 40
0.0857142857142857
 40
0.0857142857142857
 40
0.0857142857142857
 40
0.0857142857142857
 40
0.1142857142857143
 40
0.1142857142857143
 40
0.1142857142857143
 40
0.1142857142857143
 40
0.1428571428571429
 40
0.1428571428571429
 40
0.1428571428571429
 40
0.1428571428571429
 40
0.1714285714285714
 40
0.1714285714285714
 40
0.1714285714285714
 40
0.1714285714285714
 40
0.2
 40
0.2
 40
0.2
 40
0.2
 40
0.2285714285714286
 40
0.2285714285714286
 40
0.2285714285714286
 40
0.2285714285714286
 40
0.2571428571428572
 40
0.2571428571428572
 40
0.2571428571428572
 40
0.2571428571428572
 40
0.2857142857142858
 40
0.2857142857142858
 40
0.2857142857142858
 40
0.2857142857142858
 40
0.3142857142857143
 40
0.3142857142857143
 40
0.3142857142857143
 40
0.3142857142857143
 40
0.3428571428571429
 40
0.3428571428571429
 40
0.3428571428571429
 40
0.3428571428571429
 40
0.3714285714285715
 40
0.3714285714285715
 40
0.3714285714285715
 40
0.3714285714285715
 40
0.4000000000000001
 40
0.4000000000000001
 40
0.4000000000000001
 40
0.4000000000000001
 40
0.4285714285714287
 40
0.4285714285714287
 40
0.4285714285714287
 40
0.4285714285714287
 40
0.4571428571428572
 40
0.4571428571428572
 40
0.4571428571428572
 40
0.4571428571428572
 40
0.4857142857142858
 40
0.4857142857142858
 40
0.4857142857142858
 40
0.4857142857142858
 40
0.5142857142857144
 40
0.5142857142857144
 40
0.5142857142857144
 40
0.5142857142857144
 40
0.5428571428571429
 40
0.5428571428571429
 40
0.5428571428571429
 40
0.5428571428571429
 40
0.5714285714285715
 40
0.5714285714285715
 40
0.5714285714285715
 40
0.5714285714285715
 40
0.6000000000000001
 40
0.6000000000000001
 40
0.6000000000000001
 40
0.6000000000000001
 40
0.6285714285714287
 40
0.6285714285714287
 40
0.6285714285714287
 40
0.6285714285714287
 40
0.6571428571428573
 40
0.6571428571428573
 40
0.6571428571428573
 40
0.6571428571428573
 40
0.6857142857142858
 40
0.6857142857142858
 40
0.6857142857142858
 40
0.6857142857142858
 40
0.7142857142857144
 40
0.7142857142857144
 40
0.7142857142857144
 40
0.7142857142857144
 40
0.742857142857143
 40
0.742857142857143
 40
0.742857142857143
 40
0.742857142857143
 40
0.7714285714285716
 40
0.7714285714285716
 40
0.7714285714285716
 40
0.7714285714285716
 40
0.8000000000000002
 40
0.8000000000000002
 40
0.8000000000000002
 40
0.8000000000000002
 40
0.8285714285714287
 40
0.8285714285714287
 40
0.8285714285714287
 40
0.8285714285714287
 40
0.8571428571428573
 40
0.8571428571428573
 40
0.8571428571428573
 40
0.8571428571428573
 40
0.8857142857142859
 40
0.8857142857142859
 40
0.8857142857142859
 40
0.8857142857142859
 40
0.9142857142857145
 40
0.9142857142857145
 40
0.9142857142857145
 40
0.9142857142857145
 40
0.9428571428571431
 40
0.9428571428571431
 40
0.9428571428571431
 40
0.9428571428571431
 40
0.9714285714285716
 40
0.9714285714285716
 40
0.9714285714285716
 40
0.9714285714285716
 40
1.0
 40
1.0
 40
1.0
 40
1.0
 10
1.5774800000000002
 20
2.9051900000000002
 30
0.0
 10
1.9000600000000001
 20
2.8086700000000002
 30
0.0
 10
1.9483200000000001
 20
2.41751
 30
0.0
 10
1.8340200000000002
 20
2.1762100000000002
 30
0.0
 10
1.8340200000000002
 20
2.1762100000000002
 30
0.0
 10
2.0067400000000002
 20
2.0771500000000001
 30
0.0
 10
1.9940400000000003
 20
1.8129900000000001
 30
0.0
 10
2.0346800000000003
 20
1.6275700000000002
 30
0.0
 10
2.0346800000000003
 20
1.6275700000000002
 30
0.0
 10
1.9534000000000002
 20
1.4751700000000001
 30
0.0
 10
1.7425800000000002
 20
1.2135500000000001
 30
0.0
 10
1.6765400000000001
 20
1.3684900000000002
 30
0.0
 10
1.6765400000000001
 20
1.3684900000000002
 30
0.0
 10
1.6486000000000001
 20
1.02813
 30
0.0
 10
1.19648
 20
0.84779
 30
0.0
 10
0.8535800000000001
 20
0.91383
 30
0.0
 10
0.8535800000000001
 20
0.91383
 30
0.0
 10
0.7697600000000001
 20
0.85033
 30
0.0
 10
0.785
 20
0.7182500000000001
 30
0.0
 10
0.7723000000000001
 20
0.63951
 30
0.0
 10
0.7723000000000001
 20
0.63951
 30
0.0
 10
0.8485
 20
0.64205
 30
0.0
 10
0.8205600000000001
 20
0.8147700000000001
 30
0.0
 10
0.9170800000000001
 20
0.8401700000000001
 30
0.0
 10
0.9170800000000001
 20
0.8401700000000001
 30
0.0
 10
0.8180200000000001
 20
0.6318900000000001
 30
0.0
 10
1.0847200000000001
 20
0.12643
 30
0.0
 10
0.7265800000000001
 20
0.20263
 30
0.0
 10
0.7265800000000001
 20
0.20263
 30
0.0
 10
0.68086
 20
-0.03866
 30
0.0
 10
0.6503800000000001
 20
-0.08184
 30
0.0
 10
0.47004
 20
0.07309
 30
0.0
 10
0.47004
 20
0.07309
 30
0.0
 10
0.47004
 20
0.07309
 30
0.0
 10
0.36082
 20
-0.13264
 30
0.0
 10
0.36082
 20
-0.13264
 30
0.0
 10
0.36082
 20
-0.13264
 30
0.0
 10
0.35828
 20
0.18739
 30
0.0
 10
0.1119
 20
-0.03358
 30
0.0
 10
0.10682
 20
0.11119
 30
0.0
 10
0.10682
 20
0.11119
 30
0.0
 10
0.03316
 20
0.03245
 30
0.0
 10
0.13222
 20
-0.1174
 30
0.0
 10
0.07126
 20
-0.17074
 30
0.0
 10
0.07126
 20
-0.17074
 30
0.0
 10
0.0611
 20
-0.00818
 30
0.0
 10
-0.06843
 20
0.16453
 30
0.0
 10
-0.16495
 20
-0.0412
 30
0.0
 10
-0.16495
 20
-0.0412
 30
0.0
 10
-0.09891
 20
0.12643
 30
0.0
 10
-0.23353
 20
0.10103
 30
0.0
 10
-0.31481
 20
0.16453
 30
0.0
 10
-0.31481
 20
0.16453
 30
0.0
 10
-0.35291
 20
0.19247
 30
0.0
 10
-0.28941
 20
0.43631
 30
0.0
 10
-0.3757700000000001
 20
0.32963
 30
0.0
 10
-0.3757700000000001
 20
0.32963
 30
0.0
 10
-0.41133
 20
0.01213
 30
0.0
 10
-0.5586500000000001
 20
0.32963
 30
0.0
 10
-0.5408700000000001
 20
0.53029
 30
0.0
 10
-0.5408700000000001
 20
0.53029
 30
0.0
 10
-0.59675
 20
0.5455300000000001
 30
0.0
 10
-0.5637300000000001
 20
0.4540900000000001
 30
0.0
 10
-0.57135
 20
0.42361
 30
0.0
 10
-0.57135
 20
0.42361
 30
0.0
 10
-0.5637300000000001
 20
0.39313
 30
0.0
 10
-0.57389
 20
0.28137
 30
0.0
 10
-0.6221500000000001
 20
0.3372500000000001
 30
0.0
 10
-0.6221500000000001
 20
0.3372500000000001
 30
0.0
 10
-0.78217
 20
0.30423
 30
0.0
 10
-0.6246900000000001
 20
0.9874900000000001
 30
0.0
 10
-0.55357
 20
0.5887100000000001
 30
0.0
 10
-0.55357
 20
0.5887100000000001
 30
0.0
 10
-0.5459500000000001
 20
0.5658500000000001
 30
0.0
 10
-0.48499
 20
0.53537
 30
0.0
 10
-0.49769
 20
0.5887100000000001
 30
0.0
 10
-0.49769
 20
0.5887100000000001
 30
0.0
 10
-0.49769
 20
0.5887100000000001
 30
0.0
 10
-0.59421
 20
0.8401700000000001
 30
0.0
 10
-0.59421
 20
0.8401700000000001
 30
0.0
 10
-0.59421
 20
0.8401700000000001
 30
0.0
 10
-0.8964700000000001
 20
0.72587
 30
0.0
 10
-1.4578100000000001
 20
0.9290700000000001
 30
0.0
 10
-1.4527300000000001
 20
1.2948300000000001
 30
0.0
 10
-1.4527300000000001
 20
1.2948300000000001
 30
0.0
 10
-1.5695700000000001
 20
1.2668900000000001
 30
0.0
 10
-1.6660900000000001
 20
1.36087
 30
0.0
 10
-1.7702300000000002
 20
1.4167500000000002
 30
0.0
 10
-1.7702300000000002
 20
1.4167500000000002
 30
0.0
 10
-1.8692900000000001
 20
1.61487
 30
0.0
 10
-1.7448300000000001
 20
1.8129900000000001
 30
0.0
 10
-1.6991100000000001
 20
2.0085700000000002
 30
0.0
 10
-1.6991100000000001
 20
2.0085700000000002
 30
0.0
 10
-1.6330700000000002
 20
2.0161900000000004
 30
0.0
 10
-1.6051300000000002
 20
2.1279500000000002
 30
0.0
 10
-1.54417
 20
2.0644500000000003
 30
0.0
 10
-1.54417
 20
2.0644500000000003
 30
0.0
 10
-1.5340100000000001
 20
1.3837300000000001
 30
0.0
 10
-0.47483
 20
1.18815
 30
0.0
 10
-0.29703
 20
1.8282300000000002
 30
0.0
 10
-0.29703
 20
1.8282300000000002
 30
0.0
 10
-0.4367300000000001
 20
2.0288900000000001
 30
0.0
 10
-0.15479
 20
2.08731
 30
0.0
 10
-0.10145
 20
2.2092300000000002
 30
0.0
 10
-0.10145
 20
2.2092300000000002
 30
0.0
 10
-0.6424700000000001
 20
1.6682100000000002
 30
0.0
 10
-1.1403100000000002
 20
2.7985100000000003
 30
0.0
 10
-1.6483100000000002
 20
2.1762100000000002
 30
0.0
 10
-1.6483100000000002
 20
2.1762100000000002
 30
0.0
 10
-1.6483100000000002
 20
2.1762100000000002
 30
0.0
 10
-1.7753100000000002
 20
2.3946500000000004
 30
0.0
 10
-1.7753100000000002
 20
2.3946500000000004
 30
0.0
 10
-1.7753100000000002
 20
2.3946500000000004
 30
0.0
 10
-1.7118100000000001
 20
2.54705
 30
0.0
 10
-1.7118100000000001
 20
2.7350100000000004
 30
0.0
 10
-1.5517900000000002
 20
2.8289900000000001
 30
0.0
 10
-1.5517900000000002
 20
2.8289900000000001
 30
0.0
 10
-1.08951
 20
2.8112100000000004
 30
0.0
 10
-0.65771
 20
2.6156300000000003
 30
0.0
 10
-0.22845
 20
2.4733900000000002
 30
0.0
 10
-0.22845
 20
2.4733900000000002
 30
0.0
 10
-0.22845
 20
2.4733900000000002
 30
0.0
 10
-0.5662700000000001
 20
2.7019900000000003
 30
0.0
 10
-0.5662700000000001
 20
2.7019900000000003
 30
0.0
 10
-0.5662700000000001
 20
2.7019900000000003
 30
0.0
 10
-0.5662700000000001
 20
2.7019900000000003
 30
0.0
 10
-0.39101
 20
2.7070700000000003
 30
0.0
 10
-0.39101
 20
2.7070700000000003
 30
0.0
 10
-0.39101
 20
2.7070700000000003
 30
0.0
 10
-0.05319
 20
2.5394300000000003
 30
0.0
 10
0.29224
 20
2.4911700000000003
 30
0.0
 10
0.6249800000000001
 20
2.6638900000000003
 30
0.0
 10
0.6249800000000001
 20
2.6638900000000003
 30
0.0
 10
0.61482
 20
2.5241900000000004
 30
0.0
 10
0.16524
 20
2.3870300000000002
 30
0.0
 10
0.41162
 20
2.34131
 30
0.0
 10
0.41162
 20
2.34131
 30
0.0
 10
0.8104000000000001
 20
2.5191100000000004
 30
0.0
 10
1.1583800000000002
 20
2.8594700000000004
 30
0.0
 10
1.5774800000000002
 20
2.9051900000000002
 30
0.0
  0
SPLINE
  5
36
100
AcDbEntity
  8
Ebene 1
 62
     7
100
AcDbSpline
210
0.0
220
0.0
230
1.0
 70
     1
 71
     3
 72
    20
 73
    16
 74
     0
 42
0.0000000001
 43
0.0000000001
 40
0.0
 40
0.0
 40
0.0
 40
0.0
 40
0.25
 40
0.25
 40
0.25
 40
0.25
 40
0.5
 40
0.5
 40
0.5
 40
0.5
 40
0.75
 40
0.75
 40
0.75
 40
0.75
 40
1.0
 40
1.0
 40
1.0
 40
1.0
 10
-3.0351500000000002
 20
2.6689700000000003
 30
0.0
 10
-2.6617700000000002
 20
2.7096100000000001
 30
0.0
 10
-2.31887
 20
2.5775300000000003
 30
0.0
 10
-2.0369300000000004
 20
2.3819500000000002
 30
0.0
 10
-2.0369300000000004
 20
2.3819500000000002
 30
0.0
 10
-2.3747500000000001
 20
2.33623
 30
0.0
 10
-2.6998700000000002
 20
2.1482700000000001
 30
0.0
 10
-2.8573500000000003
 20
1.8358500000000002
 30
0.0
 10
-2.8573500000000003
 20
1.8358500000000002
 30
0.0
 10
-3.0630900000000003
 20
1.8307700000000002
 30
0.0
 10
-3.2840700000000003
 20
1.8206100000000001
 30
0.0
 10
-3.4872700000000001
 20
1.7799700000000001
 30
0.0
 10
-3.4872700000000001
 20
1.7799700000000001
 30
0.0
 10
-3.4872700000000001
 20
1.7799700000000001
 30
0.0
 10
-3.0351500000000002
 20
2.6689700000000003
 30
0.0
 10
-3.0351500000000002
 20
2.6689700000000003
 30
0.0
  0
SPLINE
  5
37
100
AcDbEntity
  8
Ebene 1
 62
     7
100
AcDbSpline
210
0.0
220
0.0
230
1.0
 70
     1
 71
     3
 72
    24
 73
    20
 74
     0
 42
0.0000000001
 43
0.0000000001
 40
0.0
 40
0.0
 40
0.0
 40
0.0
 40
0.2
 40
0.2
 40
0.2
 40
0.2
 40
0.4
 40
0.4
 40
0.4
 40
0.4
 40
0.6000000000000001
 40
0.6000000000000001
 40
0.6000000000000001
 40
0.6000000000000001
 40
0.8
 40
0.8
 40
0.8
 40
0.8
 40
1.0
 40
1.0
 40
1.0
 40
1.0
 10
2.7103200000000003
 20
2.5775300000000003
 30
0.0
 10
2.9770200000000004
 20
2.5927700000000002
 30
0.0
 10
3.2640400000000001
 20
2.4886300000000001
 30
0.0
 10
3.3453200000000001
 20
2.2270100000000004
 30
0.0
 10
3.3453200000000001
 20
2.2270100000000004
 30
0.0
 10
3.3453200000000001
 20
2.2270100000000004
 30
0.0
 10
3.5459800000000001
 20
1.8536300000000001
 30
0.0
 10
3.5459800000000001
 20
1.8536300000000001
 30
0.0
 10
3.5459800000000001
 20
1.8536300000000001
 30
0.0
 10
3.3935800000000005
 20
1.8714100000000002
 30
0.0
 10
3.2157800000000001
 20
1.8485500000000001
 30
0.0
 10
3.0608400000000002
 20
1.8358500000000002
 30
0.0
 10
3.0608400000000002
 20
1.8358500000000002
 30
0.0
 10
2.9567000000000001
 20
2.1609700000000003
 30
0.0
 10
2.7001600000000003
 20
2.4327500000000004
 30
0.0
 10
2.3521800000000002
 20
2.4911700000000003
 30
0.0
 10
2.3521800000000002
 20
2.4911700000000003
 30
0.0
 10
2.3521800000000002
 20
2.4911700000000003
 30
0.0
 10
2.7103200000000003
 20
2.5775300000000003
 30
0.0
 10
2.7103200000000003
 20
2.5775300000000003
 30
0.0
  0
SPLINE
  5
38
100
AcDbEntity
  8
Ebene 1
100
AcDbSpline
210
0.0
220
0.0
230
1.0
 70
     1
 71
     3
 72
    36
 73
    32
 74
     0
 42
0.0000000001
 43
0.0000000001
 40
0.0
 40
0.0
 40
0.0
 40
0.0
 40
0.125
 40
0.125
 40
0.125
 40
0.125
 40
0.25
 40
0.25
 40
0.25
 40
0.25
 40
0.375
 40
0.375
 40
0.375
 40
0.375
 40
0.5
 40
0.5
 40
0.5
 40
0.5
 40
0.625
 40
0.625
 40
0.625
 40
0.625
 40
0.75
 40
0.75
 40
0.75
 40
0.75
 40
0.875
 40
0.875
 40
0.875
 40
0.875
 40
1.0
 40
1.0
 40
1.0
 40
1.0
 10
1.3412600000000001
 20
2.4860900000000004
 30
0.0
 10
1.48858
 20
2.4937100000000001
 30
0.0
 10
2.0270600000000001
 20
2.2473300000000003
 30
0.0
 10
1.65622
 20
2.2803500000000003
 30
0.0
 10
1.65622
 20
2.2803500000000003
 30
0.0
 10
1.65622
 20
2.2803500000000003
 30
0.0
 10
1.6028800000000001
 20
2.1711300000000002
 30
0.0
 10
1.6028800000000001
 20
2.1711300000000002
 30
0.0
 10
1.6028800000000001
 20
2.1711300000000002
 30
0.0
 10
1.7324200000000001
 20
1.7113900000000002
 30
0.0
 10
0.99582
 20
1.3354700000000002
 30
0.0
 10
0.69864
 20
1.69869
 30
0.0
 10
0.69864
 20
1.69869
 30
0.0
 10
0.69864
 20
1.69869
 30
0.0
 10
0.5259200000000001
 20
1.7621900000000001
 30
0.0
 10
0.5259200000000001
 20
1.7621900000000001
 30
0.0
 10
0.5259200000000001
 20
1.7621900000000001
 30
0.0
 10
0.5259200000000001
 20
1.7621900000000001
 30
0.0
 10
0.5386200000000001
 20
1.9933300000000003
 30
0.0
 10
0.5386200000000001
 20
1.9933300000000003
 30
0.0
 10
0.5386200000000001
 20
1.9933300000000003
 30
0.0
 10
0.5386200000000001
 20
1.9933300000000003
 30
0.0
 10
0.4802
 20
2.0644500000000003
 30
0.0
 10
0.4802
 20
2.0644500000000003
 30
0.0
 10
0.4802
 20
2.0644500000000003
 30
0.0
 10
0.37098
 20
2.08731
 30
0.0
 10
0.11952
 20
2.04921
 30
0.0
 10
0.21604
 20
2.2270100000000004
 30
0.0
 10
0.21604
 20
2.2270100000000004
 30
0.0
 10
0.6046600000000001
 20
1.9653900000000002
 30
0.0
 10
0.9907400000000001
 20
2.33623
 30
0.0
 10
1.3412600000000001
 20
2.4860900000000004
 30
0.0
  0
SPLINE
  5
39
100
AcDbEntity
  8
Ebene 1
 62
     7
100
AcDbSpline
210
0.0
220
0.0
230
1.0
 70
     1
 71
     3
 72
    20
 73
    16
 74
     0
 42
0.0000000001
 43
0.0000000001
 40
0.0
 40
0.0
 40
0.0
 40
0.0
 40
0.25
 40
0.25
 40
0.25
 40
0.25
 40
0.5
 40
0.5
 40
0.5
 40
0.5
 40
0.75
 40
0.75
 40
0.75
 40
0.75
 40
1.0
 40
1.0
 40
1.0
 40
1.0
 10
2.3267800000000003
 20
2.3768700000000003
 30
0.0
 10
2.4741000000000004
 20
2.3743300000000001
 30
0.0
 10
2.6163400000000001
 20
2.3438500000000002
 30
0.0
 10
2.7255600000000002
 20
2.2447900000000001
 30
0.0
 10
2.7255600000000002
 20
2.2447900000000001
 30
0.0
 10
2.8246200000000004
 20
2.12033
 30
0.0
 10
2.9414600000000002
 20
1.9780900000000001
 30
0.0
 10
2.9440000000000004
 20
1.8155300000000001
 30
0.0
 10
2.9440000000000004
 20
1.8155300000000001
 30
0.0
 10
2.8500200000000002
 20
2.2320900000000004
 30
0.0
 10
2.3572600000000001
 20
2.3971900000000002
 30
0.0
 10
1.9864200000000001
 20
2.25495
 30
0.0
 10
1.9864200000000001
 20
2.25495
 30
0.0
 10
2.0651600000000001
 20
2.3489300000000002
 30
0.0
 10
2.2226400000000002
 20
2.34639
 30
0.0
 10
2.3267800000000003
 20
2.3768700000000003
 30
0.0
  0
SPLINE
  5
3A
100
AcDbEntity
  8
Ebene 1
 62
     7
100
AcDbSpline
210
0.0
220
0.0
230
1.0
 70
     1
 71
     3
 72
    24
 73
    20
 74
     0
 42
0.0000000001
 43
0.0000000001
 40
0.0
 40
0.0
 40
0.0
 40
0.0
 40
0.2
 40
0.2
 40
0.2
 40
0.2
 40
0.4
 40
0.4
 40
0.4
 40
0.4
 40
0.6000000000000001
 40
0.6000000000000001
 40
0.6000000000000001
 40
0.6000000000000001
 40
0.8
 40
0.8
 40
0.8
 40
0.8
 40
1.0
 40
1.0
 40
1.0
 40
1.0
 10
-2.2147300000000003
 20
2.2473300000000003
 30
0.0
 10
-2.0470900000000003
 20
2.2854300000000003
 30
0.0
 10
-1.5848100000000001
 20
2.0746100000000003
 30
0.0
 10
-1.9759700000000002
 20
2.1406500000000004
 30
0.0
 10
-1.9759700000000002
 20
2.1406500000000004
 30
0.0
 10
-2.3493500000000003
 20
2.2193900000000002
 30
0.0
 10
-2.7608300000000003
 20
1.9603100000000002
 30
0.0
 10
-2.81671
 20
1.57423
 30
0.0
 10
-2.81671
 20
1.57423
 30
0.0
 10
-2.8751300000000004
 20
0.9519300000000001
 30
0.0
 10
-2.1918700000000002
 20
0.43631
 30
0.0
 10
-1.6330700000000002
 20
0.74873
 30
0.0
 10
-1.6330700000000002
 20
0.74873
 30
0.0
 10
-1.9531100000000001
 20
0.31947
 30
0.0
 10
-2.6744700000000003
 20
0.6268100000000001
 30
0.0
 10
-2.8471900000000003
 20
1.06877
 30
0.0
 10
-2.8471900000000003
 20
1.06877
 30
0.0
 10
-3.0427700000000004
 20
1.5589900000000001
 30
0.0
 10
-2.69225
 20
2.12033
 30
0.0
 10
-2.2147300000000003
 20
2.2473300000000003
 30
0.0
  0
SPLINE
  5
3B
100
AcDbEntity
  8
Ebene 1
 62
     7
100
AcDbSpline
210
0.0
220
0.0
230
1.0
 70
     1
 71
     3
 72
    20
 73
    16
 74
     0
 42
0.0000000001
 43
0.0000000001
 40
0.0
 40
0.0
 40
0.0
 40
0.0
 40
0.25
 40
0.25
 40
0.25
 40
0.25
 40
0.5
 40
0.5
 40
0.5
 40
0.5
 40
0.75
 40
0.75
 40
0.75
 40
0.75
 40
1.0
 40
1.0
 40
1.0
 40
1.0
 10
2.4741000000000004
 20
2.1939900000000003
 30
0.0
 10
2.6950800000000004
 20
2.1558900000000003
 30
0.0
 10
2.8728800000000003
 20
1.9323700000000001
 30
0.0
 10
2.8551000000000002
 20
1.7012300000000002
 30
0.0
 10
2.8551000000000002
 20
1.7012300000000002
 30
0.0
 10
2.7509600000000001
 20
1.6656700000000002
 30
0.0
 10
2.7230200000000004
 20
1.5056500000000002
 30
0.0
 10
2.5884
 20
1.48787
 30
0.0
 10
2.5884
 20
1.48787
 30
0.0
 10
2.6138000000000003
 20
1.5894700000000002
 30
0.0
 10
2.5960200000000002
 20
1.7063100000000002
 30
0.0
 10
2.4918800000000001
 20
1.7545700000000002
 30
0.0
 10
2.4918800000000001
 20
1.7545700000000002
 30
0.0
 10
2.6188800000000003
 20
1.8561700000000001
 30
0.0
 10
2.6188800000000003
 20
2.12033
 30
0.0
 10
2.4741000000000004
 20
2.1939900000000003
 30
0.0
  0
SPLINE
  5
3C
100
AcDbEntity
  8
Ebene 1
 62
     7
100
AcDbSpline
210
0.0
220
0.0
230
1.0
 70
     1
 71
     3
 72
    12
 73
     8
 74
     0
 42
0.0000000001
 43
0.0000000001
 40
0.0
 40
0.0
 40
0.0
 40
0.0
 40
0.5
 40
0.5
 40
0.5
 40
0.5
 40
1.0
 40
1.0
 40
1.0
 40
1.0
 10
1.1812400000000001
 20
2.0669900000000001
 30
0.0
 10
1.3768200000000002
 20
2.00095
 30
0.0
 10
0.8383400000000001
 20
1.8815700000000002
 30
0.0
 10
1.0923400000000001
 20
2.0212700000000003
 30
0.0
 10
1.0923400000000001
 20
2.0212700000000003
 30
0.0
 10
1.0923400000000001
 20
2.0212700000000003
 30
0.0
 10
1.1812400000000001
 20
2.0669900000000001
 30
0.0
 10
1.1812400000000001
 20
2.0669900000000001
 30
0.0
  0
SPLINE
  5
3D
100
AcDbEntity
  8
Ebene 1
 62
     7
100
AcDbSpline
210
0.0
220
0.0
230
1.0
 70
     1
 71
     3
 72
    24
 73
    20
 74
     0
 42
0.0000000001
 43
0.0000000001
 40
0.0
 40
0.0
 40
0.0
 40
0.0
 40
0.2
 40
0.2
 40
0.2
 40
0.2
 40
0.4
 40
0.4
 40
0.4
 40
0.4
 40
0.6000000000000001
 40
0.6000000000000001
 40
0.6000000000000001
 40
0.6000000000000001
 40
0.8
 40
0.8
 40
0.8
 40
0.8
 40
1.0
 40
1.0
 40
1.0
 40
1.0
 10
2.05246
 20
2.0669900000000001
 30
0.0
 10
2.2175600000000002
 20
2.0542899999999999
 30
0.0
 10
2.5630000000000002
 20
1.7621900000000001
 30
0.0
 10
2.2582
 20
1.69869
 30
0.0
 10
2.2582
 20
1.69869
 30
0.0
 10
2.2582
 20
1.69869
 30
0.0
 10
2.2226400000000002
 20
1.6428100000000001
 30
0.0
 10
2.2226400000000002
 20
1.6428100000000001
 30
0.0
 10
2.2226400000000002
 20
1.6428100000000001
 30
0.0
 10
2.2861400000000001
 20
1.4726300000000001
 30
0.0
 10
2.1794600000000002
 20
1.3049900000000001
 30
0.0
 10
2.0042
 20
1.2694300000000001
 30
0.0
 10
2.0042
 20
1.2694300000000001
 30
0.0
 10
1.9711800000000002
 20
1.2872100000000002
 30
0.0
 10
1.9813400000000001
 20
1.32277
 30
0.0
 10
1.9813400000000001
 20
1.3557900000000001
 30
0.0
 10
1.9813400000000001
 20
1.3557900000000001
 30
0.0
 10
2.1566000000000001
 20
1.57169
 30
0.0
 10
2.0651600000000001
 20
1.8333100000000002
 30
0.0
 10
2.05246
 20
2.0669900000000001
 30
0.0
  0
SPLINE
  5
3E
100
AcDbEntity
  8
Ebene 1
 62
     7
100
AcDbSpline
210
0.0
220
0.0
230
1.0
 70
     1
 71
     3
 72
    12
 73
     8
 74
     0
 42
0.0000000001
 43
0.0000000001
 40
0.0
 40
0.0
 40
0.0
 40
0.0
 40
0.5
 40
0.5
 40
0.5
 40
0.5
 40
1.0
 40
1.0
 40
1.0
 40
1.0
 10
-1.0285500000000001
 20
1.9679300000000002
 30
0.0
 10
-0.9472700000000001
 20
1.9577700000000002
 30
0.0
 10
-0.8736100000000001
 20
1.8764900000000002
 30
0.0
 10
-0.8126500000000001
 20
1.8180700000000001
 30
0.0
 10
-0.8126500000000001
 20
1.8180700000000001
 30
0.0
 10
-0.8964700000000001
 20
1.7901300000000002
 30
0.0
 10
-0.9853700000000001
 20
1.8688700000000003
 30
0.0
 10
-1.0285500000000001
 20
1.9679300000000002
 30
0.0
  0
SPLINE
  5
3F
100
AcDbEntity
  8
Ebene 1
 62
     7
100
AcDbSpline
210
0.0
220
0.0
230
1.0
 70
     1
 71
     3
 72
    24
 73
    20
 74
     0
 42
0.0000000001
 43
0.0000000001
 40
0.0
 40
0.0
 40
0.0
 40
0.0
 40
0.2
 40
0.2
 40
0.2
 40
0.2
 40
0.4
 40
0.4
 40
0.4
 40
0.4
 40
0.6000000000000001
 40
0.6000000000000001
 40
0.6000000000000001
 40
0.6000000000000001
 40
0.8
 40
0.8
 40
0.8
 40
0.8
 40
1.0
 40
1.0
 40
1.0
 40
1.0
 10
-2.4331700000000001
 20
1.9018900000000001
 30
0.0
 10
-2.19441
 20
1.8815700000000002
 30
0.0
 10
-2.18933
 20
1.57169
 30
0.0
 10
-2.3544300000000002
 20
1.4599300000000002
 30
0.0
 10
-2.3544300000000002
 20
1.4599300000000002
 30
0.0
 10
-2.35697
 20
1.3964300000000001
 30
0.0
 10
-2.35697
 20
1.31515
 30
0.0
 10
-2.4331700000000001
 20
1.2999100000000001
 30
0.0
 10
-2.4331700000000001
 20
1.2999100000000001
 30
0.0
 10
-2.5906500000000001
 20
1.3659500000000002
 30
0.0
 10
-2.5855700000000001
 20
1.6224900000000002
 30
0.0
 10
-2.7074900000000004
 20
1.6478900000000001
 30
0.0
 10
-2.7074900000000004
 20
1.6478900000000001
 30
0.0
 10
-2.6795500000000003
 20
1.7215500000000001
 30
0.0
 10
-2.6617700000000002
 20
1.8079100000000001
 30
0.0
 10
-2.5931900000000003
 20
1.8612500000000001
 30
0.0
 10
-2.5931900000000003
 20
1.8612500000000001
 30
0.0
 10
-2.5449300000000004
 20
1.8002900000000002
 30
0.0
 10
-2.4738100000000003
 20
1.86633
 30
0.0
 10
-2.4331700000000001
 20
1.9018900000000001
 30
0.0
  0
SPLINE
  5
40
100
AcDbEntity
  8
Ebene 1
 62
     7
100
AcDbSpline
210
0.0
220
0.0
230
1.0
 70
     1
 71
     3
 72
    28
 73
    24
 74
     0
 42
0.0000000001
 43
0.0000000001
 40
0.0
 40
0.0
 40
0.0
 40
0.0
 40
0.1666666666666667
 40
0.1666666666666667
 40
0.1666666666666667
 40
0.1666666666666667
 40
0.3333333333333333
 40
0.3333333333333333
 40
0.3333333333333333
 40
0.3333333333333333
 40
0.5
 40
0.5
 40
0.5
 40
0.5
 40
0.6666666666666666
 40
0.6666666666666666
 40
0.6666666666666666
 40
0.6666666666666666
 40
0.8333333333333333
 40
0.8333333333333333
 40
0.8333333333333333
 40
0.8333333333333333
 40
1.0
 40
1.0
 40
1.0
 40
1.0
 10
-1.9581900000000001
 20
1.7748900000000001
 30
0.0
 10
-1.9581900000000001
 20
1.7748900000000001
 30
0.0
 10
-1.8870700000000002
 20
1.6656700000000002
 30
0.0
 10
-1.8870700000000002
 20
1.6656700000000002
 30
0.0
 10
-1.8870700000000002
 20
1.6656700000000002
 30
0.0
 10
-1.8921500000000002
 20
1.5488300000000002
 30
0.0
 10
-1.8819900000000001
 20
1.4269100000000001
 30
0.0
 10
-1.8083300000000002
 20
1.3430900000000001
 30
0.0
 10
-1.8083300000000002
 20
1.3430900000000001
 30
0.0
 10
-1.6660900000000001
 20
1.3100700000000001
 30
0.0
 10
-1.5721100000000001
 20
1.19323
 30
0.0
 10
-1.6330700000000002
 20
1.06877
 30
0.0
 10
-1.6330700000000002
 20
1.06877
 30
0.0
 10
-1.6914900000000002
 20
1.19577
 30
0.0
 10
-1.8210300000000001
 20
1.2897500000000002
 30
0.0
 10
-1.9708900000000003
 20
1.2872100000000002
 30
0.0
 10
-1.9708900000000003
 20
1.2872100000000002
 30
0.0
 10
-2.0013700000000001
 20
1.3938900000000001
 30
0.0
 10
-1.9962900000000001
 20
1.5386700000000002
 30
0.0
 10
-2.1232900000000003
 20
1.5920100000000001
 30
0.0
 10
-2.1232900000000003
 20
1.5920100000000001
 30
0.0
 10
-2.06995
 20
1.6504300000000001
 30
0.0
 10
-1.9708900000000003
 20
1.6834500000000001
 30
0.0
 10
-1.9581900000000001
 20
1.7748900000000001
 30
0.0
  0
SPLINE
  5
41
100
AcDbEntity
  8
Ebene 1
 62
     7
100
AcDbSpline
210
0.0
220
0.0
230
1.0
 70
     1
 71
     3
 72
    16
 73
    12
 74
     0
 42
0.0000000001
 43
0.0000000001
 40
0.0
 40
0.0
 40
0.0
 40
0.0
 40
0.3333333333333333
 40
0.3333333333333333
 40
0.3333333333333333
 40
0.3333333333333333
 40
0.6666666666666666
 40
0.6666666666666666
 40
0.6666666666666666
 40
0.6666666666666666
 40
1.0
 40
1.0
 40
1.0
 40
1.0
 10
2.9668600000000001
 20
1.7012300000000002
 30
0.0
 10
3.2361000000000004
 20
1.15005
 30
0.0
 10
2.4918800000000001
 20
0.76397
 30
0.0
 10
2.0600800000000001
 20
0.9316100000000001
 30
0.0
 10
2.0600800000000001
 20
0.9316100000000001
 30
0.0
 10
2.4410800000000004
 20
0.9392300000000001
 30
0.0
 10
3.0608400000000002
 20
1.0763900000000002
 30
0.0
 10
2.9465400000000002
 20
1.5920100000000001
 30
0.0
 10
2.9465400000000002
 20
1.5920100000000001
 30
0.0
 10
2.9465400000000002
 20
1.6301100000000002
 30
0.0
 10
2.9389200000000004
 20
1.6707500000000002
 30
0.0
 10
2.9668600000000001
 20
1.7012300000000002
 30
0.0
  0
SPLINE
  5
42
100
AcDbEntity
  8
Ebene 1
100
AcDbSpline
210
0.0
220
0.0
230
1.0
 70
     1
 71
     3
 72
    36
 73
    32
 74
     0
 42
0.0000000001
 43
0.0000000001
 40
0.0
 40
0.0
 40
0.0
 40
0.0
 40
0.125
 40
0.125
 40
0.125
 40
0.125
 40
0.25
 40
0.25
 40
0.25
 40
0.25
 40
0.375
 40
0.375
 40
0.375
 40
0.375
 40
0.5
 40
0.5
 40
0.5
 40
0.5
 40
0.625
 40
0.625
 40
0.625
 40
0.625
 40
0.75
 40
0.75
 40
0.75
 40
0.75
 40
0.875
 40
0.875
 40
0.875
 40
0.875
 40
1.0
 40
1.0
 40
1.0
 40
1.0
 10
0.19318
 20
1.6834500000000001
 30
0.0
 10
0.23128
 20
1.6910700000000001
 30
0.0
 10
0.2643
 20
1.6758300000000002
 30
0.0
 10
0.29732
 20
1.6605900000000002
 30
0.0
 10
0.29732
 20
1.6605900000000002
 30
0.0
 10
0.3532
 20
1.3837300000000001
 30
0.0
 10
0.42178
 20
1.10687
 30
0.0
 10
0.40654
 20
0.8122300000000001
 30
0.0
 10
0.40654
 20
0.8122300000000001
 30
0.0
 10
0.3252600000000001
 20
0.74873
 30
0.0
 10
0.2135
 20
0.80715
 30
0.0
 10
0.14238
 20
0.8401700000000001
 30
0.0
 10
0.14238
 20
0.8401700000000001
 30
0.0
 10
0.14238
 20
0.8401700000000001
 30
0.0
 10
0.10682
 20
0.37535
 30
0.0
 10
0.10682
 20
0.37535
 30
0.0
 10
0.10682
 20
0.37535
 30
0.0
 10
0.0484
 20
0.5277500000000001
 30
0.0
 10
0.10936
 20
0.8655700000000001
 30
0.0
 10
-0.13447
 20
0.78937
 30
0.0
 10
-0.13447
 20
0.78937
 30
0.0
 10
-0.13447
 20
0.78937
 30
0.0
 10
-0.18273
 20
0.85033
 30
0.0
 10
-0.18273
 20
0.85033
 30
0.0
 10
-0.18273
 20
0.85033
 30
0.0
 10
-0.20305
 20
1.1221100000000002
 30
0.0
 10
-0.16495
 20
1.3862700000000001
 30
0.0
 10
-0.10907
 20
1.6428100000000001
 30
0.0
 10
-0.10907
 20
1.6428100000000001
 30
0.0
 10
-0.10907
 20
1.6428100000000001
 30
0.0
 10
0.19318
 20
1.6834500000000001
 30
0.0
 10
0.19318
 20
1.6834500000000001
 30
0.0
  0
SPLINE
  5
43
100
AcDbEntity
  8
Ebene 1
 62
     7
100
AcDbSpline
210
0.0
220
0.0
230
1.0
 70
     1
 71
     3
 72
    20
 73
    16
 74
     0
 42
0.0000000001
 43
0.0000000001
 40
0.0
 40
0.0
 40
0.0
 40
0.0
 40
0.25
 40
0.25
 40
0.25
 40
0.25
 40
0.5
 40
0.5
 40
0.5
 40
0.5
 40
0.75
 40
0.75
 40
0.75
 40
0.75
 40
1.0
 40
1.0
 40
1.0
 40
1.0
 10
2.54522
 20
1.44469
 30
0.0
 10
2.54522
 20
1.44469
 30
0.0
 10
2.5782400000000001
 20
1.44215
 30
0.0
 10
2.5782400000000001
 20
1.44215
 30
0.0
 10
2.5782400000000001
 20
1.44215
 30
0.0
 10
2.5858600000000003
 20
1.27451
 30
0.0
 10
2.46394
 20
1.0535300000000001
 30
0.0
 10
2.2785200000000003
 20
1.06877
 30
0.0
 10
2.2785200000000003
 20
1.06877
 30
0.0
 10
2.2785200000000003
 20
1.06877
 30
0.0
 10
2.3140800000000001
 20
1.40659
 30
0.0
 10
2.3140800000000001
 20
1.40659
 30
0.0
 10
2.3140800000000001
 20
1.40659
 30
0.0
 10
2.3140800000000001
 20
1.40659
 30
0.0
 10
2.54522
 20
1.44469
 30
0.0
 10
2.54522
 20
1.44469
 30
0.0
  0
SPLINE
  5
44
100
AcDbEntity
  8
Ebene 1
 62
     7
100
AcDbSpline
210
0.0
220
0.0
230
1.0
 70
     1
 71
     3
 72
    20
 73
    16
 74
     0
 42
0.0000000001
 43
0.0000000001
 40
0.0
 40
0.0
 40
0.0
 40
0.0
 40
0.25
 40
0.25
 40
0.25
 40
0.25
 40
0.5
 40
0.5
 40
0.5
 40
0.5
 40
0.75
 40
0.75
 40
0.75
 40
0.75
 40
1.0
 40
1.0
 40
1.0
 40
1.0
 10
-3.2002500000000005
 20
1.4269100000000001
 30
0.0
 10
-3.2002500000000005
 20
1.4269100000000001
 30
0.0
 10
-3.0376900000000004
 20
1.4243700000000001
 30
0.0
 10
-3.0376900000000004
 20
1.4243700000000001
 30
0.0
 10
-3.0376900000000004
 20
1.4243700000000001
 30
0.0
 10
-2.9665700000000004
 20
1.15005
 30
0.0
 10
-2.9538700000000002
 20
0.8147700000000001
 30
0.0
 10
-2.7100300000000002
 20
0.6115700000000001
 30
0.0
 10
-2.7100300000000002
 20
0.6115700000000001
 30
0.0
 10
-3.2281900000000001
 20
0.46679
 30
0.0
 10
-3.6422100000000004
 20
0.06039
 30
0.0
 10
-3.9292300000000004
 20
-0.37648
 30
0.0
 10
-3.9292300000000004
 20
-0.37648
 30
0.0
 10
-4.2899100000000008
 20
0.28137
 30
0.0
 10
-4.0257500000000004
 20
1.32277
 30
0.0
 10
-3.2002500000000005
 20
1.4269100000000001
 30
0.0
  0
SPLINE
  5
45
100
AcDbEntity
  8
Ebene 1
 62
     7
100
AcDbSpline
210
0.0
220
0.0
230
1.0
 70
     1
 71
     3
 72
    16
 73
    12
 74
     0
 42
0.0000000001
 43
0.0000000001
 40
0.0
 40
0.0
 40
0.0
 40
0.0
 40
0.3333333333333333
 40
0.3333333333333333
 40
0.3333333333333333
 40
0.3333333333333333
 40
0.6666666666666666
 40
0.6666666666666666
 40
0.6666666666666666
 40
0.6666666666666666
 40
1.0
 40
1.0
 40
1.0
 40
1.0
 10
3.1903800000000002
 20
1.4269100000000001
 30
0.0
 10
4.08446
 20
1.4548500000000002
 30
0.0
 10
4.2521000000000004
 20
0.22295
 30
0.0
 10
3.9117400000000004
 20
-0.44506
 30
0.0
 10
3.9117400000000004
 20
-0.44506
 30
0.0
 10
3.7161600000000004
 20
0.13913
 30
0.0
 10
3.2437200000000002
 20
0.6445900000000001
 30
0.0
 10
2.6620600000000003
 20
0.8122300000000001
 30
0.0
 10
2.6620600000000003
 20
0.8122300000000001
 30
0.0
 10
2.9617800000000001
 20
0.89097
 30
0.0
 10
2.9694000000000003
 20
1.2999100000000001
 30
0.0
 10
3.1903800000000002
 20
1.4269100000000001
 30
0.0
  0
SPLINE
  5
46
100
AcDbEntity
  8
Ebene 1
 62
     7
100
AcDbSpline
210
0.0
220
0.0
230
1.0
 70
     1
 71
     3
 72
    12
 73
     8
 74
     0
 42
0.0000000001
 43
0.0000000001
 40
0.0
 40
0.0
 40
0.0
 40
0.0
 40
0.5
 40
0.5
 40
0.5
 40
0.5
 40
1.0
 40
1.0
 40
1.0
 40
1.0
 10
2.8398600000000003
 20
1.4091300000000002
 30
0.0
 10
2.8881200000000002
 20
1.32023
 30
0.0
 10
2.75604
 20
1.1729100000000001
 30
0.0
 10
2.6620600000000003
 20
1.1602100000000002
 30
0.0
 10
2.6620600000000003
 20
1.1602100000000002
 30
0.0
 10
2.7281000000000004
 20
1.2237100000000001
 30
0.0
 10
2.8398600000000003
 20
1.2948300000000001
 30
0.0
 10
2.8398600000000003
 20
1.4091300000000002
 30
0.0
  0
SPLINE
  5
47
100
AcDbEntity
  8
Ebene 1
 62
     7
100
AcDbSpline
210
0.0
220
0.0
230
1.0
 70
     1
 71
     3
 72
    32
 73
    28
 74
     0
 42
0.0000000001
 43
0.0000000001
 40
0.0
 40
0.0
 40
0.0
 40
0.0
 40
0.1428571428571429
 40
0.1428571428571429
 40
0.1428571428571429
 40
0.1428571428571429
 40
0.2857142857142857
 40
0.2857142857142857
 40
0.2857142857142857
 40
0.2857142857142857
 40
0.4285714285714286
 40
0.4285714285714286
 40
0.4285714285714286
 40
0.4285714285714286
 40
0.5714285714285714
 40
0.5714285714285714
 40
0.5714285714285714
 40
0.5714285714285714
 40
0.7142857142857142
 40
0.7142857142857142
 40
0.7142857142857142
 40
0.7142857142857142
 40
0.857142857142857
 40
0.857142857142857
 40
0.857142857142857
 40
0.857142857142857
 40
1.0
 40
1.0
 40
1.0
 40
1.0
 10
-2.2680700000000003
 20
1.2084700000000002
 30
0.0
 10
-2.2350500000000002
 20
1.2110100000000001
 30
0.0
 10
-2.2020300000000002
 20
1.2110100000000001
 30
0.0
 10
-2.1791700000000001
 20
1.19069
 30
0.0
 10
-2.1791700000000001
 20
1.19069
 30
0.0
 10
-2.0191500000000002
 20
1.2592700000000001
 30
0.0
 10
-1.8972300000000002
 20
0.9620900000000001
 30
0.0
 10
-2.0623300000000002
 20
0.8757300000000001
 30
0.0
 10
-2.0623300000000002
 20
0.8757300000000001
 30
0.0
 10
-2.0623300000000002
 20
0.8757300000000001
 30
0.0
 10
-2.06995
 20
0.80715
 30
0.0
 10
-2.06995
 20
0.80715
 30
0.0
 10
-2.06995
 20
0.80715
 30
0.0
 10
-2.05471
 20
0.76905
 30
0.0
 10
-1.9023100000000002
 20
0.8122300000000001
 30
0.0
 10
-1.9632700000000001
 20
0.7411100000000001
 30
0.0
 10
-1.9632700000000001
 20
0.7411100000000001
 30
0.0
 10
-2.18425
 20
0.7157100000000001
 30
0.0
 10
-2.4611100000000001
 20
0.7969900000000001
 30
0.0
 10
-2.5373100000000002
 20
1.02305
 30
0.0
 10
-2.5373100000000002
 20
1.02305
 30
0.0
 10
-2.48143
 20
0.9671700000000001
 30
0.0
 10
-2.3772900000000003
 20
0.9849500000000001
 30
0.0
 10
-2.3290300000000004
 20
1.0509900000000001
 30
0.0
 10
-2.3290300000000004
 20
1.0509900000000001
 30
0.0
 10
-2.3290300000000004
 20
1.0509900000000001
 30
0.0
 10
-2.2680700000000003
 20
1.2084700000000002
 30
0.0
 10
-2.2680700000000003
 20
1.2084700000000002
 30
0.0
  0
SPLINE
  5
48
100
AcDbEntity
  8
Ebene 1
 62
     7
100
AcDbSpline
210
0.0
220
0.0
230
1.0
 70
     1
 71
     3
 72
   108
 73
   104
 74
     0
 42
0.0000000001
 43
0.0000000001
 40
0.0
 40
0.0
 40
0.0
 40
0.0
 40
0.0384615384615385
 40
0.0384615384615385
 40
0.0384615384615385
 40
0.0384615384615385
 40
0.0769230769230769
 40
0.0769230769230769
 40
0.0769230769230769
 40
0.0769230769230769
 40
0.1153846153846154
 40
0.1153846153846154
 40
0.1153846153846154
 40
0.1153846153846154
 40
0.1538461538461539
 40
0.1538461538461539
 40
0.1538461538461539
 40
0.1538461538461539
 40
0.1923076923076923
 40
0.1923076923076923
 40
0.1923076923076923
 40
0.1923076923076923
 40
0.2307692307692308
 40
0.2307692307692308
 40
0.2307692307692308
 40
0.2307692307692308
 40
0.2692307692307693
 40
0.2692307692307693
 40
0.2692307692307693
 40
0.2692307692307693
 40
0.3076923076923077
 40
0.3076923076923077
 40
0.3076923076923077
 40
0.3076923076923077
 40
0.3461538461538462
 40
0.3461538461538462
 40
0.3461538461538462
 40
0.3461538461538462
 40
0.3846153846153846
 40
0.3846153846153846
 40
0.3846153846153846
 40
0.3846153846153846
 40
0.423076923076923
 40
0.423076923076923
 40
0.423076923076923
 40
0.423076923076923
 40
0.4615384615384615
 40
0.4615384615384615
 40
0.4615384615384615
 40
0.4615384615384615
 40
0.4999999999999999
 40
0.4999999999999999
 40
0.4999999999999999
 40
0.4999999999999999
 40
0.5384615384615383
 40
0.5384615384615383
 40
0.5384615384615383
 40
0.5384615384615383
 40
0.5769230769230768
 40
0.5769230769230768
 40
0.5769230769230768
 40
0.5769230769230768
 40
0.6153846153846152
 40
0.6153846153846152
 40
0.6153846153846152
 40
0.6153846153846152
 40
0.6538461538461536
 40
0.6538461538461536
 40
0.6538461538461536
 40
0.6538461538461536
 40
0.6923076923076921
 40
0.6923076923076921
 40
0.6923076923076921
 40
0.6923076923076921
 40
0.7307692307692305
 40
0.7307692307692305
 40
0.7307692307692305
 40
0.7307692307692305
 40
0.7692307692307689
 40
0.7692307692307689
 40
0.7692307692307689
 40
0.7692307692307689
 40
0.8076923076923074
 40
0.8076923076923074
 40
0.8076923076923074
 40
0.8076923076923074
 40
0.8461538461538458
 40
0.8461538461538458
 40
0.8461538461538458
 40
0.8461538461538458
 40
0.8846153846153843
 40
0.8846153846153843
 40
0.8846153846153843
 40
0.8846153846153843
 40
0.9230769230769227
 40
0.9230769230769227
 40
0.9230769230769227
 40
0.9230769230769227
 40
0.9615384615384611
 40
0.9615384615384611
 40
0.9615384615384611
 40
0.9615384615384611
 40
1.0
 40
1.0
 40
1.0
 40
1.0
 10
1.7070200000000002
 20
1.15513
 30
0.0
 10
1.7070200000000002
 20
1.15513
 30
0.0
 10
1.8340200000000002
 20
0.8808100000000001
 30
0.0
 10
1.8340200000000002
 20
0.8808100000000001
 30
0.0
 10
1.8340200000000002
 20
0.8808100000000001
 30
0.0
 10
1.5800200000000002
 20
0.4845700000000001
 30
0.0
 10
1.6054200000000001
 20
-0.03104
 30
0.0
 10
1.5571600000000001
 20
-0.4806200000000001
 30
0.0
 10
1.5571600000000001
 20
-0.4806200000000001
 30
0.0
 10
1.2879200000000002
 20
-0.7752600000000001
 30
0.0
 10
0.99582
 20
-1.0724400000000001
 30
0.0
 10
0.7545200000000001
 20
-1.3924800000000002
 30
0.0
 10
0.7545200000000001
 20
-1.3924800000000002
 30
0.0
 10
0.6326000000000001
 20
-1.4458200000000001
 30
0.0
 10
0.08904
 20
-1.3975600000000001
 30
0.0
 10
0.3989200000000001
 20
-1.29342
 30
0.0
 10
0.3989200000000001
 20
-1.29342
 30
0.0
 10
0.42686
 20
-1.25278
 30
0.0
 10
0.34812
 20
-1.2477
 30
0.0
 10
0.32018
 20
-1.25278
 30
0.0
 10
0.32018
 20
-1.25278
 30
0.0
 10
0.32018
 20
-1.25278
 30
0.0
 10
0.0103
 20
-1.3061200000000002
 30
0.0
 10
0.0103
 20
-1.3061200000000002
 30
0.0
 10
0.0103
 20
-1.3061200000000002
 30
0.0
 10
-0.5637300000000001
 20
-1.7049000000000001
 30
0.0
 10
-0.84567
 20
-0.8819400000000001
 30
0.0
 10
-1.2419100000000001
 20
-0.6076200000000001
 30
0.0
 10
-1.2419100000000001
 20
-0.6076200000000001
 30
0.0
 10
-1.20635
 20
-0.04882
 30
0.0
 10
-1.50353
 20
0.49981
 30
0.0
 10
-1.4781300000000002
 20
0.9849500000000001
 30
0.0
 10
-1.4781300000000002
 20
0.9849500000000001
 30
0.0
 10
-1.2342900000000001
 20
0.95447
 30
0.0
 10
-1.1784100000000002
 20
-0.0539
 30
0.0
 10
-1.1377700000000002
 20
0.5709300000000001
 30
0.0
 10
-1.1377700000000002
 20
0.5709300000000001
 30
0.0
 10
-1.0971300000000002
 20
1.1830700000000001
 30
0.0
 10
-0.8151900000000001
 20
0.37789
 30
0.0
 10
-0.9904500000000001
 20
0.11373
 30
0.0
 10
-0.9904500000000001
 20
0.11373
 30
0.0
 10
-1.0514100000000002
 20
-0.2952
 30
0.0
 10
-0.6627900000000001
 20
-0.38664
 30
0.0
 10
-0.6450100000000001
 20
-0.7955800000000001
 30
0.0
 10
-0.6450100000000001
 20
-0.7955800000000001
 30
0.0
 10
-0.5840500000000001
 20
-0.7727200000000001
 30
0.0
 10
-0.6297700000000001
 20
-0.6228600000000001
 30
0.0
 10
-0.6475500000000001
 20
-0.5619000000000001
 30
0.0
 10
-0.6475500000000001
 20
-0.5619000000000001
 30
0.0
 10
-0.5789700000000001
 20
-0.28504
 30
0.0
 10
-0.58913
 20
-0.8794000000000001
 30
0.0
 10
-0.5180100000000001
 20
-0.7778000000000001
 30
0.0
 10
-0.5180100000000001
 20
-0.7778000000000001
 30
0.0
 10
-0.5180100000000001
 20
-0.7778000000000001
 30
0.0
 10
-0.5180100000000001
 20
-0.6685800000000001
 30
0.0
 10
-0.5180100000000001
 20
-0.6685800000000001
 30
0.0
 10
-0.5180100000000001
 20
-0.6685800000000001
 30
0.0
 10
-0.5180100000000001
 20
-0.6685800000000001
 30
0.0
 10
-0.37069
 20
-0.50348
 30
0.0
 10
-0.37069
 20
-0.50348
 30
0.0
 10
-0.37069
 20
-0.50348
 30
0.0
 10
-0.29195
 20
-0.6635000000000001
 30
0.0
 10
-0.16495
 20
-0.82352
 30
0.0
 10
-0.04811
 20
-0.6000000000000001
 30
0.0
 10
-0.04811
 20
-0.6000000000000001
 30
0.0
 10
0.01538
 20
-1.0597400000000001
 30
0.0
 10
0.23382
 20
-0.52888
 30
0.0
 10
0.3532
 20
-0.7346200000000001
 30
0.0
 10
0.3532
 20
-0.7346200000000001
 30
0.0
 10
0.29224
 20
-0.6228600000000001
 30
0.0
 10
0.3024
 20
-0.4780800000000001
 30
0.0
 10
0.3913
 20
-0.37648
 30
0.0
 10
0.3913
 20
-0.37648
 30
0.0
 10
0.658
 20
-0.53396
 30
0.0
 10
0.25922
 20
-0.8133600000000001
 30
0.0
 10
0.4827400000000001
 20
-0.7955800000000001
 30
0.0
 10
0.4827400000000001
 20
-0.7955800000000001
 30
0.0
 10
0.57418
 20
-0.50856
 30
0.0
 10
0.8358000000000001
 20
-0.65334
 30
0.0
 10
0.9729600000000001
 20
-0.4171200000000001
 30
0.0
 10
0.9729600000000001
 20
-0.4171200000000001
 30
0.0
 10
1.0466200000000001
 20
-0.4780800000000001
 30
0.0
 10
0.9272400000000001
 20
-0.6838200000000001
 30
0.0
 10
1.0466200000000001
 20
-0.6812800000000001
 30
0.0
 10
1.0466200000000001
 20
-0.6812800000000001
 30
0.0
 10
1.0745600000000002
 20
-0.48316
 30
0.0
 10
0.9628000000000001
 20
-0.21138
 30
0.0
 10
1.23204
 20
-0.15804
 30
0.0
 10
1.23204
 20
-0.15804
 30
0.0
 10
1.2676000000000001
 20
0.17723
 30
0.0
 10
1.1406000000000001
 20
0.49981
 30
0.0
 10
1.2549000000000001
 20
0.8223900000000001
 30
0.0
 10
1.2549000000000001
 20
0.8223900000000001
 30
0.0
 10
1.3006200000000001
 20
0.8604900000000001
 30
0.0
 10
1.3463400000000001
 20
0.9239900000000001
 30
0.0
 10
1.4098400000000002
 20
0.91383
 30
0.0
 10
1.4098400000000002
 20
0.91383
 30
0.0
 10
1.4377800000000001
 20
0.7792100000000001
 30
0.0
 10
1.3082400000000001
 20
0.48965
 30
0.0
 10
1.4835
 20
0.46679
 30
0.0
 10
1.4835
 20
0.46679
 30
0.0
 10
1.4835
 20
0.72079
 30
0.0
 10
1.6714600000000002
 20
0.9316100000000001
 30
0.0
 10
1.7070200000000002
 20
1.15513
 30
0.0
  0
SPLINE
  5
49
100
AcDbEntity
  8
Ebene 1
 62
     7
100
AcDbSpline
210
0.0
220
0.0
230
1.0
 70
     1
 71
     3
 72
    24
 73
    20
 74
     0
 42
0.0000000001
 43
0.0000000001
 40
0.0
 40
0.0
 40
0.0
 40
0.0
 40
0.2
 40
0.2
 40
0.2
 40
0.2
 40
0.4
 40
0.4
 40
0.4
 40
0.4
 40
0.6000000000000001
 40
0.6000000000000001
 40
0.6000000000000001
 40
0.6000000000000001
 40
0.8
 40
0.8
 40
0.8
 40
0.8
 40
1.0
 40
1.0
 40
1.0
 40
1.0
 10
-1.5924300000000002
 20
0.66237
 30
0.0
 10
-1.37907
 20
0.39821
 30
0.0
 10
-1.4044700000000001
 20
-0.02596
 30
0.0
 10
-1.4882900000000001
 20
-0.33584
 30
0.0
 10
-1.4882900000000001
 20
-0.33584
 30
0.0
 10
-2.1182100000000004
 20
-0.4349
 30
0.0
 10
-2.7405100000000004
 20
-0.7854200000000001
 30
0.0
 10
-3.1392900000000004
 20
-1.2654800000000002
 30
0.0
 10
-3.1392900000000004
 20
-1.2654800000000002
 30
0.0
 10
-3.1392900000000004
 20
-1.2654800000000002
 30
0.0
 10
-3.5482300000000002
 20
-0.88702
 30
0.0
 10
-3.5482300000000002
 20
-0.88702
 30
0.0
 10
-3.5482300000000002
 20
-0.88702
 30
0.0
 10
-3.3932900000000004
 20
-0.03612
 30
0.0
 10
-2.5144500000000001
 20
0.33217
 30
0.0
 10
-1.7626100000000002
 20
0.4845700000000001
 30
0.0
 10
-1.7626100000000002
 20
0.4845700000000001
 30
0.0
 10
-1.7626100000000002
 20
0.4845700000000001
 30
0.0
 10
-1.5924300000000002
 20
0.66237
 30
0.0
 10
-1.5924300000000002
 20
0.66237
 30
0.0
  0
SPLINE
  5
4A
100
AcDbEntity
  8
Ebene 1
 62
     7
100
AcDbSpline
210
0.0
220
0.0
230
1.0
 70
     1
 71
     3
 72
    20
 73
    16
 74
     0
 42
0.0000000001
 43
0.0000000001
 40
0.0
 40
0.0
 40
0.0
 40
0.0
 40
0.25
 40
0.25
 40
0.25
 40
0.25
 40
0.5
 40
0.5
 40
0.5
 40
0.5
 40
0.75
 40
0.75
 40
0.75
 40
0.75
 40
1.0
 40
1.0
 40
1.0
 40
1.0
 10
1.8695800000000002
 20
0.64205
 30
0.0
 10
2.6849200000000004
 20
0.44647
 30
0.0
 10
3.4062800000000002
 20
-0.23678
 30
0.0
 10
3.7136200000000001
 20
-1.0165600000000001
 30
0.0
 10
3.7136200000000001
 20
-1.0165600000000001
 30
0.0
 10
3.7136200000000001
 20
-1.0165600000000001
 30
0.0
 10
3.4367600000000005
 20
-1.3213600000000001
 30
0.0
 10
3.4367600000000005
 20
-1.3213600000000001
 30
0.0
 10
3.4367600000000005
 20
-1.3213600000000001
 30
0.0
 10
3.0456000000000003
 20
-0.82606
 30
0.0
 10
2.4334600000000002
 20
-0.4780800000000001
 30
0.0
 10
1.7857600000000002
 20
-0.46284
 30
0.0
 10
1.7857600000000002
 20
-0.46284
 30
0.0
 10
1.6206600000000002
 20
-0.12248
 30
0.0
 10
1.7298800000000001
 20
0.3169300000000001
 30
0.0
 10
1.8695800000000002
 20
0.64205
 30
0.0
  0
SPLINE
  5
4B
100
AcDbEntity
  8
Ebene 1
 62
     7
100
AcDbSpline
210
0.0
220
0.0
230
1.0
 70
     1
 71
     3
 72
    12
 73
     8
 74
     0
 42
0.0000000001
 43
0.0000000001
 40
0.0
 40
0.0
 40
0.0
 40
0.0
 40
0.5
 40
0.5
 40
0.5
 40
0.5
 40
1.0
 40
1.0
 40
1.0
 40
1.0
 10
-0.70089
 20
0.26105
 30
0.0
 10
-0.59421
 20
0.24327
 30
0.0
 10
-0.6653300000000001
 20
0.14421
 30
0.0
 10
-0.7313700000000001
 20
0.13913
 30
0.0
 10
-0.7313700000000001
 20
0.13913
 30
0.0
 10
-0.7516900000000001
 20
0.18485
 30
0.0
 10
-0.7288300000000001
 20
0.22549
 30
0.0
 10
-0.70089
 20
0.26105
 30
0.0
  0
SPLINE
  5
4C
100
AcDbEntity
  8
Ebene 1
 62
     7
100
AcDbSpline
210
0.0
220
0.0
230
1.0
 70
     1
 71
     3
 72
    12
 73
     8
 74
     0
 42
0.0000000001
 43
0.0000000001
 40
0.0
 40
0.0
 40
0.0
 40
0.0
 40
0.5
 40
0.5
 40
0.5
 40
0.5
 40
1.0
 40
1.0
 40
1.0
 40
1.0
 10
-0.53579
 20
0.16961
 30
0.0
 10
-0.4697500000000001
 20
0.11627
 30
0.0
 10
-0.49769
 20
-0.01072
 30
0.0
 10
-0.54849
 20
-0.05898
 30
0.0
 10
-0.54849
 20
-0.05898
 30
0.0
 10
-0.6018300000000001
 20
0.00197
 30
0.0
 10
-0.5662700000000001
 20
0.10103
 30
0.0
 10
-0.53579
 20
0.16961
 30
0.0
  0
SPLINE
  5
4D
100
AcDbEntity
  8
Ebene 1
 62
     7
100
AcDbSpline
210
0.0
220
0.0
230
1.0
 70
     1
 71
     3
 72
    12
 73
     8
 74
     0
 42
0.0000000001
 43
0.0000000001
 40
0.0
 40
0.0
 40
0.0
 40
0.0
 40
0.5
 40
0.5
 40
0.5
 40
0.5
 40
1.0
 40
1.0
 40
1.0
 40
1.0
 10
0.7570600000000001
 20
0.11373
 30
0.0
 10
0.8535800000000001
 20
0.03753
 30
0.0
 10
0.8434200000000001
 20
-0.13518
 30
0.0
 10
0.7570600000000001
 20
-0.21138
 30
0.0
 10
0.7570600000000001
 20
-0.21138
 30
0.0
 10
0.6529200000000001
 20
-0.13518
 30
0.0
 10
0.7367400000000001
 20
0.01467
 30
0.0
 10
0.7570600000000001
 20
0.11373
 30
0.0
  0
SPLINE
  5
4E
100
AcDbEntity
  8
Ebene 1
 62
     7
100
AcDbSpline
210
0.0
220
0.0
230
1.0
 70
     1
 71
     3
 72
    12
 73
     8
 74
     0
 42
0.0000000001
 43
0.0000000001
 40
0.0
 40
0.0
 40
0.0
 40
0.0
 40
0.5
 40
0.5
 40
0.5
 40
0.5
 40
1.0
 40
1.0
 40
1.0
 40
1.0
 10
-0.35291
 20
0.06039
 30
0.0
 10
-0.23607
 20
-0.0031
 30
0.0
 10
-0.22591
 20
-0.2571
 30
0.0
 10
-0.34783
 20
-0.33584
 30
0.0
 10
-0.34783
 20
-0.33584
 30
0.0
 10
-0.43419
 20
-0.22154
 30
0.0
 10
-0.41387
 20
-0.05898
 30
0.0
 10
-0.35291
 20
0.06039
 30
0.0
  0
SPLINE
  5
4F
100
AcDbEntity
  8
Ebene 1
 62
     7
100
AcDbSpline
210
0.0
220
0.0
230
1.0
 70
     1
 71
     3
 72
    12
 73
     8
 74
     0
 42
0.0000000001
 43
0.0000000001
 40
0.0
 40
0.0
 40
0.0
 40
0.0
 40
0.5
 40
0.5
 40
0.5
 40
0.5
 40
1.0
 40
1.0
 40
1.0
 40
1.0
 10
0.21096
 20
0.00451
 30
0.0
 10
0.3684400000000001
 20
-0.09708
 30
0.0
 10
0.3151000000000001
 20
-0.31298
 30
0.0
 10
0.17794
 20
-0.40696
 30
0.0
 10
0.17794
 20
-0.40696
 30
0.0
 10
0.14492
 20
-0.27742
 30
0.0
 10
0.15508
 20
-0.12502
 30
0.0
 10
0.21096
 20
0.00451
 30
0.0
  0
SPLINE
  5
50
100
AcDbEntity
  8
Ebene 1
 62
     7
100
AcDbSpline
210
0.0
220
0.0
230
1.0
 70
     1
 71
     3
 72
    12
 73
     8
 74
     0
 42
0.0000000001
 43
0.0000000001
 40
0.0
 40
0.0
 40
0.0
 40
0.0
 40
0.5
 40
0.5
 40
0.5
 40
0.5
 40
1.0
 40
1.0
 40
1.0
 40
1.0
 10
-0.07859
 20
-0.01072
 30
0.0
 10
0.0103
 20
-0.0793
 30
0.0
 10
0.07126
 20
-0.28504
 30
0.0
 10
-0.02779
 20
-0.38918
 30
0.0
 10
-0.02779
 20
-0.38918
 30
0.0
 10
-0.13193
 20
-0.2825
 30
0.0
 10
-0.17511
 20
-0.13518
 30
0.0
 10
-0.07859
 20
-0.01072
 30
0.0
  0
SPLINE
  5
51
100
AcDbEntity
  8
Ebene 1
 62
     7
100
AcDbSpline
210
0.0
220
0.0
230
1.0
 70
     1
 71
     3
 72
    12
 73
     8
 74
     0
 42
0.0000000001
 43
0.0000000001
 40
0.0
 40
0.0
 40
0.0
 40
0.0
 40
0.5
 40
0.5
 40
0.5
 40
0.5
 40
1.0
 40
1.0
 40
1.0
 40
1.0
 10
0.46496
 20
-0.01072
 30
0.0
 10
0.6224400000000001
 20
-0.05136
 30
0.0
 10
0.6224400000000001
 20
-0.25964
 30
0.0
 10
0.51576
 20
-0.35108
 30
0.0
 10
0.51576
 20
-0.35108
 30
0.0
 10
0.42432
 20
-0.27742
 30
0.0
 10
0.43702
 20
-0.11994
 30
0.0
 10
0.46496
 20
-0.01072
 30
0.0
  0
SPLINE
  5
52
100
AcDbEntity
  8
Ebene 1
 62
     7
100
AcDbSpline
210
0.0
220
0.0
230
1.0
 70
     1
 71
     3
 72
    12
 73
     8
 74
     0
 42
0.0000000001
 43
0.0000000001
 40
0.0
 40
0.0
 40
0.0
 40
0.0
 40
0.5
 40
0.5
 40
0.5
 40
0.5
 40
1.0
 40
1.0
 40
1.0
 40
1.0
 10
-0.70089
 20
-0.08438
 30
0.0
 10
-0.6297700000000001
 20
-0.16566
 30
0.0
 10
-0.6246900000000001
 20
-0.32568
 30
0.0
 10
-0.6678700000000001
 20
-0.4247400000000001
 30
0.0
 10
-0.6678700000000001
 20
-0.4247400000000001
 30
0.0
 10
-0.74407
 20
-0.346
 30
0.0
 10
-0.7516900000000001
 20
-0.18598
 30
0.0
 10
-0.70089
 20
-0.08438
 30
0.0
  0
SPLINE
  5
53
100
AcDbEntity
  8
Ebene 1
 62
     7
100
AcDbSpline
210
0.0
220
0.0
230
1.0
 70
     1
 71
     3
 72
    12
 73
     8
 74
     0
 42
0.0000000001
 43
0.0000000001
 40
0.0
 40
0.0
 40
0.0
 40
0.0
 40
0.5
 40
0.5
 40
0.5
 40
0.5
 40
1.0
 40
1.0
 40
1.0
 40
1.0
 10
0.8840600000000001
 20
-0.17582
 30
0.0
 10
0.9882000000000001
 20
-0.21392
 30
0.0
 10
0.9069200000000001
 20
-0.3968
 30
0.0
 10
0.86882
 20
-0.4679200000000001
 30
0.0
 10
0.86882
 20
-0.4679200000000001
 30
0.0
 10
0.80786
 20
-0.38156
 30
0.0
 10
0.8459600000000001
 20
-0.2698
 30
0.0
 10
0.8840600000000001
 20
-0.17582
 30
0.0
  0
SPLINE
  5
54
100
AcDbEntity
  8
Ebene 1
 62
     7
100
AcDbSpline
210
0.0
220
0.0
230
1.0
 70
     1
 71
     3
 72
    16
 73
    12
 74
     0
 42
0.0000000001
 43
0.0000000001
 40
0.0
 40
0.0
 40
0.0
 40
0.0
 40
0.3333333333333333
 40
0.3333333333333333
 40
0.3333333333333333
 40
0.3333333333333333
 40
0.6666666666666666
 40
0.6666666666666666
 40
0.6666666666666666
 40
0.6666666666666666
 40
1.0
 40
1.0
 40
1.0
 40
1.0
 10
-0.49769
 20
-0.21138
 30
0.0
 10
-0.49769
 20
-0.21138
 30
0.0
 10
-0.46721
 20
-0.21392
 30
0.0
 10
-0.46721
 20
-0.21392
 30
0.0
 10
-0.46721
 20
-0.21392
 30
0.0
 10
-0.44181
 20
-0.31806
 30
0.0
 10
-0.35545
 20
-0.45268
 30
0.0
 10
-0.4799100000000001
 20
-0.5238
 30
0.0
 10
-0.4799100000000001
 20
-0.5238
 30
0.0
 10
-0.56881
 20
-0.44506
 30
0.0
 10
-0.5180100000000001
 20
-0.31298
 30
0.0
 10
-0.49769
 20
-0.21138
 30
0.0
  0
SPLINE
  5
55
100
AcDbEntity
  8
Ebene 1
 62
     7
100
AcDbSpline
210
0.0
220
0.0
230
1.0
 70
     1
 71
     3
 72
    12
 73
     8
 74
     0
 42
0.0000000001
 43
0.0000000001
 40
0.0
 40
0.0
 40
0.0
 40
0.0
 40
0.5
 40
0.5
 40
0.5
 40
0.5
 40
1.0
 40
1.0
 40
1.0
 40
1.0
 10
0.6478400000000001
 20
-0.28504
 30
0.0
 10
0.7265800000000001
 20
-0.346
 30
0.0
 10
0.7265800000000001
 20
-0.5161800000000001
 30
0.0
 10
0.6478400000000001
 20
-0.5771400000000001
 30
0.0
 10
0.6478400000000001
 20
-0.5771400000000001
 30
0.0
 10
0.5691000000000001
 20
-0.5111
 30
0.0
 10
0.6199
 20
-0.36886
 30
0.0
 10
0.6478400000000001
 20
-0.28504
 30
0.0
  0
SPLINE
  5
56
100
AcDbEntity
  8
Ebene 1
 62
     7
100
AcDbSpline
210
0.0
220
0.0
230
1.0
 70
     1
 71
     3
 72
    12
 73
     8
 74
     0
 42
0.0000000001
 43
0.0000000001
 40
0.0
 40
0.0
 40
0.0
 40
0.0
 40
0.5
 40
0.5
 40
0.5
 40
0.5
 40
1.0
 40
1.0
 40
1.0
 40
1.0
 10
-0.20813
 20
-0.3587
 30
0.0
 10
-0.10907
 20
-0.38156
 30
0.0
 10
-0.06081
 20
-0.6050800000000001
 30
0.0
 10
-0.18781
 20
-0.63048
 30
0.0
 10
-0.18781
 20
-0.63048
 30
0.0
 10
-0.26401
 20
-0.5644400000000001
 30
0.0
 10
-0.20813
 20
-0.44506
 30
0.0
 10
-0.20813
 20
-0.3587
 30
0.0
  0
SPLINE
  5
57
100
AcDbEntity
  8
Ebene 1
 62
     7
100
AcDbSpline
210
0.0
220
0.0
230
1.0
 70
     1
 71
     3
 72
    12
 73
     8
 74
     0
 42
0.0000000001
 43
0.0000000001
 40
0.0
 40
0.0
 40
0.0
 40
0.0
 40
0.5
 40
0.5
 40
0.5
 40
0.5
 40
1.0
 40
1.0
 40
1.0
 40
1.0
 10
0.08142
 20
-0.42982
 30
0.0
 10
0.13476
 20
-0.50856
 30
0.0
 10
0.21096
 20
-0.72192
 30
0.0
 10
0.06364
 20
-0.7397
 30
0.0
 10
0.06364
 20
-0.7397
 30
0.0
 10
-0.00493
 20
-0.6609600000000001
 30
0.0
 10
0.02554
 20
-0.5161800000000001
 30
0.0
 10
0.08142
 20
-0.42982
 30
0.0
  0
SPLINE
  5
58
100
AcDbEntity
  8
Ebene 1
 62
     7
100
AcDbSpline
210
0.0
220
0.0
230
1.0
 70
     1
 71
     3
 72
    20
 73
    16
 74
     0
 42
0.0000000001
 43
0.0000000001
 40
0.0
 40
0.0
 40
0.0
 40
0.0
 40
0.25
 40
0.25
 40
0.25
 40
0.25
 40
0.5
 40
0.5
 40
0.5
 40
0.5
 40
0.75
 40
0.75
 40
0.75
 40
0.75
 40
1.0
 40
1.0
 40
1.0
 40
1.0
 10
-1.37653
 20
-0.63048
 30
0.0
 10
-1.08951
 20
-0.7727200000000001
 30
0.0
 10
-0.88885
 20
-1.08006
 30
0.0
 10
-0.8507500000000001
 20
-1.3924800000000002
 30
0.0
 10
-0.8507500000000001
 20
-1.3924800000000002
 30
0.0
 10
-1.3689100000000001
 20
-1.4839200000000001
 30
0.0
 10
-1.9327900000000002
 20
-1.58552
 30
0.0
 10
-2.3239500000000004
 20
-2.0020800000000003
 30
0.0
 10
-2.3239500000000004
 20
-2.0020800000000003
 30
0.0
 10
-2.3239500000000004
 20
-2.0020800000000003
 30
0.0
 10
-2.7430500000000002
 20
-1.5804400000000001
 30
0.0
 10
-2.7430500000000002
 20
-1.5804400000000001
 30
0.0
 10
-2.7430500000000002
 20
-1.5804400000000001
 30
0.0
 10
-2.4763500000000001
 20
-1.0699000000000001
 30
0.0
 10
-1.9175500000000001
 20
-0.7117600000000001
 30
0.0
 10
-1.37653
 20
-0.63048
 30
0.0
  0
SPLINE
  5
59
100
AcDbEntity
  8
Ebene 1
 62
     7
100
AcDbSpline
210
0.0
220
0.0
230
1.0
 70
     1
 71
     3
 72
    20
 73
    16
 74
     0
 42
0.0000000001
 43
0.0000000001
 40
0.0
 40
0.0
 40
0.0
 40
0.0
 40
0.25
 40
0.25
 40
0.25
 40
0.25
 40
0.5
 40
0.5
 40
0.5
 40
0.5
 40
0.75
 40
0.75
 40
0.75
 40
0.75
 40
1.0
 40
1.0
 40
1.0
 40
1.0
 10
1.3768200000000002
 20
-0.8133600000000001
 30
0.0
 10
2.0448400000000002
 20
-0.7498600000000001
 30
0.0
 10
2.6214200000000001
 20
-1.1435600000000001
 30
0.0
 10
2.9668600000000001
 20
-1.7074400000000001
 30
0.0
 10
2.9668600000000001
 20
-1.7074400000000001
 30
0.0
 10
2.9668600000000001
 20
-1.7074400000000001
 30
0.0
 10
2.5960200000000002
 20
-2.1417800000000002
 30
0.0
 10
2.5960200000000002
 20
-2.1417800000000002
 30
0.0
 10
2.5960200000000002
 20
-2.1417800000000002
 30
0.0
 10
2.24804
 20
-1.7150600000000003
 30
0.0
 10
1.6663800000000002
 20
-1.5677400000000001
 30
0.0
 10
1.1279000000000001
 20
-1.5194800000000002
 30
0.0
 10
1.1279000000000001
 20
-1.5194800000000002
 30
0.0
 10
1.0872600000000001
 20
-1.28834
 30
0.0
 10
1.2066400000000002
 20
-0.9683000000000001
 30
0.0
 10
1.3768200000000002
 20
-0.8133600000000001
 30
0.0
  0
SPLINE
  5
5A
100
AcDbEntity
  8
Ebene 1
 62
     7
100
AcDbSpline
210
0.0
220
0.0
230
1.0
 70
     1
 71
     3
 72
    88
 73
    84
 74
     0
 42
0.0000000001
 43
0.0000000001
 40
0.0
 40
0.0
 40
0.0
 40
0.0
 40
0.0476190476190476
 40
0.0476190476190476
 40
0.0476190476190476
 40
0.0476190476190476
 40
0.0952380952380952
 40
0.0952380952380952
 40
0.0952380952380952
 40
0.0952380952380952
 40
0.1428571428571429
 40
0.1428571428571429
 40
0.1428571428571429
 40
0.1428571428571429
 40
0.1904761904761905
 40
0.1904761904761905
 40
0.1904761904761905
 40
0.1904761904761905
 40
0.2380952380952381
 40
0.2380952380952381
 40
0.2380952380952381
 40
0.2380952380952381
 40
0.2857142857142857
 40
0.2857142857142857
 40
0.2857142857142857
 40
0.2857142857142857
 40
0.3333333333333333
 40
0.3333333333333333
 40
0.3333333333333333
 40
0.3333333333333333
 40
0.3809523809523809
 40
0.3809523809523809
 40
0.3809523809523809
 40
0.3809523809523809
 40
0.4285714285714286
 40
0.4285714285714286
 40
0.4285714285714286
 40
0.4285714285714286
 40
0.4761904761904762
 40
0.4761904761904762
 40
0.4761904761904762
 40
0.4761904761904762
 40
0.5238095238095237
 40
0.5238095238095237
 40
0.5238095238095237
 40
0.5238095238095237
 40
0.5714285714285714
 40
0.5714285714285714
 40
0.5714285714285714
 40
0.5714285714285714
 40
0.6190476190476191
 40
0.6190476190476191
 40
0.6190476190476191
 40
0.6190476190476191
 40
0.6666666666666667
 40
0.6666666666666667
 40
0.6666666666666667
 40
0.6666666666666667
 40
0.7142857142857144
 40
0.7142857142857144
 40
0.7142857142857144
 40
0.7142857142857144
 40
0.7619047619047621
 40
0.7619047619047621
 40
0.7619047619047621
 40
0.7619047619047621
 40
0.8095238095238098
 40
0.8095238095238098
 40
0.8095238095238098
 40
0.8095238095238098
 40
0.8571428571428574
 40
0.8571428571428574
 40
0.8571428571428574
 40
0.8571428571428574
 40
0.9047619047619051
 40
0.9047619047619051
 40
0.9047619047619051
 40
0.9047619047619051
 40
0.9523809523809528
 40
0.9523809523809528
 40
0.9523809523809528
 40
0.9523809523809528
 40
1.0
 40
1.0
 40
1.0
 40
1.0
 10
-2.9437100000000003
 20
-1.5804400000000001
 30
0.0
 10
-2.82179
 20
-1.5982200000000002
 30
0.0
 10
-2.3874500000000003
 20
-1.9462000000000002
 30
0.0
 10
-2.7074900000000004
 20
-1.8903200000000002
 30
0.0
 10
-2.7074900000000004
 20
-1.8903200000000002
 30
0.0
 10
-3.0554700000000001
 20
-1.83952
 30
0.0
 10
-3.2180300000000002
 20
-2.2281400000000002
 30
0.0
 10
-3.3450300000000004
 20
-2.4948400000000004
 30
0.0
 10
-3.3450300000000004
 20
-2.4948400000000004
 30
0.0
 10
-2.9335500000000003
 20
-2.6015200000000003
 30
0.0
 10
-2.5804900000000002
 20
-2.4999200000000004
 30
0.0
 10
-2.30871
 20
-2.1849600000000002
 30
0.0
 10
-2.30871
 20
-2.1849600000000002
 30
0.0
 10
-2.1994900000000004
 20
-2.4516600000000004
 30
0.0
 10
-2.0928100000000001
 20
-2.7361400000000002
 30
0.0
 10
-2.0369300000000004
 20
-3.0155400000000001
 30
0.0
 10
-2.0369300000000004
 20
-3.0155400000000001
 30
0.0
 10
-2.4230100000000001
 20
-3.1349200000000002
 30
0.0
 10
-2.6008100000000001
 20
-3.5184600000000001
 30
0.0
 10
-2.7024100000000004
 20
-3.8740600000000005
 30
0.0
 10
-2.7024100000000004
 20
-3.8740600000000005
 30
0.0
 10
-2.44333
 20
-3.7750000000000004
 30
0.0
 10
-2.0623300000000002
 20
-3.7902400000000003
 30
0.0
 10
-1.8896100000000002
 20
-3.5921200000000004
 30
0.0
 10
-1.8896100000000002
 20
-3.5921200000000004
 30
0.0
 10
-1.7092700000000001
 20
-4.1788600000000002
 30
0.0
 10
-1.6254500000000001
 20
-5.3802800000000008
 30
0.0
 10
-0.6932700000000001
 20
-5.0983400000000003
 30
0.0
 10
-0.6932700000000001
 20
-5.0983400000000003
 30
0.0
 10
-0.5002300000000001
 20
-4.5522400000000003
 30
0.0
 10
-0.70089
 20
-3.8156400000000001
 30
0.0
 10
-0.65771
 20
-3.2085800000000004
 30
0.0
 10
-0.65771
 20
-3.2085800000000004
 30
0.0
 10
-0.65771
 20
-3.2085800000000004
 30
0.0
 10
-0.02525
 20
-3.2416000000000005
 30
0.0
 10
-0.02525
 20
-3.2416000000000005
 30
0.0
 10
-0.02525
 20
-3.2416000000000005
 30
0.0
 10
0.2643
 20
-3.3508200000000001
 30
0.0
 10
0.5818000000000001
 20
-3.1222200000000004
 30
0.0
 10
0.8637400000000001
 20
-3.2441400000000002
 30
0.0
 10
0.8637400000000001
 20
-3.2441400000000002
 30
0.0
 10
0.9577200000000001
 20
-3.8258000000000005
 30
0.0
 10
0.6021200000000001
 20
-4.6233600000000008
 30
0.0
 10
0.9450200000000001
 20
-5.1161200000000004
 30
0.0
 10
0.9450200000000001
 20
-5.1161200000000004
 30
0.0
 10
1.8924400000000001
 20
-5.2964600000000006
 30
0.0
 10
1.7984600000000002
 20
-4.0670999999999999
 30
0.0
 10
2.0600800000000001
 20
-3.4829000000000003
 30
0.0
 10
2.0600800000000001
 20
-3.4829000000000003
 30
0.0
 10
2.1743800000000002
 20
-3.7597600000000004
 30
0.0
 10
2.5579200000000002
 20
-3.6302200000000004
 30
0.0
 10
2.7966800000000003
 20
-3.6378400000000002
 30
0.0
 10
2.7966800000000003
 20
-3.6378400000000002
 30
0.0
 10
2.7662000000000004
 20
-3.4473400000000001
 30
0.0
 10
2.6036400000000004
 20
-3.2644600000000001
 30
0.0
 10
2.5833200000000001
 20
-3.0561800000000003
 30
0.0
 10
2.5833200000000001
 20
-3.0561800000000003
 30
0.0
 10
2.2328000000000001
 20
-3.0155400000000001
 30
0.0
 10
2.2505800000000002
 20
-2.7361400000000002
 30
0.0
 10
2.5096600000000002
 20
-2.4389600000000002
 30
0.0
 10
2.5096600000000002
 20
-2.4389600000000002
 30
0.0
 10
2.7382600000000004
 20
-2.5862800000000004
 30
0.0
 10
3.7568000000000001
 20
-2.5786600000000002
 30
0.0
 10
3.1726000000000001
 20
-2.1951200000000002
 30
0.0
 10
3.1726000000000001
 20
-2.1951200000000002
 30
0.0
 10
3.1319600000000003
 20
-2.0782800000000003
 30
0.0
 10
2.9795600000000002
 20
-1.9538200000000001
 30
0.0
 10
2.9338400000000004
 20
-1.9309600000000002
 30
0.0
 10
2.9338400000000004
 20
-1.9309600000000002
 30
0.0
 10
3.1624400000000001
 20
-1.7836400000000001
 30
0.0
 10
3.4596200000000001
 20
-1.7836400000000001
 30
0.0
 10
3.6196400000000004
 20
-2.0401800000000003
 30
0.0
 10
3.6196400000000004
 20
-2.0401800000000003
 30
0.0
 10
3.5307400000000002
 20
-3.7242000000000002
 30
0.0
 10
1.9915000000000003
 20
-5.3980600000000001
 30
0.0
 10
0.24652
 20
-5.4844200000000001
 30
0.0
 10
0.24652
 20
-5.4844200000000001
 30
0.0
 10
-1.6076700000000002
 20
-5.5403000000000002
 30
0.0
 10
-3.8835100000000002
 20
-3.9934400000000005
 30
0.0
 10
-3.6142700000000003
 20
-1.9868400000000002
 30
0.0
 10
-3.6142700000000003
 20
-1.9868400000000002
 30
0.0
 10
-3.4491700000000001
 20
-1.7480800000000001
 30
0.0
 10
-3.1443700000000003
 20
-1.7353800000000001
 30
0.0
 10
-2.9437100000000003
 20
-1.5804400000000001
 30
0.0
  0
SPLINE
  5
5B
100
AcDbEntity
  8
Ebene 1
 62
     7
100
AcDbSpline
210
0.0
220
0.0
230
1.0
 70
     1
 71
     3
 72
    16
 73
    12
 74
     0
 42
0.0000000001
 43
0.0000000001
 40
0.0
 40
0.0
 40
0.0
 40
0.0
 40
0.3333333333333333
 40
0.3333333333333333
 40
0.3333333333333333
 40
0.3333333333333333
 40
0.6666666666666666
 40
0.6666666666666666
 40
0.6666666666666666
 40
0.6666666666666666
 40
1.0
 40
1.0
 40
1.0
 40
1.0
 10
-0.20813
 20
-1.6160000000000001
 30
0.0
 10
-0.00493
 20
-1.6769600000000002
 30
0.0
 10
0.21604
 20
-1.6464800000000002
 30
0.0
 10
0.42432
 20
-1.6388600000000002
 30
0.0
 10
0.42432
 20
-1.6388600000000002
 30
0.0
 10
0.4522600000000001
 20
-1.9970000000000001
 30
0.0
 10
0.00268
 20
-1.8954000000000002
 30
0.0
 10
-0.20305
 20
-1.8141200000000002
 30
0.0
 10
-0.20305
 20
-1.8141200000000002
 30
0.0
 10
-0.23099
 20
-1.7557
 30
0.0
 10
-0.23861
 20
-1.6744200000000002
 30
0.0
 10
-0.20813
 20
-1.6160000000000001
 30
0.0
  0
SPLINE
  5
5C
100
AcDbEntity
  8
Ebene 1
 62
     7
100
AcDbSpline
210
0.0
220
0.0
230
1.0
 70
     1
 71
     3
 72
    36
 73
    32
 74
     0
 42
0.0000000001
 43
0.0000000001
 40
0.0
 40
0.0
 40
0.0
 40
0.0
 40
0.125
 40
0.125
 40
0.125
 40
0.125
 40
0.25
 40
0.25
 40
0.25
 40
0.25
 40
0.375
 40
0.375
 40
0.375
 40
0.375
 40
0.5
 40
0.5
 40
0.5
 40
0.5
 40
0.625
 40
0.625
 40
0.625
 40
0.625
 40
0.75
 40
0.75
 40
0.75
 40
0.75
 40
0.875
 40
0.875
 40
0.875
 40
0.875
 40
1.0
 40
1.0
 40
1.0
 40
1.0
 10
-2.9081500000000005
 20
-1.9639800000000001
 30
0.0
 10
-2.61097
 20
-1.9258800000000003
 30
0.0
 10
-3.2104100000000004
 20
-2.3297400000000001
 30
0.0
 10
-2.8929100000000001
 20
-2.26878
 30
0.0
 10
-2.8929100000000001
 20
-2.26878
 30
0.0
 10
-2.8929100000000001
 20
-2.26878
 30
0.0
 10
-2.7811500000000002
 20
-2.2383000000000002
 30
0.0
 10
-2.7811500000000002
 20
-2.2383000000000002
 30
0.0
 10
-2.7811500000000002
 20
-2.2383000000000002
 30
0.0
 10
-2.6897100000000003
 20
-2.2078200000000003
 30
0.0
 10
-2.5703300000000002
 20
-2.2510000000000003
 30
0.0
 10
-2.52969
 20
-2.1417800000000002
 30
0.0
 10
-2.52969
 20
-2.1417800000000002
 30
0.0
 10
-2.52969
 20
-2.1417800000000002
 30
0.0
 10
-2.40015
 20
-2.0401800000000003
 30
0.0
 10
-2.40015
 20
-2.0401800000000003
 30
0.0
 10
-2.40015
 20
-2.0401800000000003
 30
0.0
 10
-2.3798300000000001
 20
-2.0554200000000002
 30
0.0
 10
-2.3722100000000004
 20
-2.0833600000000003
 30
0.0
 10
-2.3823700000000003
 20
-2.1036800000000002
 30
0.0
 10
-2.3823700000000003
 20
-2.1036800000000002
 30
0.0
 10
-2.5017500000000004
 20
-2.2332200000000002
 30
0.0
 10
-2.6185900000000002
 20
-2.3449800000000001
 30
0.0
 10
-2.7481300000000002
 20
-2.4516600000000004
 30
0.0
 10
-2.7481300000000002
 20
-2.4516600000000004
 30
0.0
 10
-2.86497
 20
-2.4338800000000003
 30
0.0
 10
-2.9945100000000004
 20
-2.4237200000000003
 30
0.0
 10
-3.1037300000000001
 20
-2.3780000000000001
 30
0.0
 10
-3.1037300000000001
 20
-2.3780000000000001
 30
0.0
 10
-3.1037300000000001
 20
-2.3780000000000001
 30
0.0
 10
-2.9081500000000005
 20
-1.9639800000000001
 30
0.0
 10
-2.9081500000000005
 20
-1.9639800000000001
 30
0.0
  0
SPLINE
  5
5D
100
AcDbEntity
  8
Ebene 1
 62
     7
100
AcDbSpline
210
0.0
220
0.0
230
1.0
 70
     1
 71
     3
 72
    24
 73
    20
 74
     0
 42
0.0000000001
 43
0.0000000001
 40
0.0
 40
0.0
 40
0.0
 40
0.0
 40
0.2
 40
0.2
 40
0.2
 40
0.2
 40
0.4
 40
0.4
 40
0.4
 40
0.4
 40
0.6000000000000001
 40
0.6000000000000001
 40
0.6000000000000001
 40
0.6000000000000001
 40
0.8
 40
0.8
 40
0.8
 40
0.8
 40
1.0
 40
1.0
 40
1.0
 40
1.0
 10
-1.2292100000000001
 20
-1.9639800000000001
 30
0.0
 10
-1.08443
 20
-1.9868400000000002
 30
0.0
 10
-0.8964700000000001
 20
-1.9131800000000001
 30
0.0
 10
-0.7770900000000001
 20
-2.0046200000000001
 30
0.0
 10
-0.7770900000000001
 20
-2.0046200000000001
 30
0.0
 10
-0.7770900000000001
 20
-2.0046200000000001
 30
0.0
 10
-0.72121
 20
-2.94442
 30
0.0
 10
-0.72121
 20
-2.94442
 30
0.0
 10
-0.72121
 20
-2.94442
 30
0.0
 10
-1.12253
 20
-2.8783800000000004
 30
0.0
 10
-1.5416300000000001
 20
-3.0155400000000001
 30
0.0
 10
-1.8692900000000001
 20
-3.2593800000000002
 30
0.0
 10
-1.8692900000000001
 20
-3.2593800000000002
 30
0.0
 10
-1.9505700000000001
 20
-3.0333200000000002
 30
0.0
 10
-2.02169
 20
-2.7717000000000001
 30
0.0
 10
-2.0851900000000003
 20
-2.52786
 30
0.0
 10
-2.0851900000000003
 20
-2.52786
 30
0.0
 10
-1.9150100000000001
 20
-2.2103600000000001
 30
0.0
 10
-1.5822700000000001
 20
-1.9665200000000003
 30
0.0
 10
-1.2292100000000001
 20
-1.9639800000000001
 30
0.0
  0
SPLINE
  5
5E
100
AcDbEntity
  8
Ebene 1
 62
     7
100
AcDbSpline
210
0.0
220
0.0
230
1.0
 70
     1
 71
     3
 72
    24
 73
    20
 74
     0
 42
0.0000000001
 43
0.0000000001
 40
0.0
 40
0.0
 40
0.0
 40
0.0
 40
0.2
 40
0.2
 40
0.2
 40
0.2
 40
0.4
 40
0.4
 40
0.4
 40
0.4
 40
0.6000000000000001
 40
0.6000000000000001
 40
0.6000000000000001
 40
0.6000000000000001
 40
0.8
 40
0.8
 40
0.8
 40
0.8
 40
1.0
 40
1.0
 40
1.0
 40
1.0
 10
3.8965000000000005
 20
-2.0020800000000003
 30
0.0
 10
3.8584000000000005
 20
-3.5464000000000002
 30
0.0
 10
2.3725000000000001
 20
-5.0983400000000003
 30
0.0
 10
0.9043800000000001
 20
-5.6495200000000008
 30
0.0
 10
0.9043800000000001
 20
-5.6495200000000008
 30
0.0
 10
-0.25893
 20
-5.8451000000000004
 30
0.0
 10
-1.5162300000000002
 20
-5.5834800000000007
 30
0.0
 10
-2.3899900000000001
 20
-4.7884600000000006
 30
0.0
 10
-2.3899900000000001
 20
-4.7884600000000006
 30
0.0
 10
-3.1596100000000003
 20
-4.2550600000000003
 30
0.0
 10
-3.8301700000000003
 20
-3.4041600000000001
 30
0.0
 10
-3.9063700000000003
 20
-2.4796
 30
0.0
 10
-3.9063700000000003
 20
-2.4796
 30
0.0
 10
-3.2637500000000004
 20
-4.6716200000000008
 30
0.0
 10
-0.76185
 20
-6.1067200000000001
 30
0.0
 10
1.4276200000000001
 20
-5.3523400000000008
 30
0.0
 10
1.4276200000000001
 20
-5.3523400000000008
 30
0.0
 10
2.7204800000000002
 20
-4.6817800000000007
 30
0.0
 10
3.4697800000000001
 20
-3.3101800000000003
 30
0.0
 10
3.8965000000000005
 20
-2.0020800000000003
 30
0.0
  0
SPLINE
  5
5F
100
AcDbEntity
  8
Ebene 1
 62
     7
100
AcDbSpline
210
0.0
220
0.0
230
1.0
 70
     1
 71
     3
 72
    24
 73
    20
 74
     0
 42
0.0000000001
 43
0.0000000001
 40
0.0
 40
0.0
 40
0.0
 40
0.0
 40
0.2
 40
0.2
 40
0.2
 40
0.2
 40
0.4
 40
0.4
 40
0.4
 40
0.4
 40
0.6000000000000001
 40
0.6000000000000001
 40
0.6000000000000001
 40
0.6000000000000001
 40
0.8
 40
0.8
 40
0.8
 40
0.8
 40
1.0
 40
1.0
 40
1.0
 40
1.0
 10
1.19648
 20
-2.0554200000000002
 30
0.0
 10
1.6384400000000001
 20
-2.0401800000000003
 30
0.0
 10
2.0448400000000002
 20
-2.19258
 30
0.0
 10
2.3420200000000002
 20
-2.5151600000000003
 30
0.0
 10
2.3420200000000002
 20
-2.5151600000000003
 30
0.0
 10
2.3420200000000002
 20
-2.5151600000000003
 30
0.0
 10
2.0321400000000001
 20
-3.2543000000000002
 30
0.0
 10
2.0321400000000001
 20
-3.2543000000000002
 30
0.0
 10
2.0321400000000001
 20
-3.2543000000000002
 30
0.0
 10
1.7603600000000001
 20
-3.0104600000000001
 30
0.0
 10
1.3438000000000001
 20
-3.0003000000000002
 30
0.0
 10
0.9831200000000001
 20
-3.0358600000000004
 30
0.0
 10
0.9831200000000001
 20
-3.0358600000000004
 30
0.0
 10
0.88914
 20
-2.7437600000000004
 30
0.0
 10
1.01868
 20
-2.4008600000000002
 30
0.0
 10
1.0364600000000002
 20
-2.09606
 30
0.0
 10
1.0364600000000002
 20
-2.09606
 30
0.0
 10
1.0364600000000002
 20
-2.09606
 30
0.0
 10
1.19648
 20
-2.0554200000000002
 30
0.0
 10
1.19648
 20
-2.0554200000000002
 30
0.0
  0
SPLINE
  5
60
100
AcDbEntity
  8
Ebene 1
 62
     7
100
AcDbSpline
210
0.0
220
0.0
230
1.0
 70
     1
 71
     3
 72
    24
 73
    20
 74
     0
 42
0.0000000001
 43
0.0000000001
 40
0.0
 40
0.0
 40
0.0
 40
0.0
 40
0.2
 40
0.2
 40
0.2
 40
0.2
 40
0.4
 40
0.4
 40
0.4
 40
0.4
 40
0.6000000000000001
 40
0.6000000000000001
 40
0.6000000000000001
 40
0.6000000000000001
 40
0.8
 40
0.8
 40
0.8
 40
0.8
 40
1.0
 40
1.0
 40
1.0
 40
1.0
 10
2.8195400000000004
 20
-2.0554200000000002
 30
0.0
 10
3.0227400000000002
 20
-2.0046200000000001
 30
0.0
 10
3.0176600000000002
 20
-2.2459200000000004
 30
0.0
 10
3.0887800000000003
 20
-2.36022
 30
0.0
 10
3.0887800000000003
 20
-2.36022
 30
0.0
 10
2.9313000000000002
 20
-2.3576800000000002
 30
0.0
 10
2.6265000000000001
 20
-2.5481800000000003
 30
0.0
 10
2.5680800000000001
 20
-2.3322800000000004
 30
0.0
 10
2.5680800000000001
 20
-2.3322800000000004
 30
0.0
 10
2.5680800000000001
 20
-2.3322800000000004
 30
0.0
 10
2.63666
 20
-2.3297400000000001
 30
0.0
 10
2.63666
 20
-2.3297400000000001
 30
0.0
 10
2.63666
 20
-2.3297400000000001
 30
0.0
 10
2.63666
 20
-2.3297400000000001
 30
0.0
 10
2.92876
 20
-2.2916400000000001
 30
0.0
 10
2.92876
 20
-2.2916400000000001
 30
0.0
 10
2.92876
 20
-2.2916400000000001
 30
0.0
 10
3.0405200000000003
 20
-2.1570200000000002
 30
0.0
 10
2.6163400000000001
 20
-2.1367000000000003
 30
0.0
 10
2.8195400000000004
 20
-2.0554200000000002
 30
0.0
  0
SPLINE
  5
61
100
AcDbEntity
  8
Ebene 1
 62
     7
100
AcDbSpline
210
0.0
220
0.0
230
1.0
 70
     1
 71
     3
 72
    12
 73
     8
 74
     0
 42
0.0000000001
 43
0.0000000001
 40
0.0
 40
0.0
 40
0.0
 40
0.0
 40
0.5
 40
0.5
 40
0.5
 40
0.5
 40
1.0
 40
1.0
 40
1.0
 40
1.0
 10
-0.07859
 20
-2.1646400000000003
 30
0.0
 10
0.02046
 20
-2.2535400000000001
 30
0.0
 10
0.19572
 20
-2.1519400000000002
 30
0.0
 10
0.28208
 20
-2.2179800000000003
 30
0.0
 10
0.28208
 20
-2.2179800000000003
 30
0.0
 10
0.277
 20
-2.4440400000000002
 30
0.0
 10
-0.13447
 20
-2.3576800000000002
 30
0.0
 10
-0.07859
 20
-2.1646400000000003
 30
0.0
  0
SPLINE
  5
62
100
AcDbEntity
  8
Ebene 1
 62
     7
100
AcDbSpline
210
0.0
220
0.0
230
1.0
 70
     1
 71
     3
 72
    12
 73
     8
 74
     0
 42
0.0000000001
 43
0.0000000001
 40
0.0
 40
0.0
 40
0.0
 40
0.0
 40
0.5
 40
0.5
 40
0.5
 40
0.5
 40
1.0
 40
1.0
 40
1.0
 40
1.0
 10
0.02808
 20
-2.6015200000000003
 30
0.0
 10
0.10174
 20
-2.6167600000000002
 30
0.0
 10
0.22366
 20
-2.5634200000000003
 30
0.0
 10
0.2617600000000001
 20
-2.65232
 30
0.0
 10
0.2617600000000001
 20
-2.65232
 30
0.0
 10
0.23128
 20
-2.7894800000000002
 30
0.0
 10
-0.02271
 20
-2.7234400000000001
 30
0.0
 10
0.02808
 20
-2.6015200000000003
 30
0.0
  0
SPLINE
  5
63
100
AcDbEntity
  8
Ebene 1
 62
     7
100
AcDbSpline
210
0.0
220
0.0
230
1.0
 70
     1
 71
     3
 72
    16
 73
    12
 74
     0
 42
0.0000000001
 43
0.0000000001
 40
0.0
 40
0.0
 40
0.0
 40
0.0
 40
0.3333333333333333
 40
0.3333333333333333
 40
0.3333333333333333
 40
0.3333333333333333
 40
0.6666666666666666
 40
0.6666666666666666
 40
0.6666666666666666
 40
0.6666666666666666
 40
1.0
 40
1.0
 40
1.0
 40
1.0
 10
-0.6627900000000001
 20
-2.7107400000000004
 30
0.0
 10
-0.27417
 20
-3.1781000000000001
 30
0.0
 10
0.5056000000000001
 20
-3.1069800000000001
 30
0.0
 10
0.8993000000000001
 20
-2.7717000000000001
 30
0.0
 10
0.8993000000000001
 20
-2.7717000000000001
 30
0.0
 10
0.59196
 20
-3.2568400000000004
 30
0.0
 10
-0.24115
 20
-3.3076400000000001
 30
0.0
 10
-0.63993
 20
-2.8707600000000002
 30
0.0
 10
-0.63993
 20
-2.8707600000000002
 30
0.0
 10
-0.65771
 20
-2.81996
 30
0.0
 10
-0.69581
 20
-2.7615400000000001
 30
0.0
 10
-0.6627900000000001
 20
-2.7107400000000004
 30
0.0
  0
SPLINE
  5
64
100
AcDbEntity
  8
Ebene 1
 62
     7
100
AcDbSpline
210
0.0
220
0.0
230
1.0
 70
     1
 71
     3
 72
    28
 73
    24
 74
     0
 42
0.0000000001
 43
0.0000000001
 40
0.0
 40
0.0
 40
0.0
 40
0.0
 40
0.1666666666666667
 40
0.1666666666666667
 40
0.1666666666666667
 40
0.1666666666666667
 40
0.3333333333333333
 40
0.3333333333333333
 40
0.3333333333333333
 40
0.3333333333333333
 40
0.5
 40
0.5
 40
0.5
 40
0.5
 40
0.6666666666666666
 40
0.6666666666666666
 40
0.6666666666666666
 40
0.6666666666666666
 40
0.8333333333333333
 40
0.8333333333333333
 40
0.8333333333333333
 40
0.8333333333333333
 40
1.0
 40
1.0
 40
1.0
 40
1.0
 10
2.1820000000000004
 20
-3.0765000000000002
 30
0.0
 10
2.2709000000000001
 20
-3.1196800000000002
 30
0.0
 10
2.3979000000000004
 20
-3.0536400000000001
 30
0.0
 10
2.46902
 20
-3.1349200000000002
 30
0.0
 10
2.46902
 20
-3.1349200000000002
 30
0.0
 10
2.4537800000000001
 20
-3.2720800000000003
 30
0.0
 10
2.5858600000000003
 20
-3.3609800000000001
 30
0.0
 10
2.5782400000000001
 20
-3.4905200000000001
 30
0.0
 10
2.5782400000000001
 20
-3.4905200000000001
 30
0.0
 10
2.4131400000000003
 20
-3.5032200000000002
 30
0.0
 10
2.1591400000000003
 20
-3.6429200000000002
 30
0.0
 10
2.1083400000000001
 20
-3.4067000000000003
 30
0.0
 10
2.1083400000000001
 20
-3.4067000000000003
 30
0.0
 10
2.1032600000000001
 20
-3.3660600000000005
 30
0.0
 10
2.0651600000000001
 20
-3.3152600000000003
 30
0.0
 10
2.1134200000000001
 20
-3.2822400000000003
 30
0.0
 10
2.1134200000000001
 20
-3.2822400000000003
 30
0.0
 10
2.1820000000000004
 20
-3.4498800000000003
 30
0.0
 10
2.3039200000000002
 20
-3.4092400000000005
 30
0.0
 10
2.4512400000000003
 20
-3.3990800000000001
 30
0.0
 10
2.4512400000000003
 20
-3.3990800000000001
 30
0.0
 10
2.4715600000000002
 20
-3.2187400000000004
 30
0.0
 10
2.2607400000000002
 20
-3.1704800000000004
 30
0.0
 10
2.1820000000000004
 20
-3.0765000000000002
 30
0.0
  0
SPLINE
  5
65
100
AcDbEntity
  8
Ebene 1
 62
     7
100
AcDbSpline
210
0.0
220
0.0
230
1.0
 70
     1
 71
     3
 72
    32
 73
    28
 74
     0
 42
0.0000000001
 43
0.0000000001
 40
0.0
 40
0.0
 40
0.0
 40
0.0
 40
0.1428571428571429
 40
0.1428571428571429
 40
0.1428571428571429
 40
0.1428571428571429
 40
0.2857142857142857
 40
0.2857142857142857
 40
0.2857142857142857
 40
0.2857142857142857
 40
0.4285714285714286
 40
0.4285714285714286
 40
0.4285714285714286
 40
0.4285714285714286
 40
0.5714285714285714
 40
0.5714285714285714
 40
0.5714285714285714
 40
0.5714285714285714
 40
0.7142857142857142
 40
0.7142857142857142
 40
0.7142857142857142
 40
0.7142857142857142
 40
0.857142857142857
 40
0.857142857142857
 40
0.857142857142857
 40
0.857142857142857
 40
1.0
 40
1.0
 40
1.0
 40
1.0
 10
-2.0496300000000001
 20
-3.1146000000000003
 30
0.0
 10
-2.0496300000000001
 20
-3.1146000000000003
 30
0.0
 10
-1.9988300000000001
 20
-3.1171400000000005
 30
0.0
 10
-1.9988300000000001
 20
-3.1171400000000005
 30
0.0
 10
-1.9988300000000001
 20
-3.1171400000000005
 30
0.0
 10
-2.14615
 20
-3.2035000000000005
 30
0.0
 10
-2.3671300000000004
 20
-3.3203400000000003
 30
0.0
 10
-2.2807700000000004
 20
-3.5286200000000001
 30
0.0
 10
-2.2807700000000004
 20
-3.5286200000000001
 30
0.0
 10
-2.2807700000000004
 20
-3.5286200000000001
 30
0.0
 10
-2.01661
 20
-3.3990800000000001
 30
0.0
 10
-2.01661
 20
-3.3990800000000001
 30
0.0
 10
-2.01661
 20
-3.3990800000000001
 30
0.0
 10
-1.9962900000000001
 20
-3.3889200000000002
 30
0.0
 10
-1.9708900000000003
 20
-3.3635200000000003
 30
0.0
 10
-1.9454900000000002
 20
-3.3736800000000002
 30
0.0
 10
-1.9454900000000002
 20
-3.3736800000000002
 30
0.0
 10
-1.8388100000000001
 20
-3.6454600000000004
 30
0.0
 10
-2.3061700000000003
 20
-3.6454600000000004
 30
0.0
 10
-2.4839700000000002
 20
-3.6911800000000001
 30
0.0
 10
-2.4839700000000002
 20
-3.6911800000000001
 30
0.0
 10
-2.4687300000000003
 20
-3.5641800000000003
 30
0.0
 10
-2.40015
 20
-3.4448000000000003
 30
0.0
 10
-2.3544300000000002
 20
-3.3178000000000001
 30
0.0
 10
-2.3544300000000002
 20
-3.3178000000000001
 30
0.0
 10
-2.3010900000000003
 20
-3.1831800000000001
 30
0.0
 10
-2.14615
 20
-3.1781000000000001
 30
0.0
 10
-2.0496300000000001
 20
-3.1146000000000003
 30
0.0
  0
SPLINE
  5
66
100
AcDbEntity
  8
Ebene 1
 62
     7
100
AcDbSpline
210
0.0
220
0.0
230
1.0
 70
     1
 71
     3
 72
    24
 73
    20
 74
     0
 42
0.0000000001
 43
0.0000000001
 40
0.0
 40
0.0
 40
0.0
 40
0.0
 40
0.2
 40
0.2
 40
0.2
 40
0.2
 40
0.4
 40
0.4
 40
0.4
 40
0.4
 40
0.6000000000000001
 40
0.6000000000000001
 40
0.6000000000000001
 40
0.6000000000000001
 40
0.8
 40
0.8
 40
0.8
 40
0.8
 40
1.0
 40
1.0
 40
1.0
 40
1.0
 10
-1.1377700000000002
 20
-3.4244800000000004
 30
0.0
 10
-1.1377700000000002
 20
-3.4244800000000004
 30
0.0
 10
-0.7034300000000001
 20
-3.4651200000000002
 30
0.0
 10
-0.7034300000000001
 20
-3.4651200000000002
 30
0.0
 10
-0.7034300000000001
 20
-3.4651200000000002
 30
0.0
 10
-0.7034300000000001
 20
-3.4651200000000002
 30
0.0
 10
-0.73899
 20
-4.0747200000000001
 30
0.0
 10
-0.73899
 20
-4.0747200000000001
 30
0.0
 10
-0.73899
 20
-4.0747200000000001
 30
0.0
 10
-1.0564900000000002
 20
-4.0670999999999999
 30
0.0
 10
-1.37907
 20
-4.0747200000000001
 30
0.0
 10
-1.6127500000000001
 20
-4.3007800000000005
 30
0.0
 10
-1.6127500000000001
 20
-4.3007800000000005
 30
0.0
 10
-1.7092700000000001
 20
-4.1560000000000006
 30
0.0
 10
-1.7245100000000002
 20
-3.9477200000000003
 30
0.0
 10
-1.7524500000000001
 20
-3.7750000000000004
 30
0.0
 10
-1.7524500000000001
 20
-3.7750000000000004
 30
0.0
 10
-1.58735
 20
-3.5895800000000002
 30
0.0
 10
-1.3587500000000001
 20
-3.4803600000000001
 30
0.0
 10
-1.1377700000000002
 20
-3.4244800000000004
 30
0.0
  0
SPLINE
  5
67
100
AcDbEntity
  8
Ebene 1
 62
     7
100
AcDbSpline
210
0.0
220
0.0
230
1.0
 70
     1
 71
     3
 72
    28
 73
    24
 74
     0
 42
0.0000000001
 43
0.0000000001
 40
0.0
 40
0.0
 40
0.0
 40
0.0
 40
0.1666666666666667
 40
0.1666666666666667
 40
0.1666666666666667
 40
0.1666666666666667
 40
0.3333333333333333
 40
0.3333333333333333
 40
0.3333333333333333
 40
0.3333333333333333
 40
0.5
 40
0.5
 40
0.5
 40
0.5
 40
0.6666666666666666
 40
0.6666666666666666
 40
0.6666666666666666
 40
0.6666666666666666
 40
0.8333333333333333
 40
0.8333333333333333
 40
0.8333333333333333
 40
0.8333333333333333
 40
1.0
 40
1.0
 40
1.0
 40
1.0
 10
1.06694
 20
-3.4981400000000002
 30
0.0
 10
1.3768200000000002
 20
-3.4778200000000004
 30
0.0
 10
1.6359000000000001
 20
-3.6149800000000001
 30
0.0
 10
1.8848200000000002
 20
-3.7572200000000002
 30
0.0
 10
1.8848200000000002
 20
-3.7572200000000002
 30
0.0
 10
1.8746600000000002
 20
-3.9578800000000003
 30
0.0
 10
1.8340200000000002
 20
-4.1661600000000005
 30
0.0
 10
1.7578200000000002
 20
-4.3490400000000005
 30
0.0
 10
1.7578200000000002
 20
-4.3490400000000005
 30
0.0
 10
1.7578200000000002
 20
-4.3490400000000005
 30
0.0
 10
1.6765400000000001
 20
-4.3490400000000005
 30
0.0
 10
1.6765400000000001
 20
-4.3490400000000005
 30
0.0
 10
1.6765400000000001
 20
-4.3490400000000005
 30
0.0
 10
1.4835
 20
-4.1458400000000006
 30
0.0
 10
1.1914
 20
-4.1966400000000004
 30
0.0
 10
0.9450200000000001
 20
-4.2220400000000007
 30
0.0
 10
0.9450200000000001
 20
-4.2220400000000007
 30
0.0
 10
0.9450200000000001
 20
-4.2220400000000007
 30
0.0
 10
0.9043800000000001
 20
-4.1712400000000001
 30
0.0
 10
0.9043800000000001
 20
-4.1712400000000001
 30
0.0
 10
0.9043800000000001
 20
-4.1712400000000001
 30
0.0
 10
0.9882000000000001
 20
-3.9655000000000005
 30
0.0
 10
0.7900800000000001
 20
-3.5591000000000004
 30
0.0
 10
1.06694
 20
-3.4981400000000002
 30
0.0
  0
SPLINE
  5
68
100
AcDbEntity
  8
Ebene 1
100
AcDbSpline
210
0.0
220
0.0
230
1.0
 70
     1
 71
     3
 72
    20
 73
    16
 74
     0
 42
0.0000000001
 43
0.0000000001
 40
0.0
 40
0.0
 40
0.0
 40
0.0
 40
0.25
 40
0.25
 40
0.25
 40
0.25
 40
0.5
 40
0.5
 40
0.5
 40
0.5
 40
0.75
 40
0.75
 40
0.75
 40
0.75
 40
1.0
 40
1.0
 40
1.0
 40
1.0
 10
0.04586
 20
-3.5133800000000002
 30
0.0
 10
0.23128
 20
-3.6073600000000003
 30
0.0
 10
0.34812
 20
-3.8715200000000003
 30
0.0
 10
0.4827400000000001
 20
-4.0442400000000003
 30
0.0
 10
0.4827400000000001
 20
-4.0442400000000003
 30
0.0
 10
0.42178
 20
-4.3312600000000003
 30
0.0
 10
0.21096
 20
-4.5827200000000001
 30
0.0
 10
0.15508
 20
-4.8646600000000007
 30
0.0
 10
0.15508
 20
-4.8646600000000007
 30
0.0
 10
-0.04303
 20
-4.6487600000000002
 30
0.0
 10
-0.18527
 20
-4.3388800000000005
 30
0.0
 10
-0.29703
 20
-4.0620200000000004
 30
0.0
 10
-0.29703
 20
-4.0620200000000004
 30
0.0
 10
-0.17003
 20
-3.8867600000000002
 30
0.0
 10
-0.04811
 20
-3.7038800000000003
 30
0.0
 10
0.04586
 20
-3.5133800000000002
 30
0.0
  0
SPLINE
  5
69
100
AcDbEntity
  8
Ebene 1
 62
     7
100
AcDbSpline
210
0.0
220
0.0
230
1.0
 70
     1
 71
     3
 72
    20
 73
    16
 74
     0
 42
0.0000000001
 43
0.0000000001
 40
0.0
 40
0.0
 40
0.0
 40
0.0
 40
0.25
 40
0.25
 40
0.25
 40
0.25
 40
0.5
 40
0.5
 40
0.5
 40
0.5
 40
0.75
 40
0.75
 40
0.75
 40
0.75
 40
1.0
 40
1.0
 40
1.0
 40
1.0
 10
0.06364
 20
-3.6251400000000005
 30
0.0
 10
0.18556
 20
-3.7115000000000005
 30
0.0
 10
0.30748
 20
-3.8918400000000002
 30
0.0
 10
0.37606
 20
-4.0442400000000003
 30
0.0
 10
0.37606
 20
-4.0442400000000003
 30
0.0
 10
0.37606
 20
-4.0442400000000003
 30
0.0
 10
0.07888
 20
-4.4760400000000002
 30
0.0
 10
0.07888
 20
-4.4760400000000002
 30
0.0
 10
0.07888
 20
-4.4760400000000002
 30
0.0
 10
-0.07605
 20
-4.40238
 30
0.0
 10
-0.14209
 20
-4.2245800000000004
 30
0.0
 10
-0.20813
 20
-4.0798000000000005
 30
0.0
 10
-0.20813
 20
-4.0798000000000005
 30
0.0
 10
-0.20813
 20
-4.0798000000000005
 30
0.0
 10
0.06364
 20
-3.6251400000000005
 30
0.0
 10
0.06364
 20
-3.6251400000000005
 30
0.0
  0
SPLINE
  5
6A
100
AcDbEntity
  8
Ebene 1
100
AcDbSpline
210
0.0
220
0.0
230
1.0
 70
     1
 71
     3
 72
    16
 73
    12
 74
     0
 42
0.0000000001
 43
0.0000000001
 40
0.0
 40
0.0
 40
0.0
 40
0.0
 40
0.3333333333333333
 40
0.3333333333333333
 40
0.3333333333333333
 40
0.3333333333333333
 40
0.6666666666666666
 40
0.6666666666666666
 40
0.6666666666666666
 40
0.6666666666666666
 40
1.0
 40
1.0
 40
1.0
 40
1.0
 10
0.06364
 20
-3.7699200000000004
 30
0.0
 10
0.3024
 20
-3.8435800000000002
 30
0.0
 10
0.29224
 20
-4.1534599999999999
 30
0.0
 10
0.0992
 20
-4.2830000000000004
 30
0.0
 10
0.0992
 20
-4.2830000000000004
 30
0.0
 10
0.0992
 20
-4.2830000000000004
 30
0.0
 10
-0.13447
 20
-4.0798000000000005
 30
0.0
 10
-0.13447
 20
-4.0798000000000005
 30
0.0
 10
-0.13447
 20
-4.0798000000000005
 30
0.0
 10
-0.14209
 20
-3.9451800000000001
 30
0.0
 10
-0.00239
 20
-3.8715200000000003
 30
0.0
 10
0.06364
 20
-3.7699200000000004
 30
0.0
  0
SPLINE
  5
6B
100
AcDbEntity
  8
Ebene 1
 62
     7
100
AcDbSpline
210
0.0
220
0.0
230
1.0
 70
     1
 71
     3
 72
    20
 73
    16
 74
     0
 42
0.0000000001
 43
0.0000000001
 40
0.0
 40
0.0
 40
0.0
 40
0.0
 40
0.25
 40
0.25
 40
0.25
 40
0.25
 40
0.5
 40
0.5
 40
0.5
 40
0.5
 40
0.75
 40
0.75
 40
0.75
 40
0.75
 40
1.0
 40
1.0
 40
1.0
 40
1.0
 10
-1.04633
 20
-4.4836600000000004
 30
0.0
 10
-0.9396500000000001
 20
-4.4760400000000002
 30
0.0
 10
-0.8405900000000001
 20
-4.4862000000000002
 30
0.0
 10
-0.73899
 20
-4.5039800000000003
 30
0.0
 10
-0.73899
 20
-4.5039800000000003
 30
0.0
 10
-0.68057
 20
-4.6386000000000003
 30
0.0
 10
-0.65771
 20
-4.8875200000000003
 30
0.0
 10
-0.7567700000000001
 20
-5.0069000000000008
 30
0.0
 10
-0.7567700000000001
 20
-5.0069000000000008
 30
0.0
 10
-1.03363
 20
-5.1542200000000005
 30
0.0
 10
-1.3943100000000002
 20
-4.98658
 30
0.0
 10
-1.50353
 20
-4.7021000000000006
 30
0.0
 10
-1.50353
 20
-4.7021000000000006
 30
0.0
 10
-1.4044700000000001
 20
-4.56494
 30
0.0
 10
-1.1936500000000001
 20
-4.5217600000000004
 30
0.0
 10
-1.04633
 20
-4.4836600000000004
 30
0.0
  0
SPLINE
  5
6C
100
AcDbEntity
  8
Ebene 1
 62
     7
100
AcDbSpline
210
0.0
220
0.0
230
1.0
 70
     1
 71
     3
 72
    24
 73
    20
 74
     0
 42
0.0000000001
 43
0.0000000001
 40
0.0
 40
0.0
 40
0.0
 40
0.0
 40
0.2
 40
0.2
 40
0.2
 40
0.2
 40
0.4
 40
0.4
 40
0.4
 40
0.4
 40
0.6000000000000001
 40
0.6000000000000001
 40
0.6000000000000001
 40
0.6000000000000001
 40
0.8
 40
0.8
 40
0.8
 40
0.8
 40
1.0
 40
1.0
 40
1.0
 40
1.0
 10
1.0847200000000001
 20
-4.5547800000000001
 30
0.0
 10
1.27776
 20
-4.5674800000000007
 30
0.0
 10
1.48858
 20
-4.56494
 30
0.0
 10
1.6663800000000002
 20
-4.6690800000000001
 30
0.0
 10
1.6663800000000002
 20
-4.6690800000000001
 30
0.0
 10
1.5724
 20
-4.93832
 30
0.0
 10
1.2117200000000001
 20
-5.1847000000000003
 30
0.0
 10
0.9628000000000001
 20
-4.9510200000000006
 30
0.0
 10
0.9628000000000001
 20
-4.9510200000000006
 30
0.0
 10
0.9501000000000001
 20
-4.9256200000000003
 30
0.0
 10
0.9628000000000001
 20
-4.8926000000000007
 30
0.0
 10
0.9729600000000001
 20
-4.8697400000000002
 30
0.0
 10
0.9729600000000001
 20
-4.8697400000000002
 30
0.0
 10
0.93486
 20
-4.7960800000000008
 30
0.0
 10
0.8942200000000001
 20
-4.7173400000000001
 30
0.0
 10
0.9094600000000001
 20
-4.6309800000000001
 30
0.0
 10
0.9094600000000001
 20
-4.6309800000000001
 30
0.0
 10
0.9094600000000001
 20
-4.6309800000000001
 30
0.0
 10
1.0847200000000001
 20
-4.5547800000000001
 30
0.0
 10
1.0847200000000001
 20
-4.5547800000000001
 30
0.0
  0
ENDSEC
  0
SECTION
  2
OBJECTS
  0
DICTIONARY
  5
19
100
AcDbDictionary
280
     0
281
     1
  3
ACAD_GROUP
350
1A
  3
ACAD_MLINESTYLE
350
1B
  3
ACAD_LAYOUT
350
1E
  3
ACAD_PLOTSETTINGS
350
22
  3
ACAD_PLOTSTYLENAME
350
1F
  3
ACAD_WIPEOUT_VARS
350
23
  0
DICTIONARY
  5
1A
102
{ACAD_REACTORS
330
19
102
}
100
AcDbDictionary
280
     0
281
     1
  0
DICTIONARY
  5
1B
102
{ACAD_REACTORS
330
19
102
}
100
AcDbDictionary
280
     0
281
     1
  3
Standard
350
1C
  0
MLINESTYLE
  5
1C
102
{ACAD_REACTORS
330
1B
102
}
100
AcDbMlineStyle
  2
Standard
 70
     0
  3

 62
     0
 51
90.0
 52
90.0
 71
     2
 49
0.5
 62
   256
  6
BYLAYER
 49
-0.5
 62
   256
  6
BYLAYER
  0
ACDBDICTIONARYWDFLT
  5
1F
102
{ACAD_REACTORS
330
19
102
}
100
AcDbDictionary
281
     1
  3
Normal
350
1D
100
AcDbDictionaryWithDefault
340
1D
  0
ACDBPLACEHOLDER
  5
1D
102
{ACAD_REACTORS
330
1F
102
}
  0
LAYOUT
  5
20
102
{ACAD_REACTORS
330
1E
102
}
100
AcDbPlotSettings
  1

  2

  4

  6

 40
0.0
 41
0.0
 42
0.0
 43
0.0
 44
0.0
 45
0.0
 46
0.0
 47
0.0
 48
0.0
 49
0.0
140
0.0
141
0.0
142
1.0
143
1.0
 70
  1024
 72
     0
 73
     0
 74
     0
  7

 75
     0
147
1.0
148
0.0
149
0.0
100
AcDbLayout
  1
Model
 70
     0
 71
     0
 10
0.0
 20
0.0
 11
0.0
 21
0.0
 12
0.0
 22
0.0
 32
0.0
 14
0.0
 24
0.0
 34
0.0
 15
0.0
 25
0.0
 35
0.0
146
0.0
 13
0.0
 23
0.0
 33
0.0
 16
0.0
 26
0.0
 36
0.0
 17
0.0
 27
0.0
 37
0.0
 76
     0
330
A
331
0
345
0
346
0
  0
LAYOUT
  5
21
102
{ACAD_REACTORS
330
1E
102
}
100
AcDbPlotSettings
  1

  2

  4

  6

 40
0.0
 41
0.0
 42
0.0
 43
0.0
 44
0.0
 45
0.0
 46
0.0
 47
0.0
 48
0.0
 49
0.0
140
0.0
141
0.0
142
1.0
143
1.0
 70
     0
 72
     0
 73
     0
 74
     0
  7

 75
     0
147
1.0
148
0.0
149
0.0
100
AcDbLayout
  1
Layout1
 70
     0
 71
     0
 10
0.0
 20
0.0
 11
0.0
 21
0.0
 12
0.0
 22
0.0
 32
0.0
 14
0.0
 24
0.0
 34
0.0
 15
0.0
 25
0.0
 35
0.0
146
0.0
 13
0.0
 23
0.0
 33
0.0
 16
0.0
 26
0.0
 36
0.0
 17
0.0
 27
0.0
 37
0.0
 76
     0
330
B
331
0
345
0
346
0
  0
DICTIONARY
  5
1E
102
{ACAD_REACTORS
330
19
102
}
100
AcDbDictionary
280
     0
281
     1
  3
Layout1
350
21
  3
Model
350
20
  0
DICTIONARY
  5
22
102
{ACAD_REACTORS
330
19
102
}
100
AcDbDictionary
280
     0
281
     1
  0
WIPEOUTVARIABLES
  5
23
100
AcDbWipeoutVariables
 70
     1
  0
ENDSEC
  0
EOF
