  0
SECTION
  2
HEADER
  9
$ACADVER
  1
AC1015
  9
$ACADMAINTVER
 70
     6
  9
$DWGCODEPAGE
  3
DOS850
  9
$INSBASE
 10
0.0
 20
0.0
 30
0.0
  9
$EXTMIN
 10
-4.73187
 20
-7.13288
 30
1.000000E+20
  9
$EXTMAX
 10
4.73906
 20
7.12667
 30
-1.000000E+20
  9
$LIMMIN
 10
0.0
 20
0.0
  9
$LIMMAX
 10
0.0
 20
0.0
  9
$ORTHOMODE
 70
     0
  9
$REGENMODE
 70
     1
  9
$FILLMODE
 70
     1
  9
$QTEXTMODE
 70
     0
  9
$MIRRTEXT
 70
     1
  9
$LTSCALE
 40
1.0
  9
$ATTMODE
 70
     1
  9
$TEXTSIZE
 40
0.2
  9
$TRACEWID
 40
0.05
  9
$TEXTSTYLE
  7
Standard
  9
$CLAYER
  8
0
  9
$CELTYPE
  6
Continuous
  9
$CECOLOR
 62
   256
  9
$CELTSCALE
 40
1.0
  9
$DISPSILH
 70
     0
  9
$DIMSCALE
 40
1.0
  9
$DIMASZ
 40
0.18
  9
$DIMEXO
 40
0.0625
  9
$DIMDLI
 40
0.38
  9
$DIMRND
 40
0.0
  9
$DIMDLE
 40
0.0
  9
$DIMEXE
 40
0.18
  9
$DIMTP
 40
0.0
  9
$DIMTM
 40
0.0
  9
$DIMTXT
 40
0.18
  9
$DIMCEN
 40
0.09
  9
$DIMTSZ
 40
0.0
  9
$DIMTOL
 70
     0
  9
$DIMLIM
 70
     0
  9
$DIMTIH
 70
     1
  9
$DIMTOH
 70
     1
  9
$DIMSE1
 70
     0
  9
$DIMSE2
 70
     0
  9
$DIMTAD
 70
     0
  9
$DIMZIN
 70
     0
  9
$DIMBLK
  1

  9
$DIMASO
 70
     1
  9
$DIMSHO
 70
     1
  9
$DIMPOST
  1

  9
$DIMAPOST
  1

  9
$DIMALT
 70
     0
  9
$DIMALTD
 70
     2
  9
$DIMALTF
 40
25.4
  9
$DIMLFAC
 40
1.0
  9
$DIMTOFL
 70
     0
  9
$DIMTVP
 40
0.0
  9
$DIMTIX
 70
     0
  9
$DIMSOXD
 70
     0
  9
$DIMSAH
 70
     0
  9
$DIMBLK1
  1

  9
$DIMBLK2
  1

  9
$DIMSTYLE
  2
Standard
  9
$DIMCLRD
 70
     0
  9
$DIMCLRE
 70
     0
  9
$DIMCLRT
 70
     0
  9
$DIMTFAC
 40
1.0
  9
$DIMGAP
 40
0.09
  9
$DIMJUST
 70
     0
  9
$DIMSD1
 70
     0
  9
$DIMSD2
 70
     0
  9
$DIMTOLJ
 70
     1
  9
$DIMTZIN
 70
     0
  9
$DIMALTZ
 70
     0
  9
$DIMALTTZ
 70
     0
  9
$DIMUPT
 70
     0
  9
$DIMDEC
 70
     4
  9
$DIMTDEC
 70
     4
  9
$DIMALTU
 70
     2
  9
$DIMALTTD
 70
     2
  9
$DIMTXSTY
  7
Standard
  9
$DIMAUNIT
 70
     0
  9
$DIMADEC
 70
     0
  9
$DIMALTRND
 40
0.0
  9
$DIMAZIN
 70
     0
  9
$DIMDSEP
 70
     0
  9
$DIMATFIT
 70
     3
  9
$DIMFRAC
 70
     0
  9
$DIMLDRBLK
  1

  9
$DIMLUNIT
 70
     2
  9
$DIMLWD
 70
     0
  9
$DIMLWE
 70
     0
  9
$DIMTMOVE
 70
     0
  9
$LUNITS
 70
     2
  9
$LUPREC
 70
     4
  9
$SKETCHINC
 40
0.1
  9
$FILLETRAD
 40
0.0
  9
$AUNITS
 70
     0
  9
$AUPREC
 70
     0
  9
$MENU
  1
acad
  9
$ELEVATION
 40
0.0
  9
$PELEVATION
 40
0.0
  9
$THICKNESS
 40
0.0
  9
$LIMCHECK
 70
     0
  9
$CHAMFERA
 40
0.0
  9
$CHAMFERB
 40
0.0
  9
$CHAMFERC
 40
0.0
  9
$CHAMFERD
 40
0.0
  9
$SKPOLY
 70
     0
  9
$TDCREATE
 40
0.000000000
  9
$TDUCREATE
 40
0.000000000
  9
$TDUPDATE
 40
0.000000000
  9
$TDUUPDATE
 40
0.000000000
  9
$TDINDWG
 40
0.0000000000
  9
$TDUSRTIMER
 40
0.0000000000
  9
$USRTIMER
 70
     1
  9
$ANGBASE
 50
0.0
  9
$ANGDIR
 70
     0
  9
$PDMODE
 70
     0
  9
$PDSIZE
 40
0.0
  9
$PLINEWID
 40
0.0
  9
$SPLFRAME
 70
     0
  9
$SPLINETYPE
 70
     6
  9
$SPLINESEGS
 70
     8
  9
$HANDSEED
  5
65
  9
$SURFTAB1
 70
     6
  9
$SURFTAB2
 70
     6
  9
$SURFTYPE
 70
     6
  9
$SURFU
 70
     6
  9
$SURFV
 70
     6
  9
$UCSBASE
  2

  9
$UCSNAME
  2

  9
$UCSORG
 10
0.0
 20
0.0
 30
0.0
  9
$UCSXDIR
 10
1.0
 20
0.0
 30
0.0
  9
$UCSYDIR
 10
0.0
 20
1.0
 30
0.0
  9
$UCSORTHOREF
  2

  9
$UCSORTHOVIEW
 70
     0
  9
$UCSORGTOP
 10
0.0
 20
0.0
 30
0.0
  9
$UCSORGBOTTOM
 10
0.0
 20
0.0
 30
0.0
  9
$UCSORGLEFT
 10
0.0
 20
0.0
 30
0.0
  9
$UCSORGRIGHT
 10
0.0
 20
0.0
 30
0.0
  9
$UCSORGFRONT
 10
0.0
 20
0.0
 30
0.0
  9
$UCSORGBACK
 10
0.0
 20
0.0
 30
0.0
  9
$PUCSBASE
  2

  9
$PUCSNAME
  2

  9
$PUCSORG
 10
0.0
 20
0.0
 30
0.0
  9
$PUCSXDIR
 10
1.0
 20
0.0
 30
0.0
  9
$PUCSYDIR
 10
0.0
 20
1.0
 30
0.0
  9
$PUCSORTHOREF
  2

  9
$PUCSORTHOVIEW
 70
     0
  9
$PUCSORGTOP
 10
0.0
 20
0.0
 30
0.0
  9
$PUCSORGBOTTOM
 10
0.0
 20
0.0
 30
0.0
  9
$PUCSORGLEFT
 10
0.0
 20
0.0
 30
0.0
  9
$PUCSORGRIGHT
 10
0.0
 20
0.0
 30
0.0
  9
$PUCSORGFRONT
 10
0.0
 20
0.0
 30
0.0
  9
$PUCSORGBACK
 10
0.0
 20
0.0
 30
0.0
  9
$USERI1
 70
     0
  9
$USERI2
 70
     0
  9
$USERI3
 70
     0
  9
$USERI4
 70
     0
  9
$USERI5
 70
     0
  9
$USERR1
 40
0.0
  9
$USERR2
 40
0.0
  9
$USERR3
 40
0.0
  9
$USERR4
 40
0.0
  9
$USERR5
 40
0.0
  9
$WORLDVIEW
 70
     1
  9
$SHADEDGE
 70
     3
  9
$SHADEDIF
 70
    70
  9
$TILEMODE
 70
     1
  9
$MAXACTVP
 70
    16
  9
$PINSBASE
 10
0.0
 20
0.0
 30
0.0
  9
$PLIMCHECK
 70
     0
  9
$PEXTMIN
 10
1.000000E+20
 20
1.000000E+20
 30
1.000000E+20
  9
$PEXTMAX
 10
-1.000000E+20
 20
-1.000000E+20
 30
-1.000000E+20
  9
$PLIMMIN
 10
0.0
 20
0.0
  9
$PLIMMAX
 10
12.0
 20
9.0
  9
$UNITMODE
 70
     0
  9
$VISRETAIN
 70
     0
  9
$PLINEGEN
 70
     1
  9
$PSLTSCALE
 70
     0
  9
$TREEDEPTH
 70
  3020
  9
$CMLSTYLE
  2
Standard
  9
$CMLJUST
 70
     0
  9
$CMLSCALE
 40
1.0
  9
$PROXYGRAPHICS
 70
     0
  9
$MEASUREMENT
 70
     0
  9
$CELWEIGHT
370
     0
  9
$ENDCAPS
280
     0
  9
$JOINSTYLE
280
     0
  9
$LWDISPLAY
290
     0
  9
$INSUNITS
 70
     5
  9
$HYPERLINKBASE
  1

  9
$XEDIT
290
     1
  9
$CEPSNTYPE
380
     0
  9
$PSTYLEMODE
290
     1
  9
$FINGERPRINTGUID
  2

  9
$VERSIONGUID
  2

  9
$EXTNAMES
290
     1
  9
$PSVPSCALE
 40
0.0
  0
ENDSEC
  0
SECTION
  2
CLASSES
  0
CLASS
  1
LWPOLYLINE
  2
AcDbPolyline
  3
AutoCAD 2000
 90
    32768
280
     0
281
     1
  0
CLASS
  1
IMAGE
  2
AcDbRasterImage
  3
ISM
 90
    32895
280
     0
281
     1
  0
CLASS
  1
OLE2FRAME
  2
AcDbOle2Frame
  3
AutoCAD 2000
 90
    32768
280
     0
281
     1
  0
CLASS
  1
HATCH
  2
AcDbHatch
  3
AutoCAD 2000
 90
    32768
280
     0
281
     1
  0
CLASS
  1
DICTIONARYVAR
  2
AcDbDictionaryVar
  3
AutoCAD 2000
 90
    32768
280
     0
281
     0
  0
CLASS
  1
RASTERVARIABLES
  2
AcDbRasterVariables
  3
ISM
 90
    32768
280
     0
281
     0
  0
CLASS
  1
IMAGEDEF
  2
AcDbRasterImageDef
  3
ISM
 90
    32768
280
     0
281
     0
  0
CLASS
  1
IMAGEDEF_REACTOR
  2
AcDbRasterImageDefReactor
  3
ISM
 90
    32769
280
     0
281
     0
  0
CLASS
  1
IDBUFFER
  2
AcDbIdBuffer
  3
AutoCAD 2000
 90
    32768
280
     0
281
     0
  0
CLASS
  1
SPATIAL_FILTER
  2
AcDbSpatialFilter
  3
AutoCAD 2000
 90
    32768
280
     0
281
     0
  0
CLASS
  1
XRECORD
  2
AcDbXrecord
  3
AutoCAD 2000
 90
    32768
280
     0
281
     0
  0
CLASS
  1
SORTENTSTABLE
  2
AcDbSortentsTable
  3
AutoCAD 2000
 90
    32768
280
     0
281
     0
  0
CLASS
  1
LAYER_INDEX
  2
AcDbLayerIndex
  3
AutoCAD 2000
 90
    32768
280
     0
281
     0
  0
CLASS
  1
SPATIAL_INDEX
  2
AcDbSpatialIndex
  3
AutoCAD 2000
 90
    32768
280
     0
281
     0
  0
CLASS
  1
OBJECT_PTR
  2
CAseDLPNTableRecord
  3
"ASE-LPNTableRecord"
 90
    32769
280
     0
281
     0
  0
CLASS
  1
LAYOUT
  2
AcDbLayout
  3
AutoCAD 2000
 90
        0
280
     0
281
     0
  0
CLASS
  1
PLOTSETTINGS
  2
AcDbPlotSettings
  3
AutoCAD 2000
 90
    32768
280
     0
281
     0
  0
CLASS
  1
ACDBDICTIONARYWDFLT
  2
AcDbDictionaryWithDefault
  3
AutoCAD 2000
 90
        0
280
     0
281
     0
  0
CLASS
  1
ACDBPLACEHOLDER
  2
AcDbPlaceHolder
  3
AutoCAD 2000
 90
        0
280
     0
281
     0
  0
CLASS
  1
VBA_PROJECT
  2
AcDbVbaProject
  3
acadvba
 90
    32768
280
     0
281
     0
  0
CLASS
  1
WIPEOUT
  2
AcDbWipeout
  3
WipeOut|AutoCAD Express Tool|expresstools@autodesk.com
 90
    32895
280
     0
281
     1
  0
CLASS
  1
WIPEOUTVARIABLES
  2
AcDbWipeoutVariables
  3
WipeOut|AutoCAD Express Tool|expresstools@autodesk.com
 90
        0
280
     0
281
     0
  0
CLASS
  1
RTEXT
  2
RText
  3
RText|AutoCAD Express Tool|expresstools@autodesk.com
 90
    32768
280
     0
281
     1
  0
CLASS
  1
ARCALIGNEDTEXT
  2
AcDbArcAlignedText
  3
ATEXT|AutoCAD Express Tool|expresstools@autodesk.com
 90
    32768
280
     0
281
     1
  0
ENDSEC
  0
SECTION
  2
TABLES
  0
TABLE
  2
VPORT
  5
7
100
AcDbSymbolTable
 70
     1
  0
VPORT
  5
15
100
AcDbSymbolTableRecord
100
AcDbViewportTableRecord
  2
*ACTIVE
 70
     0
 10
0.0
 20
0.0
 11
1.0
 21
1.0
 12
6.591288
 22
4.579184
 13
0.0
 23
0.0
 14
1.0
 24
1.0
 15
0.0
 25
0.0
 16
0.0
 26
0.0
 36
1.0
 17
0.0
 27
0.0
 37
0.0
 40
9.158369
 41
0.688564
 42
50.0
 43
0.0
 44
0.0
 50
0.0
 51
0.0
 71
     0
 72
   100
 73
     1
 74
     1
 75
     0
 76
     0
 77
     0
 78
     0
281
     0
 65
     0
110
0.0
120
0.0
130
0.0
111
1.0
121
0.0
131
0.0
112
0.0
122
1.0
132
0.0
345
0
346
0
 79
     0
146
0.0
  0
ENDTAB
  0
TABLE
  2
LTYPE
  5
4
100
AcDbSymbolTable
 70
     3
  0
LTYPE
  5
11
100
AcDbSymbolTableRecord
100
AcDbLinetypeTableRecord
  2
ByBlock
 70
    64
  3

 72
    65
 73
     0
 40
0.0
  0
LTYPE
  5
12
100
AcDbSymbolTableRecord
100
AcDbLinetypeTableRecord
  2
ByLayer
 70
    64
  3

 72
    65
 73
     0
 40
0.0
  0
LTYPE
  5
13
100
AcDbSymbolTableRecord
100
AcDbLinetypeTableRecord
  2
Continuous
 70
    64
  3
Solid line
 72
    65
 73
     0
 40
0.0
  0
ENDTAB
  0
TABLE
  2
LAYER
  5
2
100
AcDbSymbolTable
 70
     2
  0
LAYER
  5
14
100
AcDbSymbolTableRecord
100
AcDbLayerTableRecord
  2
0
 70
     0
 62
     7
  6
Continuous
290
     1
370
    -3
390
1D
  0
LAYER
  5
24
100
AcDbSymbolTableRecord
100
AcDbLayerTableRecord
  2
Ebene 1
 70
     0
 62
     7
  6
Continuous
290
     1
370
    -3
390
1F
  0
ENDTAB
  0
TABLE
  2
STYLE
  5
3
100
AcDbSymbolTable
 70
     1
  0
STYLE
  5
17
100
AcDbSymbolTableRecord
100
AcDbTextStyleTableRecord
  2
Standard
 70
     0
 40
0.0
 41
1.0
 50
0.0
 71
     0
 42
0.0
  3
txt
  4

  0
ENDTAB
  0
TABLE
  2
VIEW
  5
5
100
AcDbSymbolTable
 70
     0
  0
ENDTAB
  0
TABLE
  2
UCS
  5
6
100
AcDbSymbolTable
 70
     0
  0
ENDTAB
  0
TABLE
  2
APPID
  5
8
100
AcDbSymbolTable
 70
     1
  0
APPID
  5
16
100
AcDbSymbolTableRecord
100
AcDbRegAppTableRecord
  2
ACAD
 70
     0
  0
ENDTAB
  0
TABLE
  2
DIMSTYLE
  5
9
100
AcDbSymbolTable
 70
     1
100
AcDbDimStyleTable
 71
     0
  0
DIMSTYLE
105
18
100
AcDbSymbolTableRecord
100
AcDbDimStyleTableRecord
  2
Standard
 70
     0
  3

  4

 40
1.0
 41
0.18
 42
0.0625
 43
0.38
 44
0.18
 45
0.0
 46
0.0
 47
0.0
 48
0.0
 71
     0
 72
     0
 73
     1
 74
     1
 75
     0
 76
     0
 77
     0
 78
     0
 79
     0
140
0.18
141
0.09
142
0.0
143
25.4
144
1.0
145
0.0
146
1.0
147
0.09
148
0.0
170
     0
171
     2
172
     0
173
     0
174
     0
175
     0
176
     0
177
     0
178
     0
179
     0
271
     4
272
     4
273
     2
274
     2
275
     0
276
     0
277
     2
278
    46
279
     0
280
     0
281
     0
282
     0
283
     1
284
     0
285
     0
286
     0
288
     0
340
17
341
0
342
0
343
0
344
0
371
    -2
372
    -2
  0
ENDTAB
  0
TABLE
  2
BLOCK_RECORD
  5
1
100
AcDbSymbolTable
 70
     0
  0
BLOCK_RECORD
  5
A
100
AcDbSymbolTableRecord
100
AcDbBlockTableRecord
  2
*MODEL_SPACE
340
20
  0
BLOCK_RECORD
  5
B
100
AcDbSymbolTableRecord
100
AcDbBlockTableRecord
  2
*PAPER_SPACE
340
21
  0
ENDTAB
  0
ENDSEC
  0
SECTION
  2
BLOCKS
  0
BLOCK
  5
D
100
AcDbEntity
  8
0
100
AcDbBlockBegin
  2
*MODEL_SPACE
 70
     0
 10
0.0
 20
0.0
 30
0.0
  3
*MODEL_SPACE
  1

  0
ENDBLK
  5
E
100
AcDbEntity
  8
0
100
AcDbBlockEnd
  0
BLOCK
  5
F
100
AcDbEntity
 67
     1
  8
0
100
AcDbBlockBegin
  2
*PAPER_SPACE
 70
     0
 10
0.0
 20
0.0
 30
0.0
  3
*PAPER_SPACE
  1

  0
ENDBLK
  5
10
100
AcDbEntity
 67
     1
  8
0
100
AcDbBlockEnd
  0
ENDSEC
  0
SECTION
  2
ENTITIES
  0
SPLINE
  5
25
100
AcDbEntity
  8
Ebene 1
100
AcDbSpline
210
0.0
220
0.0
230
1.0
 70
     1
 71
     3
 72
   228
 73
   224
 74
     0
 42
0.0000000001
 43
0.0000000001
 40
0.0
 40
0.0
 40
0.0
 40
0.0
 40
0.0178571428571429
 40
0.0178571428571429
 40
0.0178571428571429
 40
0.0178571428571429
 40
0.0357142857142857
 40
0.0357142857142857
 40
0.0357142857142857
 40
0.0357142857142857
 40
0.0535714285714286
 40
0.0535714285714286
 40
0.0535714285714286
 40
0.0535714285714286
 40
0.0714285714285714
 40
0.0714285714285714
 40
0.0714285714285714
 40
0.0714285714285714
 40
0.0892857142857143
 40
0.0892857142857143
 40
0.0892857142857143
 40
0.0892857142857143
 40
0.1071428571428571
 40
0.1071428571428571
 40
0.1071428571428571
 40
0.1071428571428571
 40
0.125
 40
0.125
 40
0.125
 40
0.125
 40
0.1428571428571428
 40
0.1428571428571428
 40
0.1428571428571428
 40
0.1428571428571428
 40
0.1607142857142857
 40
0.1607142857142857
 40
0.1607142857142857
 40
0.1607142857142857
 40
0.1785714285714285
 40
0.1785714285714285
 40
0.1785714285714285
 40
0.1785714285714285
 40
0.1964285714285714
 40
0.1964285714285714
 40
0.1964285714285714
 40
0.1964285714285714
 40
0.2142857142857142
 40
0.2142857142857142
 40
0.2142857142857142
 40
0.2142857142857142
 40
0.2321428571428571
 40
0.2321428571428571
 40
0.2321428571428571
 40
0.2321428571428571
 40
0.2499999999999999
 40
0.2499999999999999
 40
0.2499999999999999
 40
0.2499999999999999
 40
0.2678571428571428
 40
0.2678571428571428
 40
0.2678571428571428
 40
0.2678571428571428
 40
0.2857142857142856
 40
0.2857142857142856
 40
0.2857142857142856
 40
0.2857142857142856
 40
0.3035714285714285
 40
0.3035714285714285
 40
0.3035714285714285
 40
0.3035714285714285
 40
0.3214285714285713
 40
0.3214285714285713
 40
0.3214285714285713
 40
0.3214285714285713
 40
0.3392857142857142
 40
0.3392857142857142
 40
0.3392857142857142
 40
0.3392857142857142
 40
0.357142857142857
 40
0.357142857142857
 40
0.357142857142857
 40
0.357142857142857
 40
0.3749999999999999
 40
0.3749999999999999
 40
0.3749999999999999
 40
0.3749999999999999
 40
0.3928571428571427
 40
0.3928571428571427
 40
0.3928571428571427
 40
0.3928571428571427
 40
0.4107142857142856
 40
0.4107142857142856
 40
0.4107142857142856
 40
0.4107142857142856
 40
0.4285714285714284
 40
0.4285714285714284
 40
0.4285714285714284
 40
0.4285714285714284
 40
0.4464285714285713
 40
0.4464285714285713
 40
0.4464285714285713
 40
0.4464285714285713
 40
0.4642857142857141
 40
0.4642857142857141
 40
0.4642857142857141
 40
0.4642857142857141
 40
0.482142857142857
 40
0.482142857142857
 40
0.482142857142857
 40
0.482142857142857
 40
0.4999999999999998
 40
0.4999999999999998
 40
0.4999999999999998
 40
0.4999999999999998
 40
0.5178571428571427
 40
0.5178571428571427
 40
0.5178571428571427
 40
0.5178571428571427
 40
0.5357142857142856
 40
0.5357142857142856
 40
0.5357142857142856
 40
0.5357142857142856
 40
0.5535714285714285
 40
0.5535714285714285
 40
0.5535714285714285
 40
0.5535714285714285
 40
0.5714285714285714
 40
0.5714285714285714
 40
0.5714285714285714
 40
0.5714285714285714
 40
0.5892857142857143
 40
0.5892857142857143
 40
0.5892857142857143
 40
0.5892857142857143
 40
0.6071428571428572
 40
0.6071428571428572
 40
0.6071428571428572
 40
0.6071428571428572
 40
0.6250000000000001
 40
0.6250000000000001
 40
0.6250000000000001
 40
0.6250000000000001
 40
0.642857142857143
 40
0.642857142857143
 40
0.642857142857143
 40
0.642857142857143
 40
0.6607142857142859
 40
0.6607142857142859
 40
0.6607142857142859
 40
0.6607142857142859
 40
0.6785714285714288
 40
0.6785714285714288
 40
0.6785714285714288
 40
0.6785714285714288
 40
0.6964285714285717
 40
0.6964285714285717
 40
0.6964285714285717
 40
0.6964285714285717
 40
0.7142857142857146
 40
0.7142857142857146
 40
0.7142857142857146
 40
0.7142857142857146
 40
0.7321428571428575
 40
0.7321428571428575
 40
0.7321428571428575
 40
0.7321428571428575
 40
0.7500000000000004
 40
0.7500000000000004
 40
0.7500000000000004
 40
0.7500000000000004
 40
0.7678571428571434
 40
0.7678571428571434
 40
0.7678571428571434
 40
0.7678571428571434
 40
0.7857142857142863
 40
0.7857142857142863
 40
0.7857142857142863
 40
0.7857142857142863
 40
0.8035714285714292
 40
0.8035714285714292
 40
0.8035714285714292
 40
0.8035714285714292
 40
0.8214285714285721
 40
0.8214285714285721
 40
0.8214285714285721
 40
0.8214285714285721
 40
0.839285714285715
 40
0.839285714285715
 40
0.839285714285715
 40
0.839285714285715
 40
0.8571428571428579
 40
0.8571428571428579
 40
0.8571428571428579
 40
0.8571428571428579
 40
0.8750000000000008
 40
0.8750000000000008
 40
0.8750000000000008
 40
0.8750000000000008
 40
0.8928571428571437
 40
0.8928571428571437
 40
0.8928571428571437
 40
0.8928571428571437
 40
0.9107142857142866
 40
0.9107142857142866
 40
0.9107142857142866
 40
0.9107142857142866
 40
0.9285714285714295
 40
0.9285714285714295
 40
0.9285714285714295
 40
0.9285714285714295
 40
0.9464285714285724
 40
0.9464285714285724
 40
0.9464285714285724
 40
0.9464285714285724
 40
0.9642857142857153
 40
0.9642857142857153
 40
0.9642857142857153
 40
0.9642857142857153
 40
0.9821428571428582
 40
0.9821428571428582
 40
0.9821428571428582
 40
0.9821428571428582
 40
1.0
 40
1.0
 40
1.0
 40
1.0
 10
0.2617600000000001
 20
7.1266700000000007
 30
0.0
 10
1.19648
 20
5.8439700000000006
 30
0.0
 10
2.0016600000000002
 20
4.0608900000000006
 30
0.0
 10
2.2658200000000002
 20
2.38449
 30
0.0
 10
2.2658200000000002
 20
2.38449
 30
0.0
 10
1.8035400000000001
 20
2.59531
 30
0.0
 10
1.27014
 20
2.7299300000000004
 30
0.0
 10
0.71896
 20
2.6994500000000001
 30
0.0
 10
0.71896
 20
2.6994500000000001
 30
0.0
 10
0.7392800000000001
 20
3.0779100000000001
 30
0.0
 10
0.44718
 20
3.3649300000000002
 30
0.0
 10
0.1754
 20
3.5782900000000004
 30
0.0
 10
0.1754
 20
3.5782900000000004
 30
0.0
 10
0.07888
 20
3.2887300000000002
 30
0.0
 10
0.25668
 20
2.6257900000000003
 30
0.0
 10
-0.15479
 20
2.59531
 30
0.0
 10
-0.15479
 20
2.59531
 30
0.0
 10
-0.12685
 20
3.8195900000000003
 30
0.0
 10
-1.33589
 20
4.4088700000000003
 30
0.0
 10
-2.2858500000000004
 20
4.8762300000000005
 30
0.0
 10
-2.2858500000000004
 20
4.8762300000000005
 30
0.0
 10
-1.6356100000000002
 20
4.1675700000000004
 30
0.0
 10
-0.74407
 20
3.0779100000000001
 30
0.0
 10
-1.07935
 20
2.0669900000000001
 30
0.0
 10
-1.07935
 20
2.0669900000000001
 30
0.0
 10
-1.07935
 20
2.0669900000000001
 30
0.0
 10
-1.24699
 20
2.4886300000000001
 30
0.0
 10
-1.24699
 20
2.4886300000000001
 30
0.0
 10
-1.24699
 20
2.4886300000000001
 30
0.0
 10
-1.24699
 20
2.4886300000000001
 30
0.0
 10
-1.5289300000000001
 20
3.1388700000000003
 30
0.0
 10
-1.5289300000000001
 20
3.1388700000000003
 30
0.0
 10
-1.5289300000000001
 20
3.1388700000000003
 30
0.0
 10
-2.1639300000000001
 20
4.28695
 30
0.0
 10
-3.5964900000000002
 20
4.6958900000000003
 30
0.0
 10
-4.7318700000000007
 20
4.9956100000000001
 30
0.0
 10
-4.7318700000000007
 20
4.9956100000000001
 30
0.0
 10
-3.3932900000000004
 20
3.9237300000000004
 30
0.0
 10
-2.2553700000000001
 20
2.5191100000000004
 30
0.0
 10
-1.6229100000000001
 20
0.9646300000000001
 30
0.0
 10
-1.6229100000000001
 20
0.9646300000000001
 30
0.0
 10
-1.7168900000000002
 20
1.02305
 30
0.0
 10
-1.8642100000000001
 20
1.14497
 30
0.0
 10
-2.0140700000000002
 20
1.1297300000000001
 30
0.0
 10
-2.0140700000000002
 20
1.1297300000000001
 30
0.0
 10
-1.9454900000000002
 20
0.9925700000000001
 30
0.0
 10
-1.75499
 20
0.87319
 30
0.0
 10
-1.7448300000000001
 20
0.6903100000000001
 30
0.0
 10
-1.7448300000000001
 20
0.6903100000000001
 30
0.0
 10
-2.56779
 20
-0.6203200000000001
 30
0.0
 10
-1.6025900000000002
 20
-2.31196
 30
0.0
 10
-1.7194300000000002
 20
-3.3686000000000003
 30
0.0
 10
-1.7194300000000002
 20
-3.3686000000000003
 30
0.0
 10
-1.6229100000000001
 20
-3.3686000000000003
 30
0.0
 10
-1.6686300000000001
 20
-3.5946600000000002
 30
0.0
 10
-1.6533900000000001
 20
-3.6861000000000002
 30
0.0
 10
-1.6533900000000001
 20
-3.6861000000000002
 30
0.0
 10
-1.6635500000000001
 20
-3.7775400000000001
 30
0.0
 10
-1.67371
 20
-3.8689800000000005
 30
0.0
 10
-1.6686300000000001
 20
-3.9731200000000002
 30
0.0
 10
-1.6686300000000001
 20
-3.9731200000000002
 30
0.0
 10
-1.67117
 20
-4.7910000000000004
 30
0.0
 10
-1.4781300000000002
 20
-2.9622000000000002
 30
0.0
 10
-1.4273300000000002
 20
-3.3686000000000003
 30
0.0
 10
-1.4273300000000002
 20
-3.3686000000000003
 30
0.0
 10
-1.4273300000000002
 20
-3.3686000000000003
 30
0.0
 10
-1.4120900000000001
 20
-3.6403800000000004
 30
0.0
 10
-1.4120900000000001
 20
-3.6403800000000004
 30
0.0
 10
-1.4120900000000001
 20
-3.6403800000000004
 30
0.0
 10
-1.2800100000000001
 20
-4.1560000000000006
 30
0.0
 10
-1.2444500000000001
 20
-2.5075400000000001
 30
0.0
 10
-1.1403100000000002
 20
-3.0358600000000004
 30
0.0
 10
-1.1403100000000002
 20
-3.0358600000000004
 30
0.0
 10
-1.1352300000000002
 20
-3.2339800000000003
 30
0.0
 10
-1.21143
 20
-4.01884
 30
0.0
 10
-1.0488700000000002
 20
-3.5362400000000003
 30
0.0
 10
-1.0488700000000002
 20
-3.5362400000000003
 30
0.0
 10
-1.0488700000000002
 20
-3.5362400000000003
 30
0.0
 10
-1.00315
 20
-3.2644600000000001
 30
0.0
 10
-1.00315
 20
-3.2644600000000001
 30
0.0
 10
-1.00315
 20
-3.2644600000000001
 30
0.0
 10
-0.9040900000000001
 20
-2.9926800000000005
 30
0.0
 10
-0.97267
 20
-3.5946600000000002
 30
0.0
 10
-0.8532900000000001
 20
-3.4448000000000003
 30
0.0
 10
-0.8532900000000001
 20
-3.4448000000000003
 30
0.0
 10
-0.8532900000000001
 20
-3.4448000000000003
 30
0.0
 10
-0.8380500000000001
 20
-3.3381200000000004
 30
0.0
 10
-0.8380500000000001
 20
-3.3381200000000004
 30
0.0
 10
-0.8380500000000001
 20
-3.3381200000000004
 30
0.0
 10
-0.8380500000000001
 20
-3.2949400000000004
 30
0.0
 10
-0.8405900000000001
 20
-3.2187400000000004
 30
0.0
 10
-0.7974100000000001
 20
-3.1882600000000001
 30
0.0
 10
-0.7974100000000001
 20
-3.1882600000000001
 30
0.0
 10
-0.69835
 20
-3.2974800000000002
 30
0.0
 10
-0.74153
 20
-3.5794200000000003
 30
0.0
 10
-0.8304300000000001
 20
-3.8156400000000001
 30
0.0
 10
-0.8304300000000001
 20
-3.8156400000000001
 30
0.0
 10
-0.90917
 20
-4.0239200000000004
 30
0.0
 10
-1.2368300000000001
 20
-4.13314
 30
0.0
 10
-1.3054100000000002
 20
-4.3134800000000002
 30
0.0
 10
-1.3054100000000002
 20
-4.3134800000000002
 30
0.0
 10
-1.37399
 20
-4.4938200000000004
 30
0.0
 10
-1.2165100000000002
 20
-4.9434000000000005
 30
0.0
 10
-1.1174500000000001
 20
-5.0475400000000006
 30
0.0
 10
-1.1174500000000001
 20
-5.0475400000000006
 30
0.0
 10
-1.00315
 20
-5.1643800000000004
 30
0.0
 10
-0.9218700000000001
 20
-4.9154600000000004
 30
0.0
 10
-0.57135
 20
-4.77576
 30
0.0
 10
-0.57135
 20
-4.77576
 30
0.0
 10
-0.3427500000000001
 20
-4.6081200000000004
 30
0.0
 10
-0.36815
 20
-4.2906200000000005
 30
0.0
 10
-0.55611
 20
-4.1102800000000004
 30
0.0
 10
-0.55611
 20
-4.1102800000000004
 30
0.0
 10
-0.88631
 20
-3.6099000000000001
 30
0.0
 10
-0.41387
 20
-3.5514800000000002
 30
0.0
 10
-0.53579
 20
-2.9926800000000005
 30
0.0
 10
-0.53579
 20
-2.9926800000000005
 30
0.0
 10
-0.4494300000000001
 20
-2.8555200000000003
 30
0.0
 10
-0.3122700000000001
 20
-4.1864800000000004
 30
0.0
 10
-0.29449
 20
-3.4143200000000005
 30
0.0
 10
-0.29449
 20
-3.4143200000000005
 30
0.0
 10
-0.33005
 20
-2.5989800000000001
 30
0.0
 10
0.04586
 20
-4.8037000000000001
 30
0.0
 10
0.00522
 20
-3.7927800000000005
 30
0.0
 10
0.00522
 20
-3.7927800000000005
 30
0.0
 10
0.00522
 20
-3.7927800000000005
 30
0.0
 10
0.00268
 20
-3.4905200000000001
 30
0.0
 10
0.00268
 20
-3.4905200000000001
 30
0.0
 10
0.00268
 20
-3.4905200000000001
 30
0.0
 10
0.00268
 20
-3.4905200000000001
 30
0.0
 10
0.05094
 20
-3.6251400000000005
 30
0.0
 10
0.05094
 20
-3.6251400000000005
 30
0.0
 10
0.05094
 20
-3.6251400000000005
 30
0.0
 10
0.12968
 20
-3.7927800000000005
 30
0.0
 10
0.21858
 20
-4.01884
 30
0.0
 10
0.3786000000000001
 20
-4.1102800000000004
 30
0.0
 10
0.3786000000000001
 20
-4.1102800000000004
 30
0.0
 10
0.08396
 20
-3.1882600000000001
 30
0.0
 10
0.47766
 20
-3.3381200000000004
 30
0.0
 10
0.19064
 20
-2.4338800000000003
 30
0.0
 10
0.19064
 20
-2.4338800000000003
 30
0.0
 10
0.76722
 20
-3.0968200000000001
 30
0.0
 10
1.9026000000000001
 20
-2.0808200000000001
 30
0.0
 10
2.0804
 20
-3.2289000000000003
 30
0.0
 10
2.0804
 20
-3.2289000000000003
 30
0.0
 10
2.2759800000000001
 20
-4.0442400000000003
 30
0.0
 10
2.1261200000000002
 20
-3.8613600000000003
 30
0.0
 10
2.1566000000000001
 20
-4.6563800000000004
 30
0.0
 10
2.1566000000000001
 20
-4.6563800000000004
 30
0.0
 10
1.9203800000000002
 20
-4.5878000000000005
 30
0.0
 10
1.7781400000000001
 20
-4.6843200000000005
 30
0.0
 10
1.6181200000000002
 20
-4.9408600000000007
 30
0.0
 10
1.6181200000000002
 20
-4.9408600000000007
 30
0.0
 10
1.4682600000000001
 20
-5.2736000000000001
 30
0.0
 10
1.5647800000000001
 20
-5.6342800000000004
 30
0.0
 10
1.7121000000000002
 20
-5.8781200000000009
 30
0.0
 10
1.7121000000000002
 20
-5.8781200000000009
 30
0.0
 10
1.2091800000000001
 20
-6.1626000000000003
 30
0.0
 10
1.5520800000000001
 20
-6.8458600000000009
 30
0.0
 10
1.7019400000000002
 20
-7.132880000000001
 30
0.0
 10
1.7019400000000002
 20
-7.132880000000001
 30
0.0
 10
1.8619600000000001
 20
-7.0897000000000006
 30
0.0
 10
2.0270600000000001
 20
-7.1354200000000008
 30
0.0
 10
2.1159600000000003
 20
-6.970320000000001
 30
0.0
 10
2.1159600000000003
 20
-6.970320000000001
 30
0.0
 10
2.17692
 20
-6.8585600000000007
 30
0.0
 10
2.1108800000000003
 20
-6.8661800000000008
 30
0.0
 10
2.1210400000000003
 20
-6.7188600000000003
 30
0.0
 10
2.1210400000000003
 20
-6.7188600000000003
 30
0.0
 10
2.12866
 20
-6.6147200000000002
 30
0.0
 10
2.2937600000000002
 20
-6.4293000000000005
 30
0.0
 10
2.4461600000000003
 20
-6.5588400000000009
 30
0.0
 10
2.4461600000000003
 20
-6.5588400000000009
 30
0.0
 10
2.6417400000000004
 20
-6.7239400000000007
 30
0.0
 10
2.9313000000000002
 20
-6.1753000000000009
 30
0.0
 10
2.9059000000000004
 20
-5.9213000000000005
 30
0.0
 10
2.9059000000000004
 20
-5.9213000000000005
 30
0.0
 10
2.9643200000000003
 20
-5.5733200000000007
 30
0.0
 10
2.6239600000000003
 20
-5.4920400000000003
 30
0.0
 10
2.6595200000000001
 20
-5.28376
 30
0.0
 10
2.6595200000000001
 20
-5.28376
 30
0.0
 10
2.7230200000000004
 20
-4.93832
 30
0.0
 10
2.3852000000000002
 20
-4.8443400000000008
 30
0.0
 10
2.4334600000000002
 20
-4.6563800000000004
 30
0.0
 10
2.4334600000000002
 20
-4.6563800000000004
 30
0.0
 10
2.6036400000000004
 20
-3.9959800000000003
 30
0.0
 10
2.4715600000000002
 20
-3.5387800000000005
 30
0.0
 10
2.3623400000000001
 20
-2.9317200000000003
 30
0.0
 10
2.3623400000000001
 20
-2.9317200000000003
 30
0.0
 10
3.8253800000000004
 20
-2.5685000000000002
 30
0.0
 10
4.37148
 20
-0.9378200000000001
 30
0.0
 10
4.66866
 20
0.32963
 30
0.0
 10
4.66866
 20
0.32963
 30
0.0
 10
4.4781600000000008
 20
0.32963
 30
0.0
 10
4.1784400000000002
 20
-0.24186
 30
0.0
 10
4.1632000000000007
 20
0.23819
 30
0.0
 10
4.1632000000000007
 20
0.23819
 30
0.0
 10
4.8642400000000006
 20
0.60141
 30
0.0
 10
4.7677200000000006
 20
1.5843900000000002
 30
0.0
 10
4.6737400000000004
 20
2.2625700000000002
 30
0.0
 10
4.6737400000000004
 20
2.2625700000000002
 30
0.0
 10
4.6381800000000002
 20
2.4124300000000001
 30
0.0
 10
4.6712000000000007
 20
2.6715100000000001
 30
0.0
 10
4.5111800000000004
 20
2.7451700000000003
 30
0.0
 10
4.5111800000000004
 20
2.7451700000000003
 30
0.0
 10
4.5899200000000002
 20
2.1406500000000004
 30
0.0
 10
4.4476800000000001
 20
1.4777100000000001
 30
0.0
 10
3.9625400000000002
 20
1.0840100000000001
 30
0.0
 10
3.9625400000000002
 20
1.0840100000000001
 30
0.0
 10
4.5746800000000007
 20
2.1863700000000001
 30
0.0
 10
4.1149400000000007
 20
4.5282500000000008
 30
0.0
 10
2.8932000000000002
 20
5.6001300000000001
 30
0.0
 10
2.8932000000000002
 20
5.6001300000000001
 30
0.0
 10
3.7517200000000002
 20
4.49777
 30
0.0
 10
3.4291400000000003
 20
2.9864700000000002
 30
0.0
 10
3.2691200000000005
 20
1.7190100000000001
 30
0.0
 10
3.2691200000000005
 20
1.7190100000000001
 30
0.0
 10
3.2107000000000001
 20
1.7647300000000001
 30
0.0
 10
3.1573600000000002
 20
1.8409300000000002
 30
0.0
 10
3.1167200000000004
 20
1.8993500000000001
 30
0.0
 10
3.1167200000000004
 20
1.8993500000000001
 30
0.0
 10
3.4748600000000005
 20
4.1370900000000006
 30
0.0
 10
2.3801200000000002
 20
6.2960900000000004
 30
0.0
 10
0.2617600000000001
 20
7.1266700000000007
 30
0.0
  0
SPLINE
  5
26
100
AcDbEntity
  8
Ebene 1
 62
     7
100
AcDbSpline
210
0.0
220
0.0
230
1.0
 70
     1
 71
     3
 72
    20
 73
    16
 74
     0
 42
0.0000000001
 43
0.0000000001
 40
0.0
 40
0.0
 40
0.0
 40
0.0
 40
0.25
 40
0.25
 40
0.25
 40
0.25
 40
0.5
 40
0.5
 40
0.5
 40
0.5
 40
0.75
 40
0.75
 40
0.75
 40
0.75
 40
1.0
 40
1.0
 40
1.0
 40
1.0
 10
1.69686
 20
5.2546900000000001
 30
0.0
 10
2.0880200000000002
 20
4.0608900000000006
 30
0.0
 10
2.4334600000000002
 20
2.7756500000000002
 30
0.0
 10
2.4563200000000003
 20
1.4777100000000001
 30
0.0
 10
2.4563200000000003
 20
1.4777100000000001
 30
0.0
 10
2.6061800000000002
 20
1.4319900000000001
 30
0.0
 10
2.7687400000000002
 20
1.3862700000000001
 30
0.0
 10
2.9008200000000004
 20
1.2821300000000002
 30
0.0
 10
2.9008200000000004
 20
1.2821300000000002
 30
0.0
 10
3.1522800000000002
 20
2.2778100000000001
 30
0.0
 10
3.0506800000000003
 20
3.4258900000000003
 30
0.0
 10
2.7052400000000003
 20
4.3783900000000004
 30
0.0
 10
2.7052400000000003
 20
4.3783900000000004
 30
0.0
 10
2.41568
 20
4.7111300000000007
 30
0.0
 10
2.0575400000000004
 20
4.9956100000000001
 30
0.0
 10
1.69686
 20
5.2546900000000001
 30
0.0
  0
SPLINE
  5
27
100
AcDbEntity
  8
Ebene 1
 62
     7
100
AcDbSpline
210
0.0
220
0.0
230
1.0
 70
     1
 71
     3
 72
    20
 73
    16
 74
     0
 42
0.0000000001
 43
0.0000000001
 40
0.0
 40
0.0
 40
0.0
 40
0.0
 40
0.25
 40
0.25
 40
0.25
 40
0.25
 40
0.5
 40
0.5
 40
0.5
 40
0.5
 40
0.75
 40
0.75
 40
0.75
 40
0.75
 40
1.0
 40
1.0
 40
1.0
 40
1.0
 10
-3.1342100000000004
 20
3.8957900000000003
 30
0.0
 10
-3.1773900000000004
 20
3.9084900000000005
 30
0.0
 10
-3.1799300000000001
 20
3.8805500000000004
 30
0.0
 10
-3.1621500000000005
 20
3.8500700000000001
 30
0.0
 10
-3.1621500000000005
 20
3.8500700000000001
 30
0.0
 10
-2.4230100000000001
 20
3.0779100000000001
 30
0.0
 10
-1.9988300000000001
 20
2.08223
 30
0.0
 10
-1.5365500000000001
 20
1.1602100000000002
 30
0.0
 10
-1.5365500000000001
 20
1.1602100000000002
 30
0.0
 10
-1.5365500000000001
 20
1.1602100000000002
 30
0.0
 10
-1.1860300000000001
 20
1.9298300000000002
 30
0.0
 10
-1.1860300000000001
 20
1.9298300000000002
 30
0.0
 10
-1.1860300000000001
 20
1.9298300000000002
 30
0.0
 10
-1.4095500000000001
 20
2.8975700000000004
 30
0.0
 10
-2.1690100000000001
 20
3.6824300000000001
 30
0.0
 10
-3.1342100000000004
 20
3.8957900000000003
 30
0.0
  0
SPLINE
  5
28
100
AcDbEntity
  8
Ebene 1
 62
     7
100
AcDbSpline
210
0.0
220
0.0
230
1.0
 70
     1
 71
     3
 72
    20
 73
    16
 74
     0
 42
0.0000000001
 43
0.0000000001
 40
0.0
 40
0.0
 40
0.0
 40
0.0
 40
0.25
 40
0.25
 40
0.25
 40
0.25
 40
0.5
 40
0.5
 40
0.5
 40
0.5
 40
0.75
 40
0.75
 40
0.75
 40
0.75
 40
1.0
 40
1.0
 40
1.0
 40
1.0
 10
-1.0183900000000001
 20
3.7281500000000003
 30
0.0
 10
-1.0514100000000002
 20
3.7433900000000002
 30
0.0
 10
-1.0742700000000001
 20
3.7129100000000004
 30
0.0
 10
-1.0641100000000001
 20
3.6824300000000001
 30
0.0
 10
-1.0641100000000001
 20
3.6824300000000001
 30
0.0
 10
-0.9167900000000001
 20
3.2582500000000003
 30
0.0
 10
-0.8609100000000001
 20
2.7908900000000001
 30
0.0
 10
-0.86599
 20
2.3387700000000002
 30
0.0
 10
-0.86599
 20
2.3387700000000002
 30
0.0
 10
-0.6907300000000001
 20
2.4733900000000002
 30
0.0
 10
-0.46721
 20
2.5648300000000002
 30
0.0
 10
-0.26909
 20
2.6410300000000002
 30
0.0
 10
-0.26909
 20
2.6410300000000002
 30
0.0
 10
-0.27671
 20
3.1236300000000004
 30
0.0
 10
-0.57135
 20
3.5478100000000001
 30
0.0
 10
-1.0183900000000001
 20
3.7281500000000003
 30
0.0
  0
SPLINE
  5
29
100
AcDbEntity
  8
Ebene 1
 62
     7
100
AcDbSpline
210
0.0
220
0.0
230
1.0
 70
     1
 71
     3
 72
    20
 73
    16
 74
     0
 42
0.0000000001
 43
0.0000000001
 40
0.0
 40
0.0
 40
0.0
 40
0.0
 40
0.25
 40
0.25
 40
0.25
 40
0.25
 40
0.5
 40
0.5
 40
0.5
 40
0.5
 40
0.75
 40
0.75
 40
0.75
 40
0.75
 40
1.0
 40
1.0
 40
1.0
 40
1.0
 10
3.7517200000000002
 20
3.4868500000000004
 30
0.0
 10
3.4748600000000005
 20
2.7299300000000004
 30
0.0
 10
3.4520000000000004
 20
1.8841100000000002
 30
0.0
 10
3.2386400000000002
 20
1.11449
 30
0.0
 10
3.2386400000000002
 20
1.11449
 30
0.0
 10
3.2386400000000002
 20
1.11449
 30
0.0
 10
3.4824800000000002
 20
0.8427100000000001
 30
0.0
 10
3.4824800000000002
 20
0.8427100000000001
 30
0.0
 10
3.4824800000000002
 20
0.8427100000000001
 30
0.0
 10
4.0235000000000003
 20
1.2668900000000001
 30
0.0
 10
4.1301800000000002
 20
2.00603
 30
0.0
 10
4.16066
 20
2.6562700000000001
 30
0.0
 10
4.16066
 20
2.6562700000000001
 30
0.0
 10
4.0692200000000005
 20
2.9432900000000002
 30
0.0
 10
3.9142800000000002
 20
3.2277700000000005
 30
0.0
 10
3.7517200000000002
 20
3.4868500000000004
 30
0.0
  0
SPLINE
  5
2A
100
AcDbEntity
  8
Ebene 1
 62
     7
100
AcDbSpline
210
0.0
220
0.0
230
1.0
 70
     1
 71
     3
 72
    16
 73
    12
 74
     0
 42
0.0000000001
 43
0.0000000001
 40
0.0
 40
0.0
 40
0.0
 40
0.0
 40
0.3333333333333333
 40
0.3333333333333333
 40
0.3333333333333333
 40
0.3333333333333333
 40
0.6666666666666666
 40
0.6666666666666666
 40
0.6666666666666666
 40
0.6666666666666666
 40
1.0
 40
1.0
 40
1.0
 40
1.0
 10
0.41416
 20
2.8670900000000001
 30
0.0
 10
0.31764
 20
2.8366100000000003
 30
0.0
 10
0.32018
 20
2.6994500000000001
 30
0.0
 10
0.2516000000000001
 20
2.6410300000000002
 30
0.0
 10
0.2516000000000001
 20
2.6410300000000002
 30
0.0
 10
0.3278
 20
2.6410300000000002
 30
0.0
 10
0.3989200000000001
 20
2.6105500000000004
 30
0.0
 10
0.47004
 20
2.6562700000000001
 30
0.0
 10
0.47004
 20
2.6562700000000001
 30
0.0
 10
0.4954400000000001
 20
2.7451700000000003
 30
0.0
 10
0.4522600000000001
 20
2.80613
 30
0.0
 10
0.41416
 20
2.8670900000000001
 30
0.0
  0
SPLINE
  5
2B
100
AcDbEntity
  8
Ebene 1
 62
     7
100
AcDbSpline
210
0.0
220
0.0
230
1.0
 70
     1
 71
     3
 72
   128
 73
   124
 74
     0
 42
0.0000000001
 43
0.0000000001
 40
0.0
 40
0.0
 40
0.0
 40
0.0
 40
0.032258064516129
 40
0.032258064516129
 40
0.032258064516129
 40
0.032258064516129
 40
0.0645161290322581
 40
0.0645161290322581
 40
0.0645161290322581
 40
0.0645161290322581
 40
0.0967741935483871
 40
0.0967741935483871
 40
0.0967741935483871
 40
0.0967741935483871
 40
0.1290322580645161
 40
0.1290322580645161
 40
0.1290322580645161
 40
0.1290322580645161
 40
0.1612903225806452
 40
0.1612903225806452
 40
0.1612903225806452
 40
0.1612903225806452
 40
0.1935483870967742
 40
0.1935483870967742
 40
0.1935483870967742
 40
0.1935483870967742
 40
0.2258064516129032
 40
0.2258064516129032
 40
0.2258064516129032
 40
0.2258064516129032
 40
0.2580645161290323
 40
0.2580645161290323
 40
0.2580645161290323
 40
0.2580645161290323
 40
0.2903225806451613
 40
0.2903225806451613
 40
0.2903225806451613
 40
0.2903225806451613
 40
0.3225806451612903
 40
0.3225806451612903
 40
0.3225806451612903
 40
0.3225806451612903
 40
0.3548387096774193
 40
0.3548387096774193
 40
0.3548387096774193
 40
0.3548387096774193
 40
0.3870967741935483
 40
0.3870967741935483
 40
0.3870967741935483
 40
0.3870967741935483
 40
0.4193548387096773
 40
0.4193548387096773
 40
0.4193548387096773
 40
0.4193548387096773
 40
0.4516129032258063
 40
0.4516129032258063
 40
0.4516129032258063
 40
0.4516129032258063
 40
0.4838709677419353
 40
0.4838709677419353
 40
0.4838709677419353
 40
0.4838709677419353
 40
0.5161290322580643
 40
0.5161290322580643
 40
0.5161290322580643
 40
0.5161290322580643
 40
0.5483870967741933
 40
0.5483870967741933
 40
0.5483870967741933
 40
0.5483870967741933
 40
0.5806451612903223
 40
0.5806451612903223
 40
0.5806451612903223
 40
0.5806451612903223
 40
0.6129032258064513
 40
0.6129032258064513
 40
0.6129032258064513
 40
0.6129032258064513
 40
0.6451612903225803
 40
0.6451612903225803
 40
0.6451612903225803
 40
0.6451612903225803
 40
0.6774193548387093
 40
0.6774193548387093
 40
0.6774193548387093
 40
0.6774193548387093
 40
0.7096774193548383
 40
0.7096774193548383
 40
0.7096774193548383
 40
0.7096774193548383
 40
0.7419354838709673
 40
0.7419354838709673
 40
0.7419354838709673
 40
0.7419354838709673
 40
0.7741935483870963
 40
0.7741935483870963
 40
0.7741935483870963
 40
0.7741935483870963
 40
0.8064516129032253
 40
0.8064516129032253
 40
0.8064516129032253
 40
0.8064516129032253
 40
0.8387096774193543
 40
0.8387096774193543
 40
0.8387096774193543
 40
0.8387096774193543
 40
0.8709677419354833
 40
0.8709677419354833
 40
0.8709677419354833
 40
0.8709677419354833
 40
0.9032258064516123
 40
0.9032258064516123
 40
0.9032258064516123
 40
0.9032258064516123
 40
0.9354838709677413
 40
0.9354838709677413
 40
0.9354838709677413
 40
0.9354838709677413
 40
0.9677419354838703
 40
0.9677419354838703
 40
0.9677419354838703
 40
0.9677419354838703
 40
1.0
 40
1.0
 40
1.0
 40
1.0
 10
-1.12253
 20
-2.3881600000000001
 30
0.0
 10
-0.9599700000000001
 20
-2.2560800000000003
 30
0.0
 10
-0.9421900000000001
 20
-2.2129000000000003
 30
0.0
 10
-0.9345700000000001
 20
-2.0401800000000003
 30
0.0
 10
-0.9345700000000001
 20
-2.0401800000000003
 30
0.0
 10
-0.8736100000000001
 20
-2.23576
 30
0.0
 10
-0.9599700000000001
 20
-2.52278
 30
0.0
 10
-0.7669300000000001
 20
-2.6142200000000004
 30
0.0
 10
-0.7669300000000001
 20
-2.6142200000000004
 30
0.0
 10
-0.6881900000000001
 20
-2.5075400000000001
 30
0.0
 10
-0.6246900000000001
 20
-2.4186400000000003
 30
0.0
 10
-0.70089
 20
-2.2967200000000001
 30
0.0
 10
-0.70089
 20
-2.2967200000000001
 30
0.0
 10
-0.69835
 20
-2.2814800000000002
 30
0.0
 10
-0.6856500000000001
 20
-2.2662400000000003
 30
0.0
 10
-0.6704100000000001
 20
-2.2662400000000003
 30
0.0
 10
-0.6704100000000001
 20
-2.2662400000000003
 30
0.0
 10
-0.6704100000000001
 20
-2.2662400000000003
 30
0.0
 10
-0.47483
 20
-2.6751800000000001
 30
0.0
 10
-0.47483
 20
-2.6751800000000001
 30
0.0
 10
-0.47483
 20
-2.6751800000000001
 30
0.0
 10
-0.23607
 20
-2.5989800000000001
 30
0.0
 10
-0.50531
 20
-2.22052
 30
0.0
 10
-0.14209
 20
-2.1773400000000001
 30
0.0
 10
-0.14209
 20
-2.1773400000000001
 30
0.0
 10
-0.02779
 20
-2.1773400000000001
 30
0.0
 10
0.06872
 20
-2.22052
 30
0.0
 10
0.16778
 20
-2.2662400000000003
 30
0.0
 10
0.16778
 20
-2.2662400000000003
 30
0.0
 10
0.7773800000000001
 20
-3.0815800000000002
 30
0.0
 10
1.8213200000000001
 20
-2.2814800000000002
 30
0.0
 10
1.5495400000000001
 20
-1.5271000000000001
 30
0.0
 10
1.5495400000000001
 20
-1.5271000000000001
 30
0.0
 10
1.5952600000000001
 20
-1.3594600000000001
 30
0.0
 10
1.7629000000000001
 20
-1.4356600000000002
 30
0.0
 10
1.8594200000000001
 20
-1.4813800000000001
 30
0.0
 10
1.8594200000000001
 20
-1.4813800000000001
 30
0.0
 10
1.8695800000000002
 20
-0.9835400000000001
 30
0.0
 10
2.41568
 20
-0.84638
 30
0.0
 10
2.4385400000000002
 20
-0.31806
 30
0.0
 10
2.4385400000000002
 20
-0.31806
 30
0.0
 10
2.0677000000000003
 20
-0.22662
 30
0.0
 10
1.7349600000000001
 20
-0.7244600000000001
 30
0.0
 10
1.7679800000000001
 20
-1.08768
 30
0.0
 10
1.7679800000000001
 20
-1.08768
 30
0.0
 10
1.01868
 20
-0.3637800000000001
 30
0.0
 10
2.1134200000000001
 20
0.65983
 30
0.0
 10
1.4555600000000002
 20
1.4319900000000001
 30
0.0
 10
1.4555600000000002
 20
1.4319900000000001
 30
0.0
 10
1.7502000000000002
 20
1.4777100000000001
 30
0.0
 10
1.9280000000000002
 20
1.02305
 30
0.0
 10
2.2201
 20
1.1754500000000001
 30
0.0
 10
2.2201
 20
1.1754500000000001
 30
0.0
 10
2.3750400000000003
 20
1.5081900000000001
 30
0.0
 10
2.4868000000000001
 20
2.0669900000000001
 30
0.0
 10
2.1007200000000004
 20
2.3235300000000003
 30
0.0
 10
2.1007200000000004
 20
2.3235300000000003
 30
0.0
 10
1.3946000000000001
 20
2.6842100000000002
 30
0.0
 10
0.37352
 20
2.80613
 30
0.0
 10
-0.28433
 20
2.2625700000000002
 30
0.0
 10
-0.28433
 20
2.2625700000000002
 30
0.0
 10
-0.34021
 20
2.2320900000000004
 30
0.0
 10
-0.5154700000000001
 20
2.21685
 30
0.0
 10
-0.38339
 20
2.29305
 30
0.0
 10
-0.38339
 20
2.29305
 30
0.0
 10
-0.38339
 20
2.29305
 30
0.0
 10
-0.16241
 20
2.4429100000000004
 30
0.0
 10
-0.16241
 20
2.4429100000000004
 30
0.0
 10
-0.16241
 20
2.4429100000000004
 30
0.0
 10
-1.1758700000000002
 20
2.5343500000000003
 30
0.0
 10
-1.4120900000000001
 20
1.0992500000000001
 30
0.0
 10
-1.7448300000000001
 20
0.50997
 30
0.0
 10
-1.7448300000000001
 20
0.50997
 30
0.0
 10
-1.7753100000000002
 20
0.28391
 30
0.0
 10
-1.6940300000000001
 20
0.08833
 30
0.0
 10
-1.5340100000000001
 20
-0.04628
 30
0.0
 10
-1.5340100000000001
 20
-0.04628
 30
0.0
 10
-1.9404100000000002
 20
0.23819
 30
0.0
 10
-2.1283700000000003
 20
-0.43998
 30
0.0
 10
-1.9378700000000002
 20
-0.7549400000000001
 30
0.0
 10
-1.9378700000000002
 20
-0.7549400000000001
 30
0.0
 10
-2.0420100000000003
 20
-0.1682
 30
0.0
 10
-1.3993900000000001
 20
-0.7854200000000001
 30
0.0
 10
-1.1911100000000001
 20
-0.69652
 30
0.0
 10
-1.1911100000000001
 20
-0.69652
 30
0.0
 10
-1.2723900000000001
 20
-0.80066
 30
0.0
 10
-1.4705100000000002
 20
-0.9225800000000001
 30
0.0
 10
-1.4705100000000002
 20
-1.0724400000000001
 30
0.0
 10
-1.4705100000000002
 20
-1.0724400000000001
 30
0.0
 10
-1.4705100000000002
 20
-1.0724400000000001
 30
0.0
 10
-1.38161
 20
-0.9683000000000001
 30
0.0
 10
-1.38161
 20
-0.9683000000000001
 30
0.0
 10
-1.38161
 20
-0.9683000000000001
 30
0.0
 10
-1.1377700000000002
 20
-1.16388
 30
0.0
 10
-0.56881
 20
-0.8616200000000001
 30
0.0
 10
-0.5408700000000001
 20
-1.3594600000000001
 30
0.0
 10
-0.5408700000000001
 20
-1.3594600000000001
 30
0.0
 10
-0.9142500000000001
 20
-1.11816
 30
0.0
 10
-1.20635
 20
-1.6033000000000002
 30
0.0
 10
-1.1377700000000002
 20
-1.9360400000000002
 30
0.0
 10
-1.1377700000000002
 20
-1.9360400000000002
 30
0.0
 10
-1.20635
 20
-1.8598400000000002
 30
0.0
 10
-1.1149100000000001
 20
-1.2832600000000001
 30
0.0
 10
-1.5289300000000001
 20
-1.3289800000000001
 30
0.0
 10
-1.5289300000000001
 20
-1.3289800000000001
 30
0.0
 10
-1.6406900000000002
 20
-1.8141200000000002
 30
0.0
 10
-1.63053
 20
-2.0706600000000002
 30
0.0
 10
-1.5797300000000001
 20
-2.5075400000000001
 30
0.0
 10
-1.5797300000000001
 20
-2.5075400000000001
 30
0.0
 10
-1.3968500000000001
 20
-2.5532600000000003
 30
0.0
 10
-1.6178300000000001
 20
-2.2256
 30
0.0
 10
-1.4806700000000002
 20
-2.0884400000000003
 30
0.0
 10
-1.4806700000000002
 20
-2.0884400000000003
 30
0.0
 10
-1.4755900000000002
 20
-1.8928600000000002
 30
0.0
 10
-1.3917700000000002
 20
-2.02494
 30
0.0
 10
-1.3968500000000001
 20
-2.10114
 30
0.0
 10
-1.3968500000000001
 20
-2.10114
 30
0.0
 10
-1.41717
 20
-2.2662400000000003
 30
0.0
 10
-1.4095500000000001
 20
-2.4186400000000003
 30
0.0
 10
-1.3638300000000001
 20
-2.5837400000000001
 30
0.0
 10
-1.3638300000000001
 20
-2.5837400000000001
 30
0.0
 10
-1.1860300000000001
 20
-2.31704
 30
0.0
 10
-1.2292100000000001
 20
-1.9081000000000001
 30
0.0
 10
-1.12253
 20
-2.3881600000000001
 30
0.0
  0
SPLINE
  5
2C
100
AcDbEntity
  8
Ebene 1
 62
     7
100
AcDbSpline
210
0.0
220
0.0
230
1.0
 70
     1
 71
     3
 72
    16
 73
    12
 74
     0
 42
0.0000000001
 43
0.0000000001
 40
0.0
 40
0.0
 40
0.0
 40
0.0
 40
0.3333333333333333
 40
0.3333333333333333
 40
0.3333333333333333
 40
0.3333333333333333
 40
0.6666666666666666
 40
0.6666666666666666
 40
0.6666666666666666
 40
0.6666666666666666
 40
1.0
 40
1.0
 40
1.0
 40
1.0
 10
2.9973400000000003
 20
1.1754500000000001
 30
0.0
 10
3.1243400000000001
 20
1.1297300000000001
 30
0.0
 10
3.1802200000000003
 20
1.2516500000000002
 30
0.0
 10
3.1776800000000001
 20
1.3557900000000001
 30
0.0
 10
3.1776800000000001
 20
1.3557900000000001
 30
0.0
 10
3.2742000000000004
 20
1.4624700000000002
 30
0.0
 10
3.2310200000000004
 20
1.61233
 30
0.0
 10
3.1065600000000004
 20
1.6732900000000002
 30
0.0
 10
3.1065600000000004
 20
1.6732900000000002
 30
0.0
 10
3.1065600000000004
 20
1.6732900000000002
 30
0.0
 10
2.9973400000000003
 20
1.1754500000000001
 30
0.0
 10
2.9973400000000003
 20
1.1754500000000001
 30
0.0
  0
SPLINE
  5
2D
100
AcDbEntity
  8
Ebene 1
 62
     7
100
AcDbSpline
210
0.0
220
0.0
230
1.0
 70
     1
 71
     3
 72
    16
 73
    12
 74
     0
 42
0.0000000001
 43
0.0000000001
 40
0.0
 40
0.0
 40
0.0
 40
0.0
 40
0.3333333333333333
 40
0.3333333333333333
 40
0.3333333333333333
 40
0.3333333333333333
 40
0.6666666666666666
 40
0.6666666666666666
 40
0.6666666666666666
 40
0.6666666666666666
 40
1.0
 40
1.0
 40
1.0
 40
1.0
 10
4.5086400000000006
 20
1.4167500000000002
 30
0.0
 10
4.2063800000000002
 20
1.11449
 30
0.0
 10
3.9142800000000002
 20
0.8427100000000001
 30
0.0
 10
3.6755200000000001
 20
0.4947300000000001
 30
0.0
 10
3.6755200000000001
 20
0.4947300000000001
 30
0.0
 10
3.6755200000000001
 20
0.4947300000000001
 30
0.0
 10
3.7542600000000004
 20
0.16199
 30
0.0
 10
3.7542600000000004
 20
0.16199
 30
0.0
 10
3.7542600000000004
 20
0.16199
 30
0.0
 10
4.28512
 20
0.29915
 30
0.0
 10
4.6737400000000004
 20
0.87319
 30
0.0
 10
4.5086400000000006
 20
1.4167500000000002
 30
0.0
  0
SPLINE
  5
2E
100
AcDbEntity
  8
Ebene 1
 62
     7
100
AcDbSpline
210
0.0
220
0.0
230
1.0
 70
     1
 71
     3
 72
    16
 73
    12
 74
     0
 42
0.0000000001
 43
0.0000000001
 40
0.0
 40
0.0
 40
0.0
 40
0.0
 40
0.3333333333333333
 40
0.3333333333333333
 40
0.3333333333333333
 40
0.3333333333333333
 40
0.6666666666666666
 40
0.6666666666666666
 40
0.6666666666666666
 40
0.6666666666666666
 40
1.0
 40
1.0
 40
1.0
 40
1.0
 10
2.5426800000000003
 20
1.3126100000000001
 30
0.0
 10
2.4309200000000004
 20
1.1602100000000002
 30
0.0
 10
2.6976200000000001
 20
1.1754500000000001
 30
0.0
 10
2.7839800000000001
 20
1.11449
 30
0.0
 10
2.7839800000000001
 20
1.11449
 30
0.0
 10
2.8043
 20
1.11449
 30
0.0
 10
2.8170000000000002
 20
1.11449
 30
0.0
 10
2.8271600000000001
 20
1.1297300000000001
 30
0.0
 10
2.8271600000000001
 20
1.1297300000000001
 30
0.0
 10
2.7890600000000001
 20
1.23641
 30
0.0
 10
2.63666
 20
1.2821300000000002
 30
0.0
 10
2.5426800000000003
 20
1.3126100000000001
 30
0.0
  0
SPLINE
  5
2F
100
AcDbEntity
  8
Ebene 1
 62
     7
100
AcDbSpline
210
0.0
220
0.0
230
1.0
 70
     1
 71
     3
 72
    80
 73
    76
 74
     0
 42
0.0000000001
 43
0.0000000001
 40
0.0
 40
0.0
 40
0.0
 40
0.0
 40
0.0526315789473684
 40
0.0526315789473684
 40
0.0526315789473684
 40
0.0526315789473684
 40
0.1052631578947368
 40
0.1052631578947368
 40
0.1052631578947368
 40
0.1052631578947368
 40
0.1578947368421053
 40
0.1578947368421053
 40
0.1578947368421053
 40
0.1578947368421053
 40
0.2105263157894737
 40
0.2105263157894737
 40
0.2105263157894737
 40
0.2105263157894737
 40
0.2631578947368421
 40
0.2631578947368421
 40
0.2631578947368421
 40
0.2631578947368421
 40
0.3157894736842105
 40
0.3157894736842105
 40
0.3157894736842105
 40
0.3157894736842105
 40
0.3684210526315789
 40
0.3684210526315789
 40
0.3684210526315789
 40
0.3684210526315789
 40
0.4210526315789474
 40
0.4210526315789474
 40
0.4210526315789474
 40
0.4210526315789474
 40
0.4736842105263158
 40
0.4736842105263158
 40
0.4736842105263158
 40
0.4736842105263158
 40
0.5263157894736842
 40
0.5263157894736842
 40
0.5263157894736842
 40
0.5263157894736842
 40
0.5789473684210527
 40
0.5789473684210527
 40
0.5789473684210527
 40
0.5789473684210527
 40
0.631578947368421
 40
0.631578947368421
 40
0.631578947368421
 40
0.631578947368421
 40
0.6842105263157894
 40
0.6842105263157894
 40
0.6842105263157894
 40
0.6842105263157894
 40
0.7368421052631577
 40
0.7368421052631577
 40
0.7368421052631577
 40
0.7368421052631577
 40
0.7894736842105261
 40
0.7894736842105261
 40
0.7894736842105261
 40
0.7894736842105261
 40
0.8421052631578945
 40
0.8421052631578945
 40
0.8421052631578945
 40
0.8421052631578945
 40
0.8947368421052628
 40
0.8947368421052628
 40
0.8947368421052628
 40
0.8947368421052628
 40
0.9473684210526312
 40
0.9473684210526312
 40
0.9473684210526312
 40
0.9473684210526312
 40
1.0
 40
1.0
 40
1.0
 40
1.0
 10
1.65368
 20
1.2668900000000001
 30
0.0
 10
1.7756000000000001
 20
0.9036700000000001
 30
0.0
 10
1.7476600000000002
 20
0.44901
 30
0.0
 10
1.6105
 20
0.07309
 30
0.0
 10
1.6105
 20
0.07309
 30
0.0
 10
1.6105
 20
0.07309
 30
0.0
 10
1.7679800000000001
 20
0.08833
 30
0.0
 10
1.7679800000000001
 20
0.08833
 30
0.0
 10
1.7679800000000001
 20
0.08833
 30
0.0
 10
1.7679800000000001
 20
0.08833
 30
0.0
 10
1.7730600000000001
 20
-0.03104
 30
0.0
 10
1.7730600000000001
 20
-0.03104
 30
0.0
 10
1.7730600000000001
 20
-0.03104
 30
0.0
 10
1.65368
 20
-0.19614
 30
0.0
 10
1.4606400000000002
 20
-0.2571
 30
0.0
 10
1.5800200000000002
 20
-0.4679200000000001
 30
0.0
 10
1.5800200000000002
 20
-0.4679200000000001
 30
0.0
 10
1.6841600000000001
 20
-0.4095
 30
0.0
 10
1.6689200000000002
 20
-0.1809
 30
0.0
 10
1.8289400000000002
 20
-0.3333
 30
0.0
 10
1.8289400000000002
 20
-0.3333
 30
0.0
 10
1.8645
 20
-0.22662
 30
0.0
 10
1.9788000000000001
 20
-0.12248
 30
0.0
 10
2.08548
 20
-0.15296
 30
0.0
 10
2.08548
 20
-0.15296
 30
0.0
 10
1.9940400000000003
 20
-0.24186
 30
0.0
 10
1.8721200000000002
 20
-0.31806
 30
0.0
 10
1.8289400000000002
 20
-0.4679200000000001
 30
0.0
 10
1.8289400000000002
 20
-0.4679200000000001
 30
0.0
 10
1.7273400000000001
 20
-0.4679200000000001
 30
0.0
 10
1.7451200000000002
 20
-0.6812800000000001
 30
0.0
 10
1.6689200000000002
 20
-0.58984
 30
0.0
 10
1.6689200000000002
 20
-0.58984
 30
0.0
 10
1.5927200000000001
 20
-0.7117600000000001
 30
0.0
 10
1.65622
 20
-0.80066
 30
0.0
 10
1.7375
 20
-0.90734
 30
0.0
 10
1.7375
 20
-0.90734
 30
0.0
 10
1.7095600000000002
 20
-0.43998
 30
0.0
 10
2.1083400000000001
 20
-0.10724
 30
0.0
 10
2.5858600000000003
 20
-0.15296
 30
0.0
 10
2.5858600000000003
 20
-0.15296
 30
0.0
 10
2.7103200000000003
 20
0.02737
 30
0.0
 10
2.5604600000000004
 20
0.22295
 30
0.0
 10
2.5477600000000002
 20
0.40329
 30
0.0
 10
2.5477600000000002
 20
0.40329
 30
0.0
 10
2.6773000000000002
 20
0.44901
 30
0.0
 10
2.8297000000000003
 20
0.38805
 30
0.0
 10
2.9236800000000001
 20
0.28391
 30
0.0
 10
2.9236800000000001
 20
0.28391
 30
0.0
 10
3.1726000000000001
 20
-0.10724
 30
0.0
 10
2.9262200000000003
 20
-0.6050800000000001
 30
0.0
 10
2.6442800000000002
 20
-0.9225800000000001
 30
0.0
 10
2.6442800000000002
 20
-0.9225800000000001
 30
0.0
 10
2.4563200000000003
 20
-1.1029200000000001
 30
0.0
 10
2.6544400000000001
 20
-1.2680200000000001
 30
0.0
 10
2.7281000000000004
 20
-1.4661400000000002
 30
0.0
 10
2.7281000000000004
 20
-1.4661400000000002
 30
0.0
 10
2.8754200000000001
 20
-1.3594600000000001
 30
0.0
 10
2.9998800000000001
 20
-1.2248400000000002
 30
0.0
 10
3.0456000000000003
 20
-1.0114800000000002
 30
0.0
 10
3.0456000000000003
 20
-1.0114800000000002
 30
0.0
 10
3.1649800000000003
 20
-0.8616200000000001
 30
0.0
 10
3.3199200000000002
 20
-0.6812800000000001
 30
0.0
 10
3.2843600000000004
 20
-0.4679200000000001
 30
0.0
 10
3.2843600000000004
 20
-0.4679200000000001
 30
0.0
 10
4.0108000000000006
 20
0.28391
 30
0.0
 10
2.5477600000000002
 20
1.6732900000000002
 30
0.0
 10
1.9940400000000003
 20
0.70555
 30
0.0
 10
1.9940400000000003
 20
0.70555
 30
0.0
 10
1.9610200000000002
 20
0.6750700000000001
 30
0.0
 10
1.9280000000000002
 20
0.6318900000000001
 30
0.0
 10
1.8797400000000002
 20
0.6318900000000001
 30
0.0
 10
1.8797400000000002
 20
0.6318900000000001
 30
0.0
 10
1.9153000000000002
 20
0.8579500000000001
 30
0.0
 10
1.8441800000000002
 20
1.0992500000000001
 30
0.0
 10
1.65368
 20
1.2668900000000001
 30
0.0
  0
SPLINE
  5
30
100
AcDbEntity
  8
Ebene 1
 62
     7
100
AcDbSpline
210
0.0
220
0.0
230
1.0
 70
     1
 71
     3
 72
    12
 73
     8
 74
     0
 42
0.0000000001
 43
0.0000000001
 40
0.0
 40
0.0
 40
0.0
 40
0.0
 40
0.5
 40
0.5
 40
0.5
 40
0.5
 40
1.0
 40
1.0
 40
1.0
 40
1.0
 10
3.1776800000000001
 20
0.9798700000000001
 30
0.0
 10
3.0252800000000004
 20
0.9036700000000001
 30
0.0
 10
3.2640400000000001
 20
0.76651
 30
0.0
 10
3.3097600000000003
 20
0.6903100000000001
 30
0.0
 10
3.3097600000000003
 20
0.6903100000000001
 30
0.0
 10
3.4266000000000001
 20
0.7817500000000001
 30
0.0
 10
3.2284800000000002
 20
0.8884300000000001
 30
0.0
 10
3.1776800000000001
 20
0.9798700000000001
 30
0.0
  0
SPLINE
  5
31
100
AcDbEntity
  8
Ebene 1
 62
     7
100
AcDbSpline
210
0.0
220
0.0
230
1.0
 70
     1
 71
     3
 72
    20
 73
    16
 74
     0
 42
0.0000000001
 43
0.0000000001
 40
0.0
 40
0.0
 40
0.0
 40
0.0
 40
0.25
 40
0.25
 40
0.25
 40
0.25
 40
0.5
 40
0.5
 40
0.5
 40
0.5
 40
0.75
 40
0.75
 40
0.75
 40
0.75
 40
1.0
 40
1.0
 40
1.0
 40
1.0
 10
3.7364800000000002
 20
0.9493900000000001
 30
0.0
 10
3.6526600000000005
 20
0.8579500000000001
 30
0.0
 10
3.5053400000000003
 20
0.7817500000000001
 30
0.0
 10
3.5205800000000003
 20
0.6318900000000001
 30
0.0
 10
3.5205800000000003
 20
0.6318900000000001
 30
0.0
 10
3.4926400000000002
 20
0.6318900000000001
 30
0.0
 10
3.4494600000000002
 20
0.61665
 30
0.0
 10
3.4367600000000005
 20
0.5861700000000001
 30
0.0
 10
3.4367600000000005
 20
0.5861700000000001
 30
0.0
 10
3.6120200000000002
 20
0.5252100000000001
 30
0.0
 10
3.6780600000000003
 20
0.7360300000000001
 30
0.0
 10
3.7771200000000005
 20
0.8427100000000001
 30
0.0
 10
3.7771200000000005
 20
0.8427100000000001
 30
0.0
 10
3.7771200000000005
 20
0.8427100000000001
 30
0.0
 10
3.7364800000000002
 20
0.9493900000000001
 30
0.0
 10
3.7364800000000002
 20
0.9493900000000001
 30
0.0
  0
SPLINE
  5
32
100
AcDbEntity
  8
Ebene 1
 62
     7
100
AcDbSpline
210
0.0
220
0.0
230
1.0
 70
     1
 71
     3
 72
    12
 73
     8
 74
     0
 42
0.0000000001
 43
0.0000000001
 40
0.0
 40
0.0
 40
0.0
 40
0.0
 40
0.5
 40
0.5
 40
0.5
 40
0.5
 40
1.0
 40
1.0
 40
1.0
 40
1.0
 10
-1.7295900000000002
 20
0.9493900000000001
 30
0.0
 10
-1.8235700000000001
 20
0.93415
 30
0.0
 10
-1.7245100000000002
 20
0.7817500000000001
 30
0.0
 10
-1.6991100000000001
 20
0.7360300000000001
 30
0.0
 10
-1.6991100000000001
 20
0.7360300000000001
 30
0.0
 10
-1.6127500000000001
 20
0.7969900000000001
 30
0.0
 10
-1.6483100000000002
 20
0.9036700000000001
 30
0.0
 10
-1.7295900000000002
 20
0.9493900000000001
 30
0.0
  0
SPLINE
  5
33
100
AcDbEntity
  8
Ebene 1
100
AcDbSpline
210
0.0
220
0.0
230
1.0
 70
     1
 71
     3
 72
    28
 73
    24
 74
     0
 42
0.0000000001
 43
0.0000000001
 40
0.0
 40
0.0
 40
0.0
 40
0.0
 40
0.1666666666666667
 40
0.1666666666666667
 40
0.1666666666666667
 40
0.1666666666666667
 40
0.3333333333333333
 40
0.3333333333333333
 40
0.3333333333333333
 40
0.3333333333333333
 40
0.5
 40
0.5
 40
0.5
 40
0.5
 40
0.6666666666666666
 40
0.6666666666666666
 40
0.6666666666666666
 40
0.6666666666666666
 40
0.8333333333333333
 40
0.8333333333333333
 40
0.8333333333333333
 40
0.8333333333333333
 40
1.0
 40
1.0
 40
1.0
 40
1.0
 10
2.2861400000000001
 20
0.6318900000000001
 30
0.0
 10
2.0727800000000003
 20
0.65983
 30
0.0
 10
2.0778600000000003
 20
0.38805
 30
0.0
 10
1.9407000000000001
 20
0.32963
 30
0.0
 10
1.9407000000000001
 20
0.32963
 30
0.0
 10
1.9330800000000001
 20
0.29915
 30
0.0
 10
1.9407000000000001
 20
0.28391
 30
0.0
 10
1.9559400000000002
 20
0.26867
 30
0.0
 10
1.9559400000000002
 20
0.26867
 30
0.0
 10
2.03722
 20
0.25343
 30
0.0
 10
2.12358
 20
0.23819
 30
0.0
 10
2.20486
 20
0.23819
 30
0.0
 10
2.20486
 20
0.23819
 30
0.0
 10
2.20486
 20
0.23819
 30
0.0
 10
2.3039200000000002
 20
0.4642500000000001
 30
0.0
 10
2.3039200000000002
 20
0.4642500000000001
 30
0.0
 10
2.3039200000000002
 20
0.4642500000000001
 30
0.0
 10
2.3140800000000001
 20
0.47949
 30
0.0
 10
2.3293200000000001
 20
0.47949
 30
0.0
 10
2.3471000000000002
 20
0.47949
 30
0.0
 10
2.3471000000000002
 20
0.47949
 30
0.0
 10
2.5122
 20
0.41853
 30
0.0
 10
2.3521800000000002
 20
0.60141
 30
0.0
 10
2.2861400000000001
 20
0.6318900000000001
 30
0.0
  0
SPLINE
  5
34
100
AcDbEntity
  8
Ebene 1
100
AcDbSpline
210
0.0
220
0.0
230
1.0
 70
     1
 71
     3
 72
    20
 73
    16
 74
     0
 42
0.0000000001
 43
0.0000000001
 40
0.0
 40
0.0
 40
0.0
 40
0.0
 40
0.25
 40
0.25
 40
0.25
 40
0.25
 40
0.5
 40
0.5
 40
0.5
 40
0.5
 40
0.75
 40
0.75
 40
0.75
 40
0.75
 40
1.0
 40
1.0
 40
1.0
 40
1.0
 10
0.9882000000000001
 20
0.5709300000000001
 30
0.0
 10
0.912
 20
0.55569
 30
0.0
 10
0.8459600000000001
 20
0.4947300000000001
 30
0.0
 10
0.82564
 20
0.41853
 30
0.0
 10
0.82564
 20
0.41853
 30
0.0
 10
1.0745600000000002
 20
0.5404500000000001
 30
0.0
 10
1.27522
 20
0.26867
 30
0.0
 10
1.4657200000000001
 20
0.20771
 30
0.0
 10
1.4657200000000001
 20
0.20771
 30
0.0
 10
1.4708000000000001
 20
0.26867
 30
0.0
 10
1.4098400000000002
 20
0.29915
 30
0.0
 10
1.3768200000000002
 20
0.34487
 30
0.0
 10
1.3768200000000002
 20
0.34487
 30
0.0
 10
1.2472800000000002
 20
0.41853
 30
0.0
 10
1.1355200000000001
 20
0.5404500000000001
 30
0.0
 10
0.9882000000000001
 20
0.5709300000000001
 30
0.0
  0
SPLINE
  5
35
100
AcDbEntity
  8
Ebene 1
 62
     7
100
AcDbSpline
210
0.0
220
0.0
230
1.0
 70
     1
 71
     3
 72
    12
 73
     8
 74
     0
 42
0.0000000001
 43
0.0000000001
 40
0.0
 40
0.0
 40
0.0
 40
0.0
 40
0.5
 40
0.5
 40
0.5
 40
0.5
 40
1.0
 40
1.0
 40
1.0
 40
1.0
 10
3.5104200000000003
 20
0.43377
 30
0.0
 10
3.4520000000000004
 20
0.37281
 30
0.0
 10
3.5510600000000001
 20
0.25343
 30
0.0
 10
3.5815400000000004
 20
0.19247
 30
0.0
 10
3.5815400000000004
 20
0.19247
 30
0.0
 10
3.6221800000000002
 20
0.26867
 30
0.0
 10
3.5637600000000003
 20
0.37281
 30
0.0
 10
3.5104200000000003
 20
0.43377
 30
0.0
  0
SPLINE
  5
36
100
AcDbEntity
  8
Ebene 1
100
AcDbSpline
210
0.0
220
0.0
230
1.0
 70
     1
 71
     3
 72
    20
 73
    16
 74
     0
 42
0.0000000001
 43
0.0000000001
 40
0.0
 40
0.0
 40
0.0
 40
0.0
 40
0.25
 40
0.25
 40
0.25
 40
0.25
 40
0.5
 40
0.5
 40
0.5
 40
0.5
 40
0.75
 40
0.75
 40
0.75
 40
0.75
 40
1.0
 40
1.0
 40
1.0
 40
1.0
 10
0.14238
 20
0.32963
 30
0.0
 10
0.14238
 20
0.32963
 30
0.0
 10
0.05348
 20
0.31439
 30
0.0
 10
0.05348
 20
0.31439
 30
0.0
 10
0.05348
 20
0.31439
 30
0.0
 10
-0.17765
 20
0.08833
 30
0.0
 10
-0.49769
 20
0.02737
 30
0.0
 10
-0.75931
 20
-0.12248
 30
0.0
 10
-0.75931
 20
-0.12248
 30
0.0
 10
-0.7770900000000001
 20
-0.1682
 30
0.0
 10
-0.8101100000000001
 20
-0.19614
 30
0.0
 10
-0.7897900000000001
 20
-0.24186
 30
0.0
 10
-0.7897900000000001
 20
-0.24186
 30
0.0
 10
-0.5205500000000001
 20
-0.0031
 30
0.0
 10
-0.06335
 20
0.02737
 30
0.0
 10
0.14238
 20
0.32963
 30
0.0
  0
SPLINE
  5
37
100
AcDbEntity
  8
Ebene 1
 62
     7
100
AcDbSpline
210
0.0
220
0.0
230
1.0
 70
     1
 71
     3
 72
    24
 73
    20
 74
     0
 42
0.0000000001
 43
0.0000000001
 40
0.0
 40
0.0
 40
0.0
 40
0.0
 40
0.2
 40
0.2
 40
0.2
 40
0.2
 40
0.4
 40
0.4
 40
0.4
 40
0.4
 40
0.6000000000000001
 40
0.6000000000000001
 40
0.6000000000000001
 40
0.6000000000000001
 40
0.8
 40
0.8
 40
0.8
 40
0.8
 40
1.0
 40
1.0
 40
1.0
 40
1.0
 10
2.7839800000000001
 20
0.22295
 30
0.0
 10
2.6950800000000004
 20
0.07309
 30
0.0
 10
2.8068400000000002
 20
-0.22662
 30
0.0
 10
2.5630000000000002
 20
-0.27234
 30
0.0
 10
2.5630000000000002
 20
-0.27234
 30
0.0
 10
2.5833200000000001
 20
-0.58984
 30
0.0
 10
2.2861400000000001
 20
-0.7854200000000001
 30
0.0
 10
2.1972400000000003
 20
-1.0572000000000001
 30
0.0
 10
2.1972400000000003
 20
-1.0572000000000001
 30
0.0
 10
2.1972400000000003
 20
-1.0572000000000001
 30
0.0
 10
2.2886800000000003
 20
-1.2248400000000002
 30
0.0
 10
2.2886800000000003
 20
-1.2248400000000002
 30
0.0
 10
2.2886800000000003
 20
-1.2248400000000002
 30
0.0
 10
2.3344
 20
-1.16388
 30
0.0
 10
2.4029800000000003
 20
-1.1486400000000001
 30
0.0
 10
2.4791800000000004
 20
-1.11816
 30
0.0
 10
2.4791800000000004
 20
-1.11816
 30
0.0
 10
2.6239600000000003
 20
-0.69652
 30
0.0
 10
3.1980000000000004
 20
-0.19614
 30
0.0
 10
2.7839800000000001
 20
0.22295
 30
0.0
  0
SPLINE
  5
38
100
AcDbEntity
  8
Ebene 1
 62
     7
100
AcDbSpline
210
0.0
220
0.0
230
1.0
 70
     1
 71
     3
 72
    16
 73
    12
 74
     0
 42
0.0000000001
 43
0.0000000001
 40
0.0
 40
0.0
 40
0.0
 40
0.0
 40
0.3333333333333333
 40
0.3333333333333333
 40
0.3333333333333333
 40
0.3333333333333333
 40
0.6666666666666666
 40
0.6666666666666666
 40
0.6666666666666666
 40
0.6666666666666666
 40
1.0
 40
1.0
 40
1.0
 40
1.0
 10
4.0235000000000003
 20
0.17723
 30
0.0
 10
4.0235000000000003
 20
0.17723
 30
0.0
 10
3.6755200000000001
 20
-0.0158
 30
0.0
 10
3.6755200000000001
 20
-0.0158
 30
0.0
 10
3.6755200000000001
 20
-0.0158
 30
0.0
 10
3.7466400000000002
 20
-0.1682
 30
0.0
 10
3.9650800000000004
 20
-0.10724
 30
0.0
 10
4.0793800000000005
 20
-0.04628
 30
0.0
 10
4.0793800000000005
 20
-0.04628
 30
0.0
 10
4.08446
 20
0.02737
 30
0.0
 10
4.0768400000000007
 20
0.13151
 30
0.0
 10
4.0235000000000003
 20
0.17723
 30
0.0
  0
SPLINE
  5
39
100
AcDbEntity
  8
Ebene 1
 62
     7
100
AcDbSpline
210
0.0
220
0.0
230
1.0
 70
     1
 71
     3
 72
    12
 73
     8
 74
     0
 42
0.0000000001
 43
0.0000000001
 40
0.0
 40
0.0
 40
0.0
 40
0.0
 40
0.5
 40
0.5
 40
0.5
 40
0.5
 40
1.0
 40
1.0
 40
1.0
 40
1.0
 10
3.5688400000000002
 20
-0.12248
 30
0.0
 10
3.5256600000000002
 20
-0.1682
 30
0.0
 10
3.4596200000000001
 20
-0.27234
 30
0.0
 10
3.4951800000000004
 20
-0.3333
 30
0.0
 10
3.4951800000000004
 20
-0.3333
 30
0.0
 10
3.5739200000000002
 20
-0.31806
 30
0.0
 10
3.6348800000000003
 20
-0.1809
 30
0.0
 10
3.5688400000000002
 20
-0.12248
 30
0.0
  0
SPLINE
  5
3A
100
AcDbEntity
  8
Ebene 1
100
AcDbSpline
210
0.0
220
0.0
230
1.0
 70
     1
 71
     3
 72
    16
 73
    12
 74
     0
 42
0.0000000001
 43
0.0000000001
 40
0.0
 40
0.0
 40
0.0
 40
0.0
 40
0.3333333333333333
 40
0.3333333333333333
 40
0.3333333333333333
 40
0.3333333333333333
 40
0.6666666666666666
 40
0.6666666666666666
 40
0.6666666666666666
 40
0.6666666666666666
 40
1.0
 40
1.0
 40
1.0
 40
1.0
 10
-0.9879100000000001
 20
-0.15296
 30
0.0
 10
-1.08951
 20
-0.13772
 30
0.0
 10
-1.1377700000000002
 20
-0.27234
 30
0.0
 10
-1.0641100000000001
 20
-0.3333
 30
0.0
 10
-1.0641100000000001
 20
-0.3333
 30
0.0
 10
-1.0641100000000001
 20
-0.3333
 30
0.0
 10
-1.03871
 20
-0.3333
 30
0.0
 10
-1.03871
 20
-0.3333
 30
0.0
 10
-1.03871
 20
-0.3333
 30
0.0
 10
-1.03871
 20
-0.3333
 30
0.0
 10
-0.9879100000000001
 20
-0.15296
 30
0.0
 10
-0.9879100000000001
 20
-0.15296
 30
0.0
  0
SPLINE
  5
3B
100
AcDbEntity
  8
Ebene 1
100
AcDbSpline
210
0.0
220
0.0
230
1.0
 70
     1
 71
     3
 72
    12
 73
     8
 74
     0
 42
0.0000000001
 43
0.0000000001
 40
0.0
 40
0.0
 40
0.0
 40
0.0
 40
0.5
 40
0.5
 40
0.5
 40
0.5
 40
1.0
 40
1.0
 40
1.0
 40
1.0
 10
-1.24699
 20
-0.15296
 30
0.0
 10
-1.33843
 20
-0.1809
 30
0.0
 10
-1.1987300000000001
 20
-0.30282
 30
0.0
 10
-1.2419100000000001
 20
-0.3942600000000001
 30
0.0
 10
-1.2419100000000001
 20
-0.3942600000000001
 30
0.0
 10
-1.1860300000000001
 20
-0.3333
 30
0.0
 10
-1.1555500000000001
 20
-0.19614
 30
0.0
 10
-1.24699
 20
-0.15296
 30
0.0
  0
SPLINE
  5
3C
100
AcDbEntity
  8
Ebene 1
 62
     7
100
AcDbSpline
210
0.0
220
0.0
230
1.0
 70
     1
 71
     3
 72
    24
 73
    20
 74
     0
 42
0.0000000001
 43
0.0000000001
 40
0.0
 40
0.0
 40
0.0
 40
0.0
 40
0.2
 40
0.2
 40
0.2
 40
0.2
 40
0.4
 40
0.4
 40
0.4
 40
0.4
 40
0.6000000000000001
 40
0.6000000000000001
 40
0.6000000000000001
 40
0.6000000000000001
 40
0.8
 40
0.8
 40
0.8
 40
0.8
 40
1.0
 40
1.0
 40
1.0
 40
1.0
 10
4.29528
 20
-0.19614
 30
0.0
 10
4.1124000000000001
 20
-0.22662
 30
0.0
 10
3.9219000000000004
 20
-0.19614
 30
0.0
 10
3.7390200000000005
 20
-0.19614
 30
0.0
 10
3.7390200000000005
 20
-0.19614
 30
0.0
 10
3.7390200000000005
 20
-0.19614
 30
0.0
 10
3.5739200000000002
 20
-0.52888
 30
0.0
 10
3.5739200000000002
 20
-0.52888
 30
0.0
 10
3.5739200000000002
 20
-0.52888
 30
0.0
 10
3.7314000000000003
 20
-0.6050800000000001
 30
0.0
 10
3.9066600000000005
 20
-0.7244600000000001
 30
0.0
 10
4.0946199999999999
 20
-0.6660400000000001
 30
0.0
 10
4.0946199999999999
 20
-0.6660400000000001
 30
0.0
 10
4.2063800000000002
 20
-0.5441200000000001
 30
0.0
 10
4.2724200000000003
 20
-0.3942600000000001
 30
0.0
 10
4.3410000000000002
 20
-0.2571
 30
0.0
 10
4.3410000000000002
 20
-0.2571
 30
0.0
 10
4.3410000000000002
 20
-0.2571
 30
0.0
 10
4.29528
 20
-0.19614
 30
0.0
 10
4.29528
 20
-0.19614
 30
0.0
  0
SPLINE
  5
3D
100
AcDbEntity
  8
Ebene 1
100
AcDbSpline
210
0.0
220
0.0
230
1.0
 70
     1
 71
     3
 72
    52
 73
    48
 74
     0
 42
0.0000000001
 43
0.0000000001
 40
0.0
 40
0.0
 40
0.0
 40
0.0
 40
0.0833333333333333
 40
0.0833333333333333
 40
0.0833333333333333
 40
0.0833333333333333
 40
0.1666666666666667
 40
0.1666666666666667
 40
0.1666666666666667
 40
0.1666666666666667
 40
0.25
 40
0.25
 40
0.25
 40
0.25
 40
0.3333333333333333
 40
0.3333333333333333
 40
0.3333333333333333
 40
0.3333333333333333
 40
0.4166666666666666
 40
0.4166666666666666
 40
0.4166666666666666
 40
0.4166666666666666
 40
0.4999999999999999
 40
0.4999999999999999
 40
0.4999999999999999
 40
0.4999999999999999
 40
0.5833333333333333
 40
0.5833333333333333
 40
0.5833333333333333
 40
0.5833333333333333
 40
0.6666666666666666
 40
0.6666666666666666
 40
0.6666666666666666
 40
0.6666666666666666
 40
0.75
 40
0.75
 40
0.75
 40
0.75
 40
0.8333333333333334
 40
0.8333333333333334
 40
0.8333333333333334
 40
0.8333333333333334
 40
0.9166666666666667
 40
0.9166666666666667
 40
0.9166666666666667
 40
0.9166666666666667
 40
1.0
 40
1.0
 40
1.0
 40
1.0
 10
1.0771000000000002
 20
-0.7244600000000001
 30
0.0
 10
1.0491600000000001
 20
-0.7244600000000001
 30
0.0
 10
1.0796400000000002
 20
-0.69652
 30
0.0
 10
1.0771000000000002
 20
-0.7244600000000001
 30
0.0
 10
1.0771000000000002
 20
-0.7244600000000001
 30
0.0
 10
1.19648
 20
-0.80066
 30
0.0
 10
1.2676000000000001
 20
-0.9683000000000001
 30
0.0
 10
1.3895200000000001
 20
-1.0267200000000001
 30
0.0
 10
1.3895200000000001
 20
-1.0267200000000001
 30
0.0
 10
1.3412600000000001
 20
-0.8311400000000001
 30
0.0
 10
1.1355200000000001
 20
-0.69652
 30
0.0
 10
0.9983600000000001
 20
-0.5441200000000001
 30
0.0
 10
0.9983600000000001
 20
-0.5441200000000001
 30
0.0
 10
0.6834
 20
-0.22662
 30
0.0
 10
0.21858
 20
-0.3942600000000001
 30
0.0
 10
-0.08621
 20
-0.63556
 30
0.0
 10
-0.08621
 20
-0.63556
 30
0.0
 10
-0.27671
 20
-0.7244600000000001
 30
0.0
 10
-0.50785
 20
-0.8311400000000001
 30
0.0
 10
-0.71613
 20
-0.7244600000000001
 30
0.0
 10
-0.71613
 20
-0.7244600000000001
 30
0.0
 10
-0.71613
 20
-0.7244600000000001
 30
0.0
 10
-0.7923300000000001
 20
-0.7117600000000001
 30
0.0
 10
-0.7923300000000001
 20
-0.7117600000000001
 30
0.0
 10
-0.7923300000000001
 20
-0.7117600000000001
 30
0.0
 10
-0.86599
 20
-0.7117600000000001
 30
0.0
 10
-0.99299
 20
-0.63556
 30
0.0
 10
-1.03363
 20
-0.7117600000000001
 30
0.0
 10
-1.03363
 20
-0.7117600000000001
 30
0.0
 10
-0.7135900000000001
 20
-0.7854200000000001
 30
0.0
 10
-0.24623
 20
-0.9683000000000001
 30
0.0
 10
-0.18527
 20
-1.3289800000000001
 30
0.0
 10
-0.18527
 20
-1.3289800000000001
 30
0.0
 10
0.13476
 20
-1.42042
 30
0.0
 10
0.4192400000000001
 20
-1.6337800000000002
 30
0.0
 10
0.7596000000000001
 20
-1.6642600000000001
 30
0.0
 10
0.7596000000000001
 20
-1.6642600000000001
 30
0.0
 10
0.9399400000000001
 20
-1.54234
 30
0.0
 10
1.0034400000000001
 20
-1.3137400000000001
 30
0.0
 10
1.0821800000000001
 20
-1.11816
 30
0.0
 10
1.0821800000000001
 20
-1.11816
 30
0.0
 10
1.2117200000000001
 20
-1.1334000000000002
 30
0.0
 10
1.1761600000000001
 20
-1.3899400000000002
 30
0.0
 10
1.2396600000000002
 20
-1.4813800000000001
 30
0.0
 10
1.2396600000000002
 20
-1.4813800000000001
 30
0.0
 10
1.3082400000000001
 20
-1.2096
 30
0.0
 10
1.1177400000000002
 20
-0.9835400000000001
 30
0.0
 10
1.0771000000000002
 20
-0.7244600000000001
 30
0.0
  0
SPLINE
  5
3E
100
AcDbEntity
  8
Ebene 1
 62
     7
100
AcDbSpline
210
0.0
220
0.0
230
1.0
 70
     1
 71
     3
 72
    12
 73
     8
 74
     0
 42
0.0000000001
 43
0.0000000001
 40
0.0
 40
0.0
 40
0.0
 40
0.0
 40
0.5
 40
0.5
 40
0.5
 40
0.5
 40
1.0
 40
1.0
 40
1.0
 40
1.0
 10
3.3885000000000001
 20
-0.5746
 30
0.0
 10
3.3097600000000003
 20
-0.5746
 30
0.0
 10
3.2970600000000001
 20
-0.7117600000000001
 30
0.0
 10
3.3173800000000004
 20
-0.7701800000000001
 30
0.0
 10
3.3173800000000004
 20
-0.7701800000000001
 30
0.0
 10
3.3808800000000003
 20
-0.7244600000000001
 30
0.0
 10
3.4113600000000002
 20
-0.63556
 30
0.0
 10
3.3885000000000001
 20
-0.5746
 30
0.0
  0
SPLINE
  5
3F
100
AcDbEntity
  8
Ebene 1
 62
     7
100
AcDbSpline
210
0.0
220
0.0
230
1.0
 70
     1
 71
     3
 72
    40
 73
    36
 74
     0
 42
0.0000000001
 43
0.0000000001
 40
0.0
 40
0.0
 40
0.0
 40
0.0
 40
0.1111111111111111
 40
0.1111111111111111
 40
0.1111111111111111
 40
0.1111111111111111
 40
0.2222222222222222
 40
0.2222222222222222
 40
0.2222222222222222
 40
0.2222222222222222
 40
0.3333333333333333
 40
0.3333333333333333
 40
0.3333333333333333
 40
0.3333333333333333
 40
0.4444444444444444
 40
0.4444444444444444
 40
0.4444444444444444
 40
0.4444444444444444
 40
0.5555555555555556
 40
0.5555555555555556
 40
0.5555555555555556
 40
0.5555555555555556
 40
0.6666666666666667
 40
0.6666666666666667
 40
0.6666666666666667
 40
0.6666666666666667
 40
0.7777777777777779
 40
0.7777777777777779
 40
0.7777777777777779
 40
0.7777777777777779
 40
0.8888888888888891
 40
0.8888888888888891
 40
0.8888888888888891
 40
0.8888888888888891
 40
1.0
 40
1.0
 40
1.0
 40
1.0
 10
3.5561400000000001
 20
-0.6812800000000001
 30
0.0
 10
3.4875600000000002
 20
-0.7117600000000001
 30
0.0
 10
3.4570800000000004
 20
-0.8159000000000001
 30
0.0
 10
3.4164400000000001
 20
-0.8921000000000001
 30
0.0
 10
3.4164400000000001
 20
-0.8921000000000001
 30
0.0
 10
3.3554800000000005
 20
-0.9530600000000001
 30
0.0
 10
3.2818200000000002
 20
-0.9683000000000001
 30
0.0
 10
3.2107000000000001
 20
-0.90734
 30
0.0
 10
3.2107000000000001
 20
-0.90734
 30
0.0
 10
3.0405200000000003
 20
-1.11816
 30
0.0
 10
2.97194
 20
-1.3594600000000001
 30
0.0
 10
3.0125800000000003
 20
-1.6185400000000001
 30
0.0
 10
3.0125800000000003
 20
-1.6185400000000001
 30
0.0
 10
3.0125800000000003
 20
-1.6185400000000001
 30
0.0
 10
2.5731600000000001
 20
-2.6294600000000004
 30
0.0
 10
2.5731600000000001
 20
-2.6294600000000004
 30
0.0
 10
2.5731600000000001
 20
-2.6294600000000004
 30
0.0
 10
2.4944200000000003
 20
-2.4923000000000002
 30
0.0
 10
2.50204
 20
-2.2967200000000001
 30
0.0
 10
2.4969600000000001
 20
-2.1316200000000003
 30
0.0
 10
2.4969600000000001
 20
-2.1316200000000003
 30
0.0
 10
2.5503
 20
-2.0554200000000002
 30
0.0
 10
2.6595200000000001
 20
-1.7836400000000001
 30
0.0
 10
2.5401400000000001
 20
-1.9792200000000002
 30
0.0
 10
2.5401400000000001
 20
-1.9792200000000002
 30
0.0
 10
2.3928200000000004
 20
-2.19258
 30
0.0
 10
2.3902800000000002
 20
-2.4923000000000002
 30
0.0
 10
2.3801200000000002
 20
-2.7513800000000002
 30
0.0
 10
2.3801200000000002
 20
-2.7513800000000002
 30
0.0
 10
3.2919800000000001
 20
-2.69042
 30
0.0
 10
3.9930200000000005
 20
-1.7836400000000001
 30
0.0
 10
3.9727000000000001
 20
-0.8768600000000001
 30
0.0
 10
3.9727000000000001
 20
-0.8768600000000001
 30
0.0
 10
3.9727000000000001
 20
-0.8768600000000001
 30
0.0
 10
3.5561400000000001
 20
-0.6812800000000001
 30
0.0
 10
3.5561400000000001
 20
-0.6812800000000001
 30
0.0
  0
SPLINE
  5
40
100
AcDbEntity
  8
Ebene 1
 62
     7
100
AcDbSpline
210
0.0
220
0.0
230
1.0
 70
     1
 71
     3
 72
     8
 73
     4
 74
     0
 42
0.0000000001
 43
0.0000000001
 40
0.0
 40
0.0
 40
0.0
 40
0.0
 40
1.0
 40
1.0
 40
1.0
 40
1.0
 10
1.0771000000000002
 20
-0.7244600000000001
 30
0.0
 10
1.0796400000000002
 20
-0.69652
 30
0.0
 10
1.0491600000000001
 20
-0.7244600000000001
 30
0.0
 10
1.0771000000000002
 20
-0.7244600000000001
 30
0.0
  0
SPLINE
  5
41
100
AcDbEntity
  8
Ebene 1
 62
     7
100
AcDbSpline
210
0.0
220
0.0
230
1.0
 70
     1
 71
     3
 72
    12
 73
     8
 74
     0
 42
0.0000000001
 43
0.0000000001
 40
0.0
 40
0.0
 40
0.0
 40
0.0
 40
0.5
 40
0.5
 40
0.5
 40
0.5
 40
1.0
 40
1.0
 40
1.0
 40
1.0
 10
-1.9099300000000001
 20
-0.8159000000000001
 30
0.0
 10
-1.9150100000000001
 20
-0.9225800000000001
 30
0.0
 10
-1.9200900000000001
 20
-1.08768
 30
0.0
 10
-1.8642100000000001
 20
-1.1943600000000001
 30
0.0
 10
-1.8642100000000001
 20
-1.1943600000000001
 30
0.0
 10
-1.7956300000000001
 20
-1.08768
 30
0.0
 10
-1.8743700000000001
 20
-0.9378200000000001
 30
0.0
 10
-1.9099300000000001
 20
-0.8159000000000001
 30
0.0
  0
SPLINE
  5
42
100
AcDbEntity
  8
Ebene 1
 62
     7
100
AcDbSpline
210
0.0
220
0.0
230
1.0
 70
     1
 71
     3
 72
    16
 73
    12
 74
     0
 42
0.0000000001
 43
0.0000000001
 40
0.0
 40
0.0
 40
0.0
 40
0.0
 40
0.3333333333333333
 40
0.3333333333333333
 40
0.3333333333333333
 40
0.3333333333333333
 40
0.6666666666666666
 40
0.6666666666666666
 40
0.6666666666666666
 40
0.6666666666666666
 40
1.0
 40
1.0
 40
1.0
 40
1.0
 10
0.5030600000000001
 20
-0.8616200000000001
 30
0.0
 10
0.39384
 20
-0.8616200000000001
 30
0.0
 10
0.24652
 20
-0.90734
 30
0.0
 10
0.19064
 20
-0.9962400000000001
 30
0.0
 10
0.19064
 20
-0.9962400000000001
 30
0.0
 10
0.32272
 20
-1.0267200000000001
 30
0.0
 10
0.43448
 20
-0.9378200000000001
 30
0.0
 10
0.53354
 20
-0.8921000000000001
 30
0.0
 10
0.53354
 20
-0.8921000000000001
 30
0.0
 10
0.53354
 20
-0.8921000000000001
 30
0.0
 10
0.5030600000000001
 20
-0.8616200000000001
 30
0.0
 10
0.5030600000000001
 20
-0.8616200000000001
 30
0.0
  0
SPLINE
  5
43
100
AcDbEntity
  8
Ebene 1
 62
     7
100
AcDbSpline
210
0.0
220
0.0
230
1.0
 70
     1
 71
     3
 72
    20
 73
    16
 74
     0
 42
0.0000000001
 43
0.0000000001
 40
0.0
 40
0.0
 40
0.0
 40
0.0
 40
0.25
 40
0.25
 40
0.25
 40
0.25
 40
0.5
 40
0.5
 40
0.5
 40
0.5
 40
0.75
 40
0.75
 40
0.75
 40
0.75
 40
1.0
 40
1.0
 40
1.0
 40
1.0
 10
2.1058000000000003
 20
-1.11816
 30
0.0
 10
2.1058000000000003
 20
-1.11816
 30
0.0
 10
2.0169000000000001
 20
-1.11816
 30
0.0
 10
2.0169000000000001
 20
-1.11816
 30
0.0
 10
2.0169000000000001
 20
-1.11816
 30
0.0
 10
1.9584800000000002
 20
-1.4051800000000001
 30
0.0
 10
1.8797400000000002
 20
-1.7531600000000001
 30
0.0
 10
1.9940400000000003
 20
-2.0401800000000003
 30
0.0
 10
1.9940400000000003
 20
-2.0401800000000003
 30
0.0
 10
2.0143600000000004
 20
-1.7379200000000001
 30
0.0
 10
2.0219800000000001
 20
-1.4356600000000002
 30
0.0
 10
2.1312000000000002
 20
-1.16388
 30
0.0
 10
2.1312000000000002
 20
-1.16388
 30
0.0
 10
2.1312000000000002
 20
-1.16388
 30
0.0
 10
2.1058000000000003
 20
-1.11816
 30
0.0
 10
2.1058000000000003
 20
-1.11816
 30
0.0
  0
SPLINE
  5
44
100
AcDbEntity
  8
Ebene 1
 62
     7
100
AcDbSpline
210
0.0
220
0.0
230
1.0
 70
     1
 71
     3
 72
    28
 73
    24
 74
     0
 42
0.0000000001
 43
0.0000000001
 40
0.0
 40
0.0
 40
0.0
 40
0.0
 40
0.1666666666666667
 40
0.1666666666666667
 40
0.1666666666666667
 40
0.1666666666666667
 40
0.3333333333333333
 40
0.3333333333333333
 40
0.3333333333333333
 40
0.3333333333333333
 40
0.5
 40
0.5
 40
0.5
 40
0.5
 40
0.6666666666666666
 40
0.6666666666666666
 40
0.6666666666666666
 40
0.6666666666666666
 40
0.8333333333333333
 40
0.8333333333333333
 40
0.8333333333333333
 40
0.8333333333333333
 40
1.0
 40
1.0
 40
1.0
 40
1.0
 10
2.4537800000000001
 20
-1.2248400000000002
 30
0.0
 10
2.3572600000000001
 20
-1.3289800000000001
 30
0.0
 10
2.37758
 20
-1.5118600000000002
 30
0.0
 10
2.30138
 20
-1.6490200000000002
 30
0.0
 10
2.30138
 20
-1.6490200000000002
 30
0.0
 10
2.30138
 20
-1.6490200000000002
 30
0.0
 10
2.3471000000000002
 20
-1.7074400000000001
 30
0.0
 10
2.3471000000000002
 20
-1.7074400000000001
 30
0.0
 10
2.3471000000000002
 20
-1.7074400000000001
 30
0.0
 10
2.1870800000000004
 20
-1.7988800000000003
 30
0.0
 10
2.2556600000000002
 20
-2.10114
 30
0.0
 10
2.2734400000000003
 20
-2.2510000000000003
 30
0.0
 10
2.2734400000000003
 20
-2.2510000000000003
 30
0.0
 10
2.2734400000000003
 20
-2.2510000000000003
 30
0.0
 10
2.3166200000000003
 20
-2.1468600000000002
 30
0.0
 10
2.3166200000000003
 20
-2.1468600000000002
 30
0.0
 10
2.3166200000000003
 20
-2.1468600000000002
 30
0.0
 10
2.3191600000000001
 20
-2.1163800000000004
 30
0.0
 10
2.3064600000000004
 20
-2.0706600000000002
 30
0.0
 10
2.3318600000000003
 20
-2.0401800000000003
 30
0.0
 10
2.3318600000000003
 20
-2.0401800000000003
 30
0.0
 10
2.2404200000000003
 20
-1.7379200000000001
 30
0.0
 10
2.7331800000000004
 20
-1.4509000000000001
 30
0.0
 10
2.4537800000000001
 20
-1.2248400000000002
 30
0.0
  0
SPLINE
  5
45
100
AcDbEntity
  8
Ebene 1
 62
     7
100
AcDbSpline
210
0.0
220
0.0
230
1.0
 70
     1
 71
     3
 72
    20
 73
    16
 74
     0
 42
0.0000000001
 43
0.0000000001
 40
0.0
 40
0.0
 40
0.0
 40
0.0
 40
0.25
 40
0.25
 40
0.25
 40
0.25
 40
0.5
 40
0.5
 40
0.5
 40
0.5
 40
0.75
 40
0.75
 40
0.75
 40
0.75
 40
1.0
 40
1.0
 40
1.0
 40
1.0
 10
-1.8642100000000001
 20
-1.2985000000000002
 30
0.0
 10
-1.8642100000000001
 20
-1.2985000000000002
 30
0.0
 10
-1.8946900000000002
 20
-1.3442200000000002
 30
0.0
 10
-1.8946900000000002
 20
-1.3442200000000002
 30
0.0
 10
-1.8946900000000002
 20
-1.3442200000000002
 30
0.0
 10
-1.8616700000000002
 20
-1.5271000000000001
 30
0.0
 10
-1.9353300000000002
 20
-1.7988800000000003
 30
0.0
 10
-1.7194300000000002
 20
-1.8903200000000002
 30
0.0
 10
-1.7194300000000002
 20
-1.8903200000000002
 30
0.0
 10
-1.6483100000000002
 20
-1.7531600000000001
 30
0.0
 10
-1.6457700000000002
 20
-1.58806
 30
0.0
 10
-1.6127500000000001
 20
-1.4356600000000002
 30
0.0
 10
-1.6127500000000001
 20
-1.4356600000000002
 30
0.0
 10
-1.7194300000000002
 20
-1.4966200000000001
 30
0.0
 10
-1.8210300000000001
 20
-1.3899400000000002
 30
0.0
 10
-1.8642100000000001
 20
-1.2985000000000002
 30
0.0
  0
SPLINE
  5
46
100
AcDbEntity
  8
Ebene 1
 62
     7
100
AcDbSpline
210
0.0
220
0.0
230
1.0
 70
     1
 71
     3
 72
    24
 73
    20
 74
     0
 42
0.0000000001
 43
0.0000000001
 40
0.0
 40
0.0
 40
0.0
 40
0.0
 40
0.2
 40
0.2
 40
0.2
 40
0.2
 40
0.4
 40
0.4
 40
0.4
 40
0.4
 40
0.6000000000000001
 40
0.6000000000000001
 40
0.6000000000000001
 40
0.6000000000000001
 40
0.8
 40
0.8
 40
0.8
 40
0.8
 40
1.0
 40
1.0
 40
1.0
 40
1.0
 10
2.8601800000000002
 20
-1.4813800000000001
 30
0.0
 10
2.8322400000000001
 20
-1.5575800000000002
 30
0.0
 10
2.7306400000000002
 20
-1.6922000000000001
 30
0.0
 10
2.7839800000000001
 20
-1.7684000000000002
 30
0.0
 10
2.7839800000000001
 20
-1.7684000000000002
 30
0.0
 10
2.6950800000000004
 20
-1.8750800000000001
 30
0.0
 10
2.7027000000000001
 20
-2.02494
 30
0.0
 10
2.6036400000000004
 20
-2.1316200000000003
 30
0.0
 10
2.6036400000000004
 20
-2.1316200000000003
 30
0.0
 10
2.6036400000000004
 20
-2.1316200000000003
 30
0.0
 10
2.6214200000000001
 20
-2.2662400000000003
 30
0.0
 10
2.6214200000000001
 20
-2.2662400000000003
 30
0.0
 10
2.6214200000000001
 20
-2.2662400000000003
 30
0.0
 10
2.7281000000000004
 20
-2.0401800000000003
 30
0.0
 10
2.8652600000000001
 20
-1.8141200000000002
 30
0.0
 10
2.9059000000000004
 20
-1.5575800000000002
 30
0.0
 10
2.9059000000000004
 20
-1.5575800000000002
 30
0.0
 10
2.9059000000000004
 20
-1.5575800000000002
 30
0.0
 10
2.8601800000000002
 20
-1.4813800000000001
 30
0.0
 10
2.8601800000000002
 20
-1.4813800000000001
 30
0.0
  0
SPLINE
  5
47
100
AcDbEntity
  8
Ebene 1
100
AcDbSpline
210
0.0
220
0.0
230
1.0
 70
     1
 71
     3
 72
    20
 73
    16
 74
     0
 42
0.0000000001
 43
0.0000000001
 40
0.0
 40
0.0
 40
0.0
 40
0.0
 40
0.25
 40
0.25
 40
0.25
 40
0.25
 40
0.5
 40
0.5
 40
0.5
 40
0.5
 40
0.75
 40
0.75
 40
0.75
 40
0.75
 40
1.0
 40
1.0
 40
1.0
 40
1.0
 10
-0.34021
 20
-1.5271000000000001
 30
0.0
 10
-0.34021
 20
-1.5271000000000001
 30
0.0
 10
-0.38339
 20
-1.5271000000000001
 30
0.0
 10
-0.38339
 20
-1.5271000000000001
 30
0.0
 10
-0.38339
 20
-1.5271000000000001
 30
0.0
 10
-0.38339
 20
-1.5271000000000001
 30
0.0
 10
-0.33767
 20
-1.7379200000000001
 30
0.0
 10
-0.33767
 20
-1.7379200000000001
 30
0.0
 10
-0.33767
 20
-1.7379200000000001
 30
0.0
 10
-0.23099
 20
-1.7988800000000003
 30
0.0
 10
-0.20813
 20
-1.9792200000000002
 30
0.0
 10
-0.08621
 20
-1.9944600000000001
 30
0.0
 10
-0.08621
 20
-1.9944600000000001
 30
0.0
 10
-0.14209
 20
-1.8293600000000001
 30
0.0
 10
-0.23099
 20
-1.6642600000000001
 30
0.0
 10
-0.34021
 20
-1.5271000000000001
 30
0.0
  0
SPLINE
  5
48
100
AcDbEntity
  8
Ebene 1
 62
     7
100
AcDbSpline
210
0.0
220
0.0
230
1.0
 70
     1
 71
     3
 72
    16
 73
    12
 74
     0
 42
0.0000000001
 43
0.0000000001
 40
0.0
 40
0.0
 40
0.0
 40
0.0
 40
0.3333333333333333
 40
0.3333333333333333
 40
0.3333333333333333
 40
0.3333333333333333
 40
0.6666666666666666
 40
0.6666666666666666
 40
0.6666666666666666
 40
0.6666666666666666
 40
1.0
 40
1.0
 40
1.0
 40
1.0
 10
2.16676
 20
-1.7074400000000001
 30
0.0
 10
2.16676
 20
-1.7074400000000001
 30
0.0
 10
2.0778600000000003
 20
-1.7379200000000001
 30
0.0
 10
2.0778600000000003
 20
-1.7379200000000001
 30
0.0
 10
2.0778600000000003
 20
-1.7379200000000001
 30
0.0
 10
2.0778600000000003
 20
-1.9360400000000002
 30
0.0
 10
2.0346800000000003
 20
-2.1773400000000001
 30
0.0
 10
2.09056
 20
-2.3729200000000001
 30
0.0
 10
2.09056
 20
-2.3729200000000001
 30
0.0
 10
2.1388200000000004
 20
-2.1773400000000001
 30
0.0
 10
2.20486
 20
-1.9360400000000002
 30
0.0
 10
2.16676
 20
-1.7074400000000001
 30
0.0
  0
SPLINE
  5
49
100
AcDbEntity
  8
Ebene 1
 62
     7
100
AcDbSpline
210
0.0
220
0.0
230
1.0
 70
     1
 71
     3
 72
    44
 73
    40
 74
     0
 42
0.0000000001
 43
0.0000000001
 40
0.0
 40
0.0
 40
0.0
 40
0.0
 40
0.1
 40
0.1
 40
0.1
 40
0.1
 40
0.2
 40
0.2
 40
0.2
 40
0.2
 40
0.3
 40
0.3
 40
0.3
 40
0.3
 40
0.4
 40
0.4
 40
0.4
 40
0.4
 40
0.5
 40
0.5
 40
0.5
 40
0.5
 40
0.6
 40
0.6
 40
0.6
 40
0.6
 40
0.7
 40
0.7
 40
0.7
 40
0.7
 40
0.7999999999999999
 40
0.7999999999999999
 40
0.7999999999999999
 40
0.7999999999999999
 40
0.8999999999999999
 40
0.8999999999999999
 40
0.8999999999999999
 40
0.8999999999999999
 40
1.0
 40
1.0
 40
1.0
 40
1.0
 10
1.8645
 20
-1.7379200000000001
 30
0.0
 10
1.6714600000000002
 20
-1.7379200000000001
 30
0.0
 10
1.8797400000000002
 20
-1.9944600000000001
 30
0.0
 10
1.7832200000000002
 20
-2.1163800000000004
 30
0.0
 10
1.7832200000000002
 20
-2.1163800000000004
 30
0.0
 10
1.7070200000000002
 20
-2.0732000000000004
 30
0.0
 10
1.7552800000000002
 20
-1.8725400000000001
 30
0.0
 10
1.6435200000000001
 20
-1.8268200000000001
 30
0.0
 10
1.6435200000000001
 20
-1.8268200000000001
 30
0.0
 10
1.6435200000000001
 20
-1.8268200000000001
 30
0.0
 10
1.6638400000000002
 20
-2.10114
 30
0.0
 10
1.6638400000000002
 20
-2.10114
 30
0.0
 10
1.6638400000000002
 20
-2.10114
 30
0.0
 10
1.6638400000000002
 20
-2.10114
 30
0.0
 10
1.8289400000000002
 20
-2.4034
 30
0.0
 10
1.8289400000000002
 20
-2.4034
 30
0.0
 10
1.8289400000000002
 20
-2.4034
 30
0.0
 10
1.8289400000000002
 20
-2.4034
 30
0.0
 10
1.6917800000000001
 20
-2.2662400000000003
 30
0.0
 10
1.6917800000000001
 20
-2.2662400000000003
 30
0.0
 10
1.6917800000000001
 20
-2.2662400000000003
 30
0.0
 10
1.6917800000000001
 20
-2.2662400000000003
 30
0.0
 10
1.5800200000000002
 20
-2.3272000000000004
 30
0.0
 10
1.5800200000000002
 20
-2.3272000000000004
 30
0.0
 10
1.5800200000000002
 20
-2.3272000000000004
 30
0.0
 10
1.6028800000000001
 20
-2.5532600000000003
 30
0.0
 10
1.9178400000000002
 20
-2.6447000000000003
 30
0.0
 10
2.08548
 20
-2.7640800000000003
 30
0.0
 10
2.08548
 20
-2.7640800000000003
 30
0.0
 10
2.0626200000000003
 20
-2.6751800000000001
 30
0.0
 10
2.16676
 20
-2.3272000000000004
 30
0.0
 10
2.0296000000000003
 20
-2.4643600000000001
 30
0.0
 10
2.0296000000000003
 20
-2.4643600000000001
 30
0.0
 10
2.0296000000000003
 20
-2.4643600000000001
 30
0.0
 10
1.9864200000000001
 20
-2.4186400000000003
 30
0.0
 10
1.9864200000000001
 20
-2.4186400000000003
 30
0.0
 10
1.9864200000000001
 20
-2.4186400000000003
 30
0.0
 10
1.9991200000000002
 20
-2.1773400000000001
 30
0.0
 10
1.8848200000000002
 20
-1.9639800000000001
 30
0.0
 10
1.8645
 20
-1.7379200000000001
 30
0.0
  0
SPLINE
  5
4A
100
AcDbEntity
  8
Ebene 1
 62
     7
100
AcDbSpline
210
0.0
220
0.0
230
1.0
 70
     1
 71
     3
 72
    16
 73
    12
 74
     0
 42
0.0000000001
 43
0.0000000001
 40
0.0
 40
0.0
 40
0.0
 40
0.0
 40
0.3333333333333333
 40
0.3333333333333333
 40
0.3333333333333333
 40
0.3333333333333333
 40
0.6666666666666666
 40
0.6666666666666666
 40
0.6666666666666666
 40
0.6666666666666666
 40
1.0
 40
1.0
 40
1.0
 40
1.0
 10
-0.09637
 20
-2.31196
 30
0.0
 10
-0.15987
 20
-2.4034
 30
0.0
 10
-0.12685
 20
-2.5837400000000001
 30
0.0
 10
-0.07859
 20
-2.69042
 30
0.0
 10
-0.07859
 20
-2.69042
 30
0.0
 10
-0.07859
 20
-2.69042
 30
0.0
 10
-0.02779
 20
-2.69042
 30
0.0
 10
-0.02779
 20
-2.69042
 30
0.0
 10
-0.02779
 20
-2.69042
 30
0.0
 10
-0.02779
 20
-2.69042
 30
0.0
 10
-0.09637
 20
-2.31196
 30
0.0
 10
-0.09637
 20
-2.31196
 30
0.0
  0
SPLINE
  5
4B
100
AcDbEntity
  8
Ebene 1
 62
     7
100
AcDbSpline
210
0.0
220
0.0
230
1.0
 70
     1
 71
     3
 72
    16
 73
    12
 74
     0
 42
0.0000000001
 43
0.0000000001
 40
0.0
 40
0.0
 40
0.0
 40
0.0
 40
0.3333333333333333
 40
0.3333333333333333
 40
0.3333333333333333
 40
0.3333333333333333
 40
0.6666666666666666
 40
0.6666666666666666
 40
0.6666666666666666
 40
0.6666666666666666
 40
1.0
 40
1.0
 40
1.0
 40
1.0
 10
-0.24877
 20
-2.3424400000000003
 30
0.0
 10
-0.34021
 20
-2.3881600000000001
 30
0.0
 10
-0.33005
 20
-2.6142200000000004
 30
0.0
 10
-0.27925
 20
-2.69042
 30
0.0
 10
-0.27925
 20
-2.69042
 30
0.0
 10
-0.27925
 20
-2.69042
 30
0.0
 10
-0.20813
 20
-2.6751800000000001
 30
0.0
 10
-0.20813
 20
-2.6751800000000001
 30
0.0
 10
-0.20813
 20
-2.6751800000000001
 30
0.0
 10
-0.20813
 20
-2.6751800000000001
 30
0.0
 10
-0.24877
 20
-2.3424400000000003
 30
0.0
 10
-0.24877
 20
-2.3424400000000003
 30
0.0
  0
SPLINE
  5
4C
100
AcDbEntity
  8
Ebene 1
 62
     7
100
AcDbSpline
210
0.0
220
0.0
230
1.0
 70
     1
 71
     3
 72
    12
 73
     8
 74
     0
 42
0.0000000001
 43
0.0000000001
 40
0.0
 40
0.0
 40
0.0
 40
0.0
 40
0.5
 40
0.5
 40
0.5
 40
0.5
 40
1.0
 40
1.0
 40
1.0
 40
1.0
 10
0.05094
 20
-2.3729200000000001
 30
0.0
 10
0.01792
 20
-2.4491200000000002
 30
0.0
 10
0.05348
 20
-2.5685000000000002
 30
0.0
 10
0.12206
 20
-2.6294600000000004
 30
0.0
 10
0.12206
 20
-2.6294600000000004
 30
0.0
 10
0.13984
 20
-2.5532600000000003
 30
0.0
 10
0.10428
 20
-2.4338800000000003
 30
0.0
 10
0.05094
 20
-2.3729200000000001
 30
0.0
  0
SPLINE
  5
4D
100
AcDbEntity
  8
Ebene 1
 62
     7
100
AcDbSpline
210
0.0
220
0.0
230
1.0
 70
     1
 71
     3
 72
    16
 73
    12
 74
     0
 42
0.0000000001
 43
0.0000000001
 40
0.0
 40
0.0
 40
0.0
 40
0.0
 40
0.3333333333333333
 40
0.3333333333333333
 40
0.3333333333333333
 40
0.3333333333333333
 40
0.6666666666666666
 40
0.6666666666666666
 40
0.6666666666666666
 40
0.6666666666666666
 40
1.0
 40
1.0
 40
1.0
 40
1.0
 10
-1.0183900000000001
 20
-2.3729200000000001
 30
0.0
 10
-1.04633
 20
-2.3729200000000001
 30
0.0
 10
-1.0590300000000001
 20
-2.3881600000000001
 30
0.0
 10
-1.07681
 20
-2.4034
 30
0.0
 10
-1.07681
 20
-2.4034
 30
0.0
 10
-1.0945900000000002
 20
-2.6142200000000004
 30
0.0
 10
-1.1022100000000001
 20
-2.8250400000000004
 30
0.0
 10
-1.0615700000000001
 20
-3.0358600000000004
 30
0.0
 10
-1.0615700000000001
 20
-3.0358600000000004
 30
0.0
 10
-0.9701300000000001
 20
-2.8402800000000004
 30
0.0
 10
-0.9879100000000001
 20
-2.5989800000000001
 30
0.0
 10
-1.0183900000000001
 20
-2.3729200000000001
 30
0.0
  0
SPLINE
  5
4E
100
AcDbEntity
  8
Ebene 1
 62
     7
100
AcDbSpline
210
0.0
220
0.0
230
1.0
 70
     1
 71
     3
 72
    12
 73
     8
 74
     0
 42
0.0000000001
 43
0.0000000001
 40
0.0
 40
0.0
 40
0.0
 40
0.0
 40
0.5
 40
0.5
 40
0.5
 40
0.5
 40
1.0
 40
1.0
 40
1.0
 40
1.0
 10
2.2124800000000002
 20
-2.4491200000000002
 30
0.0
 10
2.1362800000000002
 20
-2.69042
 30
0.0
 10
2.2378800000000001
 20
-2.9469600000000002
 30
0.0
 10
2.3115400000000004
 20
-3.1730200000000002
 30
0.0
 10
2.3115400000000004
 20
-3.1730200000000002
 30
0.0
 10
2.3115400000000004
 20
-3.1730200000000002
 30
0.0
 10
2.2124800000000002
 20
-2.4491200000000002
 30
0.0
 10
2.2124800000000002
 20
-2.4491200000000002
 30
0.0
  0
SPLINE
  5
4F
100
AcDbEntity
  8
Ebene 1
 62
     7
100
AcDbSpline
210
0.0
220
0.0
230
1.0
 70
     1
 71
     3
 72
    12
 73
     8
 74
     0
 42
0.0000000001
 43
0.0000000001
 40
0.0
 40
0.0
 40
0.0
 40
0.0
 40
0.5
 40
0.5
 40
0.5
 40
0.5
 40
1.0
 40
1.0
 40
1.0
 40
1.0
 10
-0.63993
 20
-2.5532600000000003
 30
0.0
 10
-0.80249
 20
-2.7056600000000004
 30
0.0
 10
-0.6932700000000001
 20
-3.0079200000000004
 30
0.0
 10
-0.63231
 20
-3.2035000000000005
 30
0.0
 10
-0.63231
 20
-3.2035000000000005
 30
0.0
 10
-0.63993
 20
-3.0079200000000004
 30
0.0
 10
-0.54849
 20
-2.7513800000000002
 30
0.0
 10
-0.63993
 20
-2.5532600000000003
 30
0.0
  0
SPLINE
  5
50
100
AcDbEntity
  8
Ebene 1
 62
     7
100
AcDbSpline
210
0.0
220
0.0
230
1.0
 70
     1
 71
     3
 72
    16
 73
    12
 74
     0
 42
0.0000000001
 43
0.0000000001
 40
0.0
 40
0.0
 40
0.0
 40
0.0
 40
0.3333333333333333
 40
0.3333333333333333
 40
0.3333333333333333
 40
0.3333333333333333
 40
0.6666666666666666
 40
0.6666666666666666
 40
0.6666666666666666
 40
0.6666666666666666
 40
1.0
 40
1.0
 40
1.0
 40
1.0
 10
-1.24699
 20
-2.5532600000000003
 30
0.0
 10
-1.4120900000000001
 20
-2.7361400000000002
 30
0.0
 10
-1.4044700000000001
 20
-3.0511000000000004
 30
0.0
 10
-1.37907
 20
-3.2949400000000004
 30
0.0
 10
-1.37907
 20
-3.2949400000000004
 30
0.0
 10
-1.37907
 20
-3.2949400000000004
 30
0.0
 10
-1.2012700000000001
 20
-2.6142200000000004
 30
0.0
 10
-1.2012700000000001
 20
-2.6142200000000004
 30
0.0
 10
-1.2012700000000001
 20
-2.6142200000000004
 30
0.0
 10
-1.2012700000000001
 20
-2.6142200000000004
 30
0.0
 10
-1.24699
 20
-2.5532600000000003
 30
0.0
 10
-1.24699
 20
-2.5532600000000003
 30
0.0
  0
SPLINE
  5
51
100
AcDbEntity
  8
Ebene 1
 62
     7
100
AcDbSpline
210
0.0
220
0.0
230
1.0
 70
     1
 71
     3
 72
    16
 73
    12
 74
     0
 42
0.0000000001
 43
0.0000000001
 40
0.0
 40
0.0
 40
0.0
 40
0.0
 40
0.3333333333333333
 40
0.3333333333333333
 40
0.3333333333333333
 40
0.3333333333333333
 40
0.6666666666666666
 40
0.6666666666666666
 40
0.6666666666666666
 40
0.6666666666666666
 40
1.0
 40
1.0
 40
1.0
 40
1.0
 10
-1.5187700000000002
 20
-2.5685000000000002
 30
0.0
 10
-1.6356100000000002
 20
-2.7513800000000002
 30
0.0
 10
-1.63053
 20
-3.0511000000000004
 30
0.0
 10
-1.6051300000000002
 20
-3.2949400000000004
 30
0.0
 10
-1.6051300000000002
 20
-3.2949400000000004
 30
0.0
 10
-1.5136900000000002
 20
-3.0815800000000002
 30
0.0
 10
-1.5568700000000002
 20
-2.8250400000000004
 30
0.0
 10
-1.4882900000000001
 20
-2.6142200000000004
 30
0.0
 10
-1.4882900000000001
 20
-2.6142200000000004
 30
0.0
 10
-1.4882900000000001
 20
-2.6142200000000004
 30
0.0
 10
-1.5187700000000002
 20
-2.5685000000000002
 30
0.0
 10
-1.5187700000000002
 20
-2.5685000000000002
 30
0.0
  0
SPLINE
  5
52
100
AcDbEntity
  8
Ebene 1
 62
     7
100
AcDbSpline
210
0.0
220
0.0
230
1.0
 70
     1
 71
     3
 72
    12
 73
     8
 74
     0
 42
0.0000000001
 43
0.0000000001
 40
0.0
 40
0.0
 40
0.0
 40
0.0
 40
0.5
 40
0.5
 40
0.5
 40
0.5
 40
1.0
 40
1.0
 40
1.0
 40
1.0
 10
-0.8380500000000001
 20
-2.6294600000000004
 30
0.0
 10
-0.91171
 20
-2.7209000000000003
 30
0.0
 10
-0.97267
 20
-2.90124
 30
0.0
 10
-0.8990100000000001
 20
-3.0079200000000004
 30
0.0
 10
-0.8990100000000001
 20
-3.0079200000000004
 30
0.0
 10
-0.86599
 20
-2.90124
 30
0.0
 10
-0.8126500000000001
 20
-2.7513800000000002
 30
0.0
 10
-0.8380500000000001
 20
-2.6294600000000004
 30
0.0
  0
SPLINE
  5
53
100
AcDbEntity
  8
Ebene 1
 62
     7
100
AcDbSpline
210
0.0
220
0.0
230
1.0
 70
     1
 71
     3
 72
    12
 73
     8
 74
     0
 42
0.0000000001
 43
0.0000000001
 40
0.0
 40
0.0
 40
0.0
 40
0.0
 40
0.5
 40
0.5
 40
0.5
 40
0.5
 40
1.0
 40
1.0
 40
1.0
 40
1.0
 10
0.15762
 20
-2.69042
 30
0.0
 10
0.07126
 20
-2.7513800000000002
 30
0.0
 10
0.14492
 20
-2.90124
 30
0.0
 10
0.18302
 20
-2.9774400000000001
 30
0.0
 10
0.18302
 20
-2.9774400000000001
 30
0.0
 10
0.18302
 20
-2.9774400000000001
 30
0.0
 10
0.15762
 20
-2.69042
 30
0.0
 10
0.15762
 20
-2.69042
 30
0.0
  0
SPLINE
  5
54
100
AcDbEntity
  8
Ebene 1
 62
     7
100
AcDbSpline
210
0.0
220
0.0
230
1.0
 70
     1
 71
     3
 72
    16
 73
    12
 74
     0
 42
0.0000000001
 43
0.0000000001
 40
0.0
 40
0.0
 40
0.0
 40
0.0
 40
0.3333333333333333
 40
0.3333333333333333
 40
0.3333333333333333
 40
0.3333333333333333
 40
0.6666666666666666
 40
0.6666666666666666
 40
0.6666666666666666
 40
0.6666666666666666
 40
1.0
 40
1.0
 40
1.0
 40
1.0
 10
-0.39863
 20
-2.7056600000000004
 30
0.0
 10
-0.5459500000000001
 20
-2.7945600000000002
 30
0.0
 10
-0.41133
 20
-3.0079200000000004
 30
0.0
 10
-0.3757700000000001
 20
-3.11206
 30
0.0
 10
-0.3757700000000001
 20
-3.11206
 30
0.0
 10
-0.3757700000000001
 20
-3.11206
 30
0.0
 10
-0.35545
 20
-3.0815800000000002
 30
0.0
 10
-0.35545
 20
-3.0815800000000002
 30
0.0
 10
-0.35545
 20
-3.0815800000000002
 30
0.0
 10
-0.3960900000000001
 20
-2.9622000000000002
 30
0.0
 10
-0.29449
 20
-2.8098000000000001
 30
0.0
 10
-0.39863
 20
-2.7056600000000004
 30
0.0
  0
SPLINE
  5
55
100
AcDbEntity
  8
Ebene 1
 62
     7
100
AcDbSpline
210
0.0
220
0.0
230
1.0
 70
     1
 71
     3
 72
    16
 73
    12
 74
     0
 42
0.0000000001
 43
0.0000000001
 40
0.0
 40
0.0
 40
0.0
 40
0.0
 40
0.3333333333333333
 40
0.3333333333333333
 40
0.3333333333333333
 40
0.3333333333333333
 40
0.6666666666666666
 40
0.6666666666666666
 40
0.6666666666666666
 40
0.6666666666666666
 40
1.0
 40
1.0
 40
1.0
 40
1.0
 10
0.00522
 20
-2.7361400000000002
 30
0.0
 10
-0.02779
 20
-2.7361400000000002
 30
0.0
 10
-0.05827
 20
-2.7361400000000002
 30
0.0
 10
-0.07859
 20
-2.7640800000000003
 30
0.0
 10
-0.07859
 20
-2.7640800000000003
 30
0.0
 10
-0.06335
 20
-3.0968200000000001
 30
0.0
 10
0.01538
 20
-3.4448000000000003
 30
0.0
 10
0.2008
 20
-3.7165800000000004
 30
0.0
 10
0.2008
 20
-3.7165800000000004
 30
0.0
 10
0.17286
 20
-3.3990800000000001
 30
0.0
 10
0.13476
 20
-3.0358600000000004
 30
0.0
 10
0.00522
 20
-2.7361400000000002
 30
0.0
  0
SPLINE
  5
56
100
AcDbEntity
  8
Ebene 1
 62
     7
100
AcDbSpline
210
0.0
220
0.0
230
1.0
 70
     1
 71
     3
 72
    20
 73
    16
 74
     0
 42
0.0000000001
 43
0.0000000001
 40
0.0
 40
0.0
 40
0.0
 40
0.0
 40
0.25
 40
0.25
 40
0.25
 40
0.25
 40
0.5
 40
0.5
 40
0.5
 40
0.5
 40
0.75
 40
0.75
 40
0.75
 40
0.75
 40
1.0
 40
1.0
 40
1.0
 40
1.0
 10
-0.23353
 20
-2.7361400000000002
 30
0.0
 10
-0.26147
 20
-2.7361400000000002
 30
0.0
 10
-0.26655
 20
-2.7793200000000002
 30
0.0
 10
-0.27925
 20
-2.7945600000000002
 30
0.0
 10
-0.27925
 20
-2.7945600000000002
 30
0.0
 10
-0.27925
 20
-2.7945600000000002
 30
0.0
 10
-0.13193
 20
-3.4448000000000003
 30
0.0
 10
-0.13193
 20
-3.4448000000000003
 30
0.0
 10
-0.13193
 20
-3.4448000000000003
 30
0.0
 10
-0.13193
 20
-3.4448000000000003
 30
0.0
 10
-0.19289
 20
-2.7793200000000002
 30
0.0
 10
-0.19289
 20
-2.7793200000000002
 30
0.0
 10
-0.19289
 20
-2.7793200000000002
 30
0.0
 10
-0.19289
 20
-2.7793200000000002
 30
0.0
 10
-0.23353
 20
-2.7361400000000002
 30
0.0
 10
-0.23353
 20
-2.7361400000000002
 30
0.0
  0
SPLINE
  5
57
100
AcDbEntity
  8
Ebene 1
 62
     7
100
AcDbSpline
210
0.0
220
0.0
230
1.0
 70
     1
 71
     3
 72
    16
 73
    12
 74
     0
 42
0.0000000001
 43
0.0000000001
 40
0.0
 40
0.0
 40
0.0
 40
0.0
 40
0.3333333333333333
 40
0.3333333333333333
 40
0.3333333333333333
 40
0.3333333333333333
 40
0.6666666666666666
 40
0.6666666666666666
 40
0.6666666666666666
 40
0.6666666666666666
 40
1.0
 40
1.0
 40
1.0
 40
1.0
 10
2.2124800000000002
 20
-3.11206
 30
0.0
 10
2.1997800000000001
 20
-3.11206
 30
0.0
 10
2.17692
 20
-3.11206
 30
0.0
 10
2.1820000000000004
 20
-3.1273000000000004
 30
0.0
 10
2.1820000000000004
 20
-3.1273000000000004
 30
0.0
 10
2.1820000000000004
 20
-3.1273000000000004
 30
0.0
 10
2.4080600000000003
 20
-4.2906200000000005
 30
0.0
 10
2.4080600000000003
 20
-4.2906200000000005
 30
0.0
 10
2.4080600000000003
 20
-4.2906200000000005
 30
0.0
 10
2.5223600000000004
 20
-3.8842200000000005
 30
0.0
 10
2.2988400000000002
 20
-3.4905200000000001
 30
0.0
 10
2.2124800000000002
 20
-3.11206
 30
0.0
  0
SPLINE
  5
58
100
AcDbEntity
  8
Ebene 1
 62
     7
100
AcDbSpline
210
0.0
220
0.0
230
1.0
 70
     1
 71
     3
 72
    52
 73
    48
 74
     0
 42
0.0000000001
 43
0.0000000001
 40
0.0
 40
0.0
 40
0.0
 40
0.0
 40
0.0833333333333333
 40
0.0833333333333333
 40
0.0833333333333333
 40
0.0833333333333333
 40
0.1666666666666667
 40
0.1666666666666667
 40
0.1666666666666667
 40
0.1666666666666667
 40
0.25
 40
0.25
 40
0.25
 40
0.25
 40
0.3333333333333333
 40
0.3333333333333333
 40
0.3333333333333333
 40
0.3333333333333333
 40
0.4166666666666666
 40
0.4166666666666666
 40
0.4166666666666666
 40
0.4166666666666666
 40
0.4999999999999999
 40
0.4999999999999999
 40
0.4999999999999999
 40
0.4999999999999999
 40
0.5833333333333333
 40
0.5833333333333333
 40
0.5833333333333333
 40
0.5833333333333333
 40
0.6666666666666666
 40
0.6666666666666666
 40
0.6666666666666666
 40
0.6666666666666666
 40
0.75
 40
0.75
 40
0.75
 40
0.75
 40
0.8333333333333334
 40
0.8333333333333334
 40
0.8333333333333334
 40
0.8333333333333334
 40
0.9166666666666667
 40
0.9166666666666667
 40
0.9166666666666667
 40
0.9166666666666667
 40
1.0
 40
1.0
 40
1.0
 40
1.0
 10
-1.12507
 20
-4.77576
 30
0.0
 10
-1.1504700000000001
 20
-4.6843200000000005
 30
0.0
 10
-1.08189
 20
-4.5928800000000001
 30
0.0
 10
-0.9879100000000001
 20
-4.6081200000000004
 30
0.0
 10
-0.9879100000000001
 20
-4.6081200000000004
 30
0.0
 10
-0.8355100000000001
 20
-4.8341800000000008
 30
0.0
 10
-0.47737
 20
-4.7605200000000005
 30
0.0
 10
-0.49515
 20
-4.48874
 30
0.0
 10
-0.49515
 20
-4.48874
 30
0.0
 10
-0.5459500000000001
 20
-4.5471600000000008
 30
0.0
 10
-0.57135
 20
-4.6690800000000001
 30
0.0
 10
-0.6704100000000001
 20
-4.6538400000000006
 30
0.0
 10
-0.6704100000000001
 20
-4.6538400000000006
 30
0.0
 10
-0.68057
 20
-4.5471600000000008
 30
0.0
 10
-0.55611
 20
-4.2906200000000005
 30
0.0
 10
-0.7313700000000001
 20
-4.1712400000000001
 30
0.0
 10
-0.7313700000000001
 20
-4.1712400000000001
 30
0.0
 10
-0.7313700000000001
 20
-4.1712400000000001
 30
0.0
 10
-0.7059700000000001
 20
-4.1102800000000004
 30
0.0
 10
-0.7059700000000001
 20
-4.1102800000000004
 30
0.0
 10
-0.7059700000000001
 20
-4.1102800000000004
 30
0.0
 10
-0.9142500000000001
 20
-4.01884
 30
0.0
 10
-1.2850900000000001
 20
-4.1864800000000004
 30
0.0
 10
-1.1834900000000002
 20
-4.4430200000000006
 30
0.0
 10
-1.1834900000000002
 20
-4.4430200000000006
 30
0.0
 10
-1.2190500000000002
 20
-4.1560000000000006
 30
0.0
 10
-0.69581
 20
-4.1864800000000004
 30
0.0
 10
-0.82281
 20
-4.4735000000000005
 30
0.0
 10
-0.82281
 20
-4.4735000000000005
 30
0.0
 10
-0.8532900000000001
 20
-4.4735000000000005
 30
0.0
 10
-0.8532900000000001
 20
-4.4430200000000006
 30
0.0
 10
-0.8583700000000001
 20
-4.4125400000000008
 30
0.0
 10
-0.8583700000000001
 20
-4.4125400000000008
 30
0.0
 10
-0.8583700000000001
 20
-4.4125400000000008
 30
0.0
 10
-0.9040900000000001
 20
-4.3668200000000006
 30
0.0
 10
-0.9040900000000001
 20
-4.3668200000000006
 30
0.0
 10
-0.9040900000000001
 20
-4.3668200000000006
 30
0.0
 10
-0.9345700000000001
 20
-4.3515800000000002
 30
0.0
 10
-0.9625100000000001
 20
-4.3820600000000001
 30
0.0
 10
-0.97267
 20
-4.4125400000000008
 30
0.0
 10
-0.97267
 20
-4.4125400000000008
 30
0.0
 10
-0.99299
 20
-4.4735000000000005
 30
0.0
 10
-0.9752100000000001
 20
-4.5192200000000007
 30
0.0
 10
-0.9625100000000001
 20
-4.5776400000000006
 30
0.0
 10
-0.9625100000000001
 20
-4.5776400000000006
 30
0.0
 10
-1.1479300000000001
 20
-4.4582600000000001
 30
0.0
 10
-1.2876300000000001
 20
-4.6081200000000004
 30
0.0
 10
-1.12507
 20
-4.77576
 30
0.0
  0
SPLINE
  5
59
100
AcDbEntity
  8
Ebene 1
 62
     7
100
AcDbSpline
210
0.0
220
0.0
230
1.0
 70
     1
 71
     3
 72
    12
 73
     8
 74
     0
 42
0.0000000001
 43
0.0000000001
 40
0.0
 40
0.0
 40
0.0
 40
0.0
 40
0.5
 40
0.5
 40
0.5
 40
0.5
 40
1.0
 40
1.0
 40
1.0
 40
1.0
 10
2.3318600000000003
 20
-4.3515800000000002
 30
0.0
 10
2.3293200000000001
 20
-4.30586
 30
0.0
 10
2.2886800000000003
 20
-4.2169600000000003
 30
0.0
 10
2.2277200000000001
 20
-4.2322000000000006
 30
0.0
 10
2.2277200000000001
 20
-4.2322000000000006
 30
0.0
 10
2.2124800000000002
 20
-4.2906200000000005
 30
0.0
 10
2.2963
 20
-4.3211000000000004
 30
0.0
 10
2.3318600000000003
 20
-4.3515800000000002
 30
0.0
  0
SPLINE
  5
5A
100
AcDbEntity
  8
Ebene 1
 62
     7
100
AcDbSpline
210
0.0
220
0.0
230
1.0
 70
     1
 71
     3
 72
     8
 73
     4
 74
     0
 42
0.0000000001
 43
0.0000000001
 40
0.0
 40
0.0
 40
0.0
 40
0.0
 40
1.0
 40
1.0
 40
1.0
 40
1.0
 10
2.3318600000000003
 20
-4.3515800000000002
 30
0.0
 10
2.3293200000000001
 20
-4.3820600000000001
 30
0.0
 10
2.3598000000000003
 20
-4.3515800000000002
 30
0.0
 10
2.3318600000000003
 20
-4.3515800000000002
 30
0.0
  0
SPLINE
  5
5B
100
AcDbEntity
  8
Ebene 1
 62
     7
100
AcDbSpline
210
0.0
220
0.0
230
1.0
 70
     1
 71
     3
 72
    12
 73
     8
 74
     0
 42
0.0000000001
 43
0.0000000001
 40
0.0
 40
0.0
 40
0.0
 40
0.0
 40
0.5
 40
0.5
 40
0.5
 40
0.5
 40
1.0
 40
1.0
 40
1.0
 40
1.0
 10
2.3471000000000002
 20
-4.48874
 30
0.0
 10
2.3064600000000004
 20
-4.5039800000000003
 30
0.0
 10
2.2074000000000003
 20
-4.4582600000000001
 30
0.0
 10
2.2124800000000002
 20
-4.5319200000000004
 30
0.0
 10
2.2124800000000002
 20
-4.5319200000000004
 30
0.0
 10
2.2455000000000003
 20
-4.5776400000000006
 30
0.0
 10
2.3725000000000001
 20
-4.5192200000000007
 30
0.0
 10
2.3471000000000002
 20
-4.48874
 30
0.0
  0
SPLINE
  5
5C
100
AcDbEntity
  8
Ebene 1
 62
     7
100
AcDbSpline
210
0.0
220
0.0
230
1.0
 70
     1
 71
     3
 72
    64
 73
    60
 74
     0
 42
0.0000000001
 43
0.0000000001
 40
0.0
 40
0.0
 40
0.0
 40
0.0
 40
0.0666666666666667
 40
0.0666666666666667
 40
0.0666666666666667
 40
0.0666666666666667
 40
0.1333333333333333
 40
0.1333333333333333
 40
0.1333333333333333
 40
0.1333333333333333
 40
0.2
 40
0.2
 40
0.2
 40
0.2
 40
0.2666666666666667
 40
0.2666666666666667
 40
0.2666666666666667
 40
0.2666666666666667
 40
0.3333333333333333
 40
0.3333333333333333
 40
0.3333333333333333
 40
0.3333333333333333
 40
0.4
 40
0.4
 40
0.4
 40
0.4
 40
0.4666666666666666
 40
0.4666666666666666
 40
0.4666666666666666
 40
0.4666666666666666
 40
0.5333333333333333
 40
0.5333333333333333
 40
0.5333333333333333
 40
0.5333333333333333
 40
0.6
 40
0.6
 40
0.6
 40
0.6
 40
0.6666666666666666
 40
0.6666666666666666
 40
0.6666666666666666
 40
0.6666666666666666
 40
0.7333333333333333
 40
0.7333333333333333
 40
0.7333333333333333
 40
0.7333333333333333
 40
0.7999999999999999
 40
0.7999999999999999
 40
0.7999999999999999
 40
0.7999999999999999
 40
0.8666666666666666
 40
0.8666666666666666
 40
0.8666666666666666
 40
0.8666666666666666
 40
0.9333333333333332
 40
0.9333333333333332
 40
0.9333333333333332
 40
0.9333333333333332
 40
1.0
 40
1.0
 40
1.0
 40
1.0
 10
2.16676
 20
-4.7452800000000002
 30
0.0
 10
1.8645
 20
-4.69956
 30
0.0
 10
1.4708000000000001
 20
-5.0323000000000002
 30
0.0
 10
1.7527400000000002
 20
-5.2888400000000004
 30
0.0
 10
1.7527400000000002
 20
-5.2888400000000004
 30
0.0
 10
1.7527400000000002
 20
-5.2888400000000004
 30
0.0
 10
1.7121000000000002
 20
-5.3472600000000003
 30
0.0
 10
1.7121000000000002
 20
-5.3472600000000003
 30
0.0
 10
1.7121000000000002
 20
-5.3472600000000003
 30
0.0
 10
1.6587600000000002
 20
-5.3625000000000007
 30
0.0
 10
1.6232000000000002
 20
-5.3472600000000003
 30
0.0
 10
1.5952600000000001
 20
-5.3040800000000008
 30
0.0
 10
1.5952600000000001
 20
-5.3040800000000008
 30
0.0
 10
1.5927200000000001
 20
-5.4691800000000006
 30
0.0
 10
1.8010000000000002
 20
-5.5453800000000006
 30
0.0
 10
1.6689200000000002
 20
-5.7409600000000003
 30
0.0
 10
1.6689200000000002
 20
-5.7409600000000003
 30
0.0
 10
1.6740000000000002
 20
-5.8019200000000009
 30
0.0
 10
1.7298800000000001
 20
-5.7714400000000001
 30
0.0
 10
1.7273400000000001
 20
-5.7257200000000008
 30
0.0
 10
1.7273400000000001
 20
-5.7257200000000008
 30
0.0
 10
1.7375
 20
-5.6495200000000008
 30
0.0
 10
1.7730600000000001
 20
-5.7409600000000003
 30
0.0
 10
1.7578200000000002
 20
-5.7714400000000001
 30
0.0
 10
1.7578200000000002
 20
-5.7714400000000001
 30
0.0
 10
1.7603600000000001
 20
-5.9060600000000001
 30
0.0
 10
1.8314800000000002
 20
-5.7866800000000005
 30
0.0
 10
1.8213200000000001
 20
-5.7257200000000008
 30
0.0
 10
1.8213200000000001
 20
-5.7257200000000008
 30
0.0
 10
1.8518000000000001
 20
-5.7104800000000004
 30
0.0
 10
1.8518000000000001
 20
-5.7562000000000006
 30
0.0
 10
1.8492600000000001
 20
-5.7714400000000001
 30
0.0
 10
1.8492600000000001
 20
-5.7714400000000001
 30
0.0
 10
1.8492600000000001
 20
-5.7866800000000005
 30
0.0
 10
1.8416400000000002
 20
-5.8171600000000003
 30
0.0
 10
1.8594200000000001
 20
-5.8171600000000003
 30
0.0
 10
1.8594200000000001
 20
-5.8171600000000003
 30
0.0
 10
1.9432400000000001
 20
-5.8781200000000009
 30
0.0
 10
1.8619600000000001
 20
-5.6342800000000004
 30
0.0
 10
1.9407000000000001
 20
-5.7409600000000003
 30
0.0
 10
1.9407000000000001
 20
-5.7409600000000003
 30
0.0
 10
1.9711800000000002
 20
-5.8781200000000009
 30
0.0
 10
2.0016600000000002
 20
-5.7714400000000001
 30
0.0
 10
1.9940400000000003
 20
-5.6952400000000001
 30
0.0
 10
1.9940400000000003
 20
-5.6952400000000001
 30
0.0
 10
2.1108800000000003
 20
-5.8476400000000002
 30
0.0
 10
2.0270600000000001
 20
-5.61904
 30
0.0
 10
1.9864200000000001
 20
-5.5301400000000003
 30
0.0
 10
1.9864200000000001
 20
-5.5301400000000003
 30
0.0
 10
2.2455000000000003
 20
-5.6647600000000002
 30
0.0
 10
2.3725000000000001
 20
-5.3345600000000006
 30
0.0
 10
2.2734400000000003
 20
-5.1212000000000009
 30
0.0
 10
2.2734400000000003
 20
-5.1212000000000009
 30
0.0
 10
2.37758
 20
-5.0170600000000007
 30
0.0
 10
2.50204
 20
-5.1516800000000007
 30
0.0
 10
2.5553800000000004
 20
-5.1516800000000007
 30
0.0
 10
2.5553800000000004
 20
-5.1516800000000007
 30
0.0
 10
2.5299800000000001
 20
-4.9408600000000007
 30
0.0
 10
2.3344
 20
-4.8189400000000004
 30
0.0
 10
2.16676
 20
-4.7452800000000002
 30
0.0
  0
SPLINE
  5
5D
100
AcDbEntity
  8
Ebene 1
 62
     7
100
AcDbSpline
210
0.0
220
0.0
230
1.0
 70
     1
 71
     3
 72
    20
 73
    16
 74
     0
 42
0.0000000001
 43
0.0000000001
 40
0.0
 40
0.0
 40
0.0
 40
0.0
 40
0.25
 40
0.25
 40
0.25
 40
0.25
 40
0.5
 40
0.5
 40
0.5
 40
0.5
 40
0.75
 40
0.75
 40
0.75
 40
0.75
 40
1.0
 40
1.0
 40
1.0
 40
1.0
 10
-1.1555500000000001
 20
-4.7960800000000008
 30
0.0
 10
-1.20635
 20
-4.9611800000000006
 30
0.0
 10
-0.97267
 20
-4.9256200000000003
 30
0.0
 10
-0.9472700000000001
 20
-4.8037000000000001
 30
0.0
 10
-0.9472700000000001
 20
-4.8037000000000001
 30
0.0
 10
-0.9472700000000001
 20
-4.8037000000000001
 30
0.0
 10
-0.9879100000000001
 20
-4.8037000000000001
 30
0.0
 10
-0.9879100000000001
 20
-4.8037000000000001
 30
0.0
 10
-0.9879100000000001
 20
-4.8037000000000001
 30
0.0
 10
-0.9879100000000001
 20
-4.8037000000000001
 30
0.0
 10
-1.07681
 20
-4.8494200000000003
 30
0.0
 10
-1.07681
 20
-4.8494200000000003
 30
0.0
 10
-1.07681
 20
-4.8494200000000003
 30
0.0
 10
-1.07681
 20
-4.8494200000000003
 30
0.0
 10
-1.1555500000000001
 20
-4.7960800000000008
 30
0.0
 10
-1.1555500000000001
 20
-4.7960800000000008
 30
0.0
  0
SPLINE
  5
5E
100
AcDbEntity
  8
Ebene 1
100
AcDbSpline
210
0.0
220
0.0
230
1.0
 70
     1
 71
     3
 72
    12
 73
     8
 74
     0
 42
0.0000000001
 43
0.0000000001
 40
0.0
 40
0.0
 40
0.0
 40
0.0
 40
0.5
 40
0.5
 40
0.5
 40
0.5
 40
1.0
 40
1.0
 40
1.0
 40
1.0
 10
2.1362800000000002
 20
-5.1974
 30
0.0
 10
2.0296000000000003
 20
-5.1821600000000005
 30
0.0
 10
1.9610200000000002
 20
-5.2888400000000004
 30
0.0
 10
1.8975200000000001
 20
-5.3625000000000007
 30
0.0
 10
1.8975200000000001
 20
-5.3625000000000007
 30
0.0
 10
2.0296000000000003
 20
-5.4387000000000008
 30
0.0
 10
2.2937600000000002
 20
-5.3777400000000002
 30
0.0
 10
2.1362800000000002
 20
-5.1974
 30
0.0
  0
SPLINE
  5
5F
100
AcDbEntity
  8
Ebene 1
 62
     7
100
AcDbSpline
210
0.0
220
0.0
230
1.0
 70
     1
 71
     3
 72
    24
 73
    20
 74
     0
 42
0.0000000001
 43
0.0000000001
 40
0.0
 40
0.0
 40
0.0
 40
0.0
 40
0.2
 40
0.2
 40
0.2
 40
0.2
 40
0.4
 40
0.4
 40
0.4
 40
0.4
 40
0.6000000000000001
 40
0.6000000000000001
 40
0.6000000000000001
 40
0.6000000000000001
 40
0.8
 40
0.8
 40
0.8
 40
0.8
 40
1.0
 40
1.0
 40
1.0
 40
1.0
 10
2.4969600000000001
 20
-5.2736000000000001
 30
0.0
 10
2.42584
 20
-5.2888400000000004
 30
0.0
 10
2.3928200000000004
 20
-5.3777400000000002
 30
0.0
 10
2.38774
 20
-5.4539400000000002
 30
0.0
 10
2.38774
 20
-5.4539400000000002
 30
0.0
 10
2.38774
 20
-5.4539400000000002
 30
0.0
 10
2.2582
 20
-5.5758600000000005
 30
0.0
 10
2.2582
 20
-5.5758600000000005
 30
0.0
 10
2.2582
 20
-5.5758600000000005
 30
0.0
 10
2.2582
 20
-5.5758600000000005
 30
0.0
 10
2.2734400000000003
 20
-5.61904
 30
0.0
 10
2.2734400000000003
 20
-5.61904
 30
0.0
 10
2.2734400000000003
 20
-5.61904
 30
0.0
 10
2.3039200000000002
 20
-5.6342800000000004
 30
0.0
 10
2.3166200000000003
 20
-5.5911000000000008
 30
0.0
 10
2.3344
 20
-5.5758600000000005
 30
0.0
 10
2.3344
 20
-5.5758600000000005
 30
0.0
 10
2.4918800000000001
 20
-5.5911000000000008
 30
0.0
 10
2.6290400000000003
 20
-5.3777400000000002
 30
0.0
 10
2.4969600000000001
 20
-5.2736000000000001
 30
0.0
  0
SPLINE
  5
60
100
AcDbEntity
  8
Ebene 1
100
AcDbSpline
210
0.0
220
0.0
230
1.0
 70
     1
 71
     3
 72
    12
 73
     8
 74
     0
 42
0.0000000001
 43
0.0000000001
 40
0.0
 40
0.0
 40
0.0
 40
0.0
 40
0.5
 40
0.5
 40
0.5
 40
0.5
 40
1.0
 40
1.0
 40
1.0
 40
1.0
 10
1.8340200000000002
 20
-5.3625000000000007
 30
0.0
 10
1.7629000000000001
 20
-5.3777400000000002
 30
0.0
 10
1.69686
 20
-5.5301400000000003
 30
0.0
 10
1.8035400000000001
 20
-5.5453800000000006
 30
0.0
 10
1.8035400000000001
 20
-5.5453800000000006
 30
0.0
 10
1.9254600000000002
 20
-5.5606200000000001
 30
0.0
 10
1.9026000000000001
 20
-5.40822
 30
0.0
 10
1.8340200000000002
 20
-5.3625000000000007
 30
0.0
  0
SPLINE
  5
61
100
AcDbEntity
  8
Ebene 1
 62
     7
100
AcDbSpline
210
0.0
220
0.0
230
1.0
 70
     1
 71
     3
 72
    28
 73
    24
 74
     0
 42
0.0000000001
 43
0.0000000001
 40
0.0
 40
0.0
 40
0.0
 40
0.0
 40
0.1666666666666667
 40
0.1666666666666667
 40
0.1666666666666667
 40
0.1666666666666667
 40
0.3333333333333333
 40
0.3333333333333333
 40
0.3333333333333333
 40
0.3333333333333333
 40
0.5
 40
0.5
 40
0.5
 40
0.5
 40
0.6666666666666666
 40
0.6666666666666666
 40
0.6666666666666666
 40
0.6666666666666666
 40
0.8333333333333333
 40
0.8333333333333333
 40
0.8333333333333333
 40
0.8333333333333333
 40
1.0
 40
1.0
 40
1.0
 40
1.0
 10
2.6646000000000001
 20
-5.5453800000000006
 30
0.0
 10
2.4664800000000002
 20
-5.6342800000000004
 30
0.0
 10
2.6061800000000002
 20
-5.8781200000000009
 30
0.0
 10
2.4233000000000002
 20
-6.0127400000000009
 30
0.0
 10
2.4233000000000002
 20
-6.0127400000000009
 30
0.0
 10
2.50204
 20
-6.0889400000000009
 30
0.0
 10
2.5858600000000003
 20
-6.3454800000000002
 30
0.0
 10
2.4385400000000002
 20
-6.1778400000000007
 30
0.0
 10
2.4385400000000002
 20
-6.1778400000000007
 30
0.0
 10
2.4385400000000002
 20
-6.1778400000000007
 30
0.0
 10
2.3648800000000003
 20
-6.2235600000000009
 30
0.0
 10
2.3648800000000003
 20
-6.2235600000000009
 30
0.0
 10
2.3648800000000003
 20
-6.2235600000000009
 30
0.0
 10
2.3928200000000004
 20
-6.2388000000000003
 30
0.0
 10
2.4182200000000003
 20
-6.2540400000000007
 30
0.0
 10
2.4106000000000001
 20
-6.2997600000000009
 30
0.0
 10
2.4106000000000001
 20
-6.2997600000000009
 30
0.0
 10
2.4106000000000001
 20
-6.2997600000000009
 30
0.0
 10
2.5579200000000002
 20
-6.3454800000000002
 30
0.0
 10
2.5579200000000002
 20
-6.3454800000000002
 30
0.0
 10
2.5579200000000002
 20
-6.3454800000000002
 30
0.0
 10
2.8043
 20
-6.1778400000000007
 30
0.0
 10
2.9440000000000004
 20
-5.7714400000000001
 30
0.0
 10
2.6646000000000001
 20
-5.5453800000000006
 30
0.0
  0
SPLINE
  5
62
100
AcDbEntity
  8
Ebene 1
100
AcDbSpline
210
0.0
220
0.0
230
1.0
 70
     1
 71
     3
 72
    16
 73
    12
 74
     0
 42
0.0000000001
 43
0.0000000001
 40
0.0
 40
0.0
 40
0.0
 40
0.0
 40
0.3333333333333333
 40
0.3333333333333333
 40
0.3333333333333333
 40
0.3333333333333333
 40
0.6666666666666666
 40
0.6666666666666666
 40
0.6666666666666666
 40
0.6666666666666666
 40
1.0
 40
1.0
 40
1.0
 40
1.0
 10
2.6341200000000002
 20
-5.8628800000000005
 30
0.0
 10
2.4969600000000001
 20
-5.8628800000000005
 30
0.0
 10
2.4766400000000002
 20
-6.0889400000000009
 30
0.0
 10
2.6188800000000003
 20
-6.1194200000000007
 30
0.0
 10
2.6188800000000003
 20
-6.1194200000000007
 30
0.0
 10
2.67476
 20
-6.1194200000000007
 30
0.0
 10
2.75604
 20
-6.0889400000000009
 30
0.0
 10
2.6950800000000004
 20
-6.0279800000000003
 30
0.0
 10
2.6950800000000004
 20
-6.0279800000000003
 30
0.0
 10
2.6950800000000004
 20
-5.9670200000000007
 30
0.0
 10
2.7103200000000003
 20
-5.8781200000000009
 30
0.0
 10
2.6341200000000002
 20
-5.8628800000000005
 30
0.0
  0
SPLINE
  5
63
100
AcDbEntity
  8
Ebene 1
 62
     7
100
AcDbSpline
210
0.0
220
0.0
230
1.0
 70
     1
 71
     3
 72
    60
 73
    56
 74
     0
 42
0.0000000001
 43
0.0000000001
 40
0.0
 40
0.0
 40
0.0
 40
0.0
 40
0.0714285714285714
 40
0.0714285714285714
 40
0.0714285714285714
 40
0.0714285714285714
 40
0.1428571428571429
 40
0.1428571428571429
 40
0.1428571428571429
 40
0.1428571428571429
 40
0.2142857142857143
 40
0.2142857142857143
 40
0.2142857142857143
 40
0.2142857142857143
 40
0.2857142857142857
 40
0.2857142857142857
 40
0.2857142857142857
 40
0.2857142857142857
 40
0.3571428571428571
 40
0.3571428571428571
 40
0.3571428571428571
 40
0.3571428571428571
 40
0.4285714285714285
 40
0.4285714285714285
 40
0.4285714285714285
 40
0.4285714285714285
 40
0.4999999999999999
 40
0.4999999999999999
 40
0.4999999999999999
 40
0.4999999999999999
 40
0.5714285714285713
 40
0.5714285714285713
 40
0.5714285714285713
 40
0.5714285714285713
 40
0.6428571428571427
 40
0.6428571428571427
 40
0.6428571428571427
 40
0.6428571428571427
 40
0.7142857142857141
 40
0.7142857142857141
 40
0.7142857142857141
 40
0.7142857142857141
 40
0.7857142857142855
 40
0.7857142857142855
 40
0.7857142857142855
 40
0.7857142857142855
 40
0.8571428571428569
 40
0.8571428571428569
 40
0.8571428571428569
 40
0.8571428571428569
 40
0.9285714285714283
 40
0.9285714285714283
 40
0.9285714285714283
 40
0.9285714285714283
 40
1.0
 40
1.0
 40
1.0
 40
1.0
 10
1.8137000000000001
 20
-6.5563000000000002
 30
0.0
 10
1.8899000000000001
 20
-6.5258200000000004
 30
0.0
 10
1.9254600000000002
 20
-6.6325000000000003
 30
0.0
 10
1.9051400000000001
 20
-6.7087000000000003
 30
0.0
 10
1.9051400000000001
 20
-6.7087000000000003
 30
0.0
 10
1.8721200000000002
 20
-6.7391800000000002
 30
0.0
 10
1.8238600000000003
 20
-6.7849000000000004
 30
0.0
 10
1.7756000000000001
 20
-6.7544200000000005
 30
0.0
 10
1.7756000000000001
 20
-6.7544200000000005
 30
0.0
 10
1.7756000000000001
 20
-6.7544200000000005
 30
0.0
 10
1.7730600000000001
 20
-6.6172600000000008
 30
0.0
 10
1.7730600000000001
 20
-6.6172600000000008
 30
0.0
 10
1.7730600000000001
 20
-6.6172600000000008
 30
0.0
 10
1.7146400000000002
 20
-6.7391800000000002
 30
0.0
 10
1.48604
 20
-6.4978800000000003
 30
0.0
 10
1.5419200000000002
 20
-6.6629800000000001
 30
0.0
 10
1.5419200000000002
 20
-6.6629800000000001
 30
0.0
 10
1.7959200000000002
 20
-6.6020200000000004
 30
0.0
 10
1.5952600000000001
 20
-6.9957200000000004
 30
0.0
 10
1.7451200000000002
 20
-6.9195200000000003
 30
0.0
 10
1.7451200000000002
 20
-6.9195200000000003
 30
0.0
 10
1.7578200000000002
 20
-7.0414400000000006
 30
0.0
 10
1.8441800000000002
 20
-6.9957200000000004
 30
0.0
 10
1.8365600000000002
 20
-6.9042800000000009
 30
0.0
 10
1.8365600000000002
 20
-6.9042800000000009
 30
0.0
 10
1.9076800000000003
 20
-7.0414400000000006
 30
0.0
 10
1.9457800000000001
 20
-6.9347600000000007
 30
0.0
 10
1.9407000000000001
 20
-6.8433200000000003
 30
0.0
 10
1.9407000000000001
 20
-6.8433200000000003
 30
0.0
 10
1.9940400000000003
 20
-6.8585600000000007
 30
0.0
 10
1.9635600000000002
 20
-6.9500000000000002
 30
0.0
 10
2.0245200000000003
 20
-6.9500000000000002
 30
0.0
 10
2.0245200000000003
 20
-6.9500000000000002
 30
0.0
 10
2.04738
 20
-6.9347600000000007
 30
0.0
 10
2.04738
 20
-6.9042800000000009
 30
0.0
 10
2.0448400000000002
 20
-6.8890400000000005
 30
0.0
 10
2.0448400000000002
 20
-6.8890400000000005
 30
0.0
 10
1.8797400000000002
 20
-6.7391800000000002
 30
0.0
 10
2.0727800000000003
 20
-6.6325000000000003
 30
0.0
 10
2.16676
 20
-6.5436000000000005
 30
0.0
 10
2.16676
 20
-6.5436000000000005
 30
0.0
 10
2.1794600000000002
 20
-6.3912000000000004
 30
0.0
 10
2.0016600000000002
 20
-6.1626000000000003
 30
0.0
 10
2.1362800000000002
 20
-6.0737000000000005
 30
0.0
 10
2.1362800000000002
 20
-6.0737000000000005
 30
0.0
 10
2.1362800000000002
 20
-6.0737000000000005
 30
0.0
 10
2.1159600000000003
 20
-6.0279800000000003
 30
0.0
 10
2.1159600000000003
 20
-6.0279800000000003
 30
0.0
 10
2.1159600000000003
 20
-6.0279800000000003
 30
0.0
 10
1.8035400000000001
 20
-5.5911000000000008
 30
0.0
 10
1.1533
 20
-6.4216800000000003
 30
0.0
 10
1.7070200000000002
 20
-6.4674000000000005
 30
0.0
 10
1.7070200000000002
 20
-6.4674000000000005
 30
0.0
 10
1.7502000000000002
 20
-6.4978800000000003
 30
0.0
 10
1.8137000000000001
 20
-6.5105800000000009
 30
0.0
 10
1.8137000000000001
 20
-6.5563000000000002
 30
0.0
  0
SPLINE
  5
64
100
AcDbEntity
  8
Ebene 1
100
AcDbSpline
210
0.0
220
0.0
230
1.0
 70
     1
 71
     3
 72
    12
 73
     8
 74
     0
 42
0.0000000001
 43
0.0000000001
 40
0.0
 40
0.0
 40
0.0
 40
0.0
 40
0.5
 40
0.5
 40
0.5
 40
0.5
 40
1.0
 40
1.0
 40
1.0
 40
1.0
 10
2.0600800000000001
 20
-6.4369200000000006
 30
0.0
 10
1.9661000000000002
 20
-6.4064400000000008
 30
0.0
 10
1.8314800000000002
 20
-6.4978800000000003
 30
0.0
 10
1.9254600000000002
 20
-6.586780000000001
 30
0.0
 10
1.9254600000000002
 20
-6.586780000000001
 30
0.0
 10
2.0346800000000003
 20
-6.6325000000000003
 30
0.0
 10
2.1794600000000002
 20
-6.5283600000000002
 30
0.0
 10
2.0600800000000001
 20
-6.4369200000000006
 30
0.0
  0
ENDSEC
  0
SECTION
  2
OBJECTS
  0
DICTIONARY
  5
19
100
AcDbDictionary
280
     0
281
     1
  3
ACAD_GROUP
350
1A
  3
ACAD_MLINESTYLE
350
1B
  3
ACAD_LAYOUT
350
1E
  3
ACAD_PLOTSETTINGS
350
22
  3
ACAD_PLOTSTYLENAME
350
1F
  3
ACAD_WIPEOUT_VARS
350
23
  0
DICTIONARY
  5
1A
102
{ACAD_REACTORS
330
19
102
}
100
AcDbDictionary
280
     0
281
     1
  0
DICTIONARY
  5
1B
102
{ACAD_REACTORS
330
19
102
}
100
AcDbDictionary
280
     0
281
     1
  3
Standard
350
1C
  0
MLINESTYLE
  5
1C
102
{ACAD_REACTORS
330
1B
102
}
100
AcDbMlineStyle
  2
Standard
 70
     0
  3

 62
     0
 51
90.0
 52
90.0
 71
     2
 49
0.5
 62
   256
  6
BYLAYER
 49
-0.5
 62
   256
  6
BYLAYER
  0
ACDBDICTIONARYWDFLT
  5
1F
102
{ACAD_REACTORS
330
19
102
}
100
AcDbDictionary
281
     1
  3
Normal
350
1D
100
AcDbDictionaryWithDefault
340
1D
  0
ACDBPLACEHOLDER
  5
1D
102
{ACAD_REACTORS
330
1F
102
}
  0
LAYOUT
  5
20
102
{ACAD_REACTORS
330
1E
102
}
100
AcDbPlotSettings
  1

  2

  4

  6

 40
0.0
 41
0.0
 42
0.0
 43
0.0
 44
0.0
 45
0.0
 46
0.0
 47
0.0
 48
0.0
 49
0.0
140
0.0
141
0.0
142
1.0
143
1.0
 70
  1024
 72
     0
 73
     0
 74
     0
  7

 75
     0
147
1.0
148
0.0
149
0.0
100
AcDbLayout
  1
Model
 70
     0
 71
     0
 10
0.0
 20
0.0
 11
0.0
 21
0.0
 12
0.0
 22
0.0
 32
0.0
 14
0.0
 24
0.0
 34
0.0
 15
0.0
 25
0.0
 35
0.0
146
0.0
 13
0.0
 23
0.0
 33
0.0
 16
0.0
 26
0.0
 36
0.0
 17
0.0
 27
0.0
 37
0.0
 76
     0
330
A
331
0
345
0
346
0
  0
LAYOUT
  5
21
102
{ACAD_REACTORS
330
1E
102
}
100
AcDbPlotSettings
  1

  2

  4

  6

 40
0.0
 41
0.0
 42
0.0
 43
0.0
 44
0.0
 45
0.0
 46
0.0
 47
0.0
 48
0.0
 49
0.0
140
0.0
141
0.0
142
1.0
143
1.0
 70
     0
 72
     0
 73
     0
 74
     0
  7

 75
     0
147
1.0
148
0.0
149
0.0
100
AcDbLayout
  1
Layout1
 70
     0
 71
     0
 10
0.0
 20
0.0
 11
0.0
 21
0.0
 12
0.0
 22
0.0
 32
0.0
 14
0.0
 24
0.0
 34
0.0
 15
0.0
 25
0.0
 35
0.0
146
0.0
 13
0.0
 23
0.0
 33
0.0
 16
0.0
 26
0.0
 36
0.0
 17
0.0
 27
0.0
 37
0.0
 76
     0
330
B
331
0
345
0
346
0
  0
DICTIONARY
  5
1E
102
{ACAD_REACTORS
330
19
102
}
100
AcDbDictionary
280
     0
281
     1
  3
Layout1
350
21
  3
Model
350
20
  0
DICTIONARY
  5
22
102
{ACAD_REACTORS
330
19
102
}
100
AcDbDictionary
280
     0
281
     1
  0
WIPEOUTVARIABLES
  5
23
100
AcDbWipeoutVariables
 70
     1
  0
ENDSEC
  0
EOF
