  0
SECTION
  2
HEADER
  9
$ACADVER
  1
AC1015
  9
$ACADMAINTVER
 70
     6
  9
$DWGCODEPAGE
  3
DOS850
  9
$INSBASE
 10
0.0
 20
0.0
 30
0.0
  9
$EXTMIN
 10
-4.71409
 20
-6.78744
 30
1.000000E+20
  9
$EXTMAX
 10
4.71946
 20
6.78123
 30
-1.000000E+20
  9
$LIMMIN
 10
0.0
 20
0.0
  9
$LIMMAX
 10
0.0
 20
0.0
  9
$ORTHOMODE
 70
     0
  9
$REGENMODE
 70
     1
  9
$FILLMODE
 70
     1
  9
$QTEXTMODE
 70
     0
  9
$MIRRTEXT
 70
     1
  9
$LTSCALE
 40
1.0
  9
$ATTMODE
 70
     1
  9
$TEXTSIZE
 40
0.2
  9
$TRACEWID
 40
0.05
  9
$TEXTSTYLE
  7
Standard
  9
$CLAYER
  8
0
  9
$CELTYPE
  6
Continuous
  9
$CECOLOR
 62
   256
  9
$CELTSCALE
 40
1.0
  9
$DISPSILH
 70
     0
  9
$DIMSCALE
 40
1.0
  9
$DIMASZ
 40
0.18
  9
$DIMEXO
 40
0.0625
  9
$DIMDLI
 40
0.38
  9
$DIMRND
 40
0.0
  9
$DIMDLE
 40
0.0
  9
$DIMEXE
 40
0.18
  9
$DIMTP
 40
0.0
  9
$DIMTM
 40
0.0
  9
$DIMTXT
 40
0.18
  9
$DIMCEN
 40
0.09
  9
$DIMTSZ
 40
0.0
  9
$DIMTOL
 70
     0
  9
$DIMLIM
 70
     0
  9
$DIMTIH
 70
     1
  9
$DIMTOH
 70
     1
  9
$DIMSE1
 70
     0
  9
$DIMSE2
 70
     0
  9
$DIMTAD
 70
     0
  9
$DIMZIN
 70
     0
  9
$DIMBLK
  1

  9
$DIMASO
 70
     1
  9
$DIMSHO
 70
     1
  9
$DIMPOST
  1

  9
$DIMAPOST
  1

  9
$DIMALT
 70
     0
  9
$DIMALTD
 70
     2
  9
$DIMALTF
 40
25.4
  9
$DIMLFAC
 40
1.0
  9
$DIMTOFL
 70
     0
  9
$DIMTVP
 40
0.0
  9
$DIMTIX
 70
     0
  9
$DIMSOXD
 70
     0
  9
$DIMSAH
 70
     0
  9
$DIMBLK1
  1

  9
$DIMBLK2
  1

  9
$DIMSTYLE
  2
Standard
  9
$DIMCLRD
 70
     0
  9
$DIMCLRE
 70
     0
  9
$DIMCLRT
 70
     0
  9
$DIMTFAC
 40
1.0
  9
$DIMGAP
 40
0.09
  9
$DIMJUST
 70
     0
  9
$DIMSD1
 70
     0
  9
$DIMSD2
 70
     0
  9
$DIMTOLJ
 70
     1
  9
$DIMTZIN
 70
     0
  9
$DIMALTZ
 70
     0
  9
$DIMALTTZ
 70
     0
  9
$DIMUPT
 70
     0
  9
$DIMDEC
 70
     4
  9
$DIMTDEC
 70
     4
  9
$DIMALTU
 70
     2
  9
$DIMALTTD
 70
     2
  9
$DIMTXSTY
  7
Standard
  9
$DIMAUNIT
 70
     0
  9
$DIMADEC
 70
     0
  9
$DIMALTRND
 40
0.0
  9
$DIMAZIN
 70
     0
  9
$DIMDSEP
 70
     0
  9
$DIMATFIT
 70
     3
  9
$DIMFRAC
 70
     0
  9
$DIMLDRBLK
  1

  9
$DIMLUNIT
 70
     2
  9
$DIMLWD
 70
     0
  9
$DIMLWE
 70
     0
  9
$DIMTMOVE
 70
     0
  9
$LUNITS
 70
     2
  9
$LUPREC
 70
     4
  9
$SKETCHINC
 40
0.1
  9
$FILLETRAD
 40
0.0
  9
$AUNITS
 70
     0
  9
$AUPREC
 70
     0
  9
$MENU
  1
acad
  9
$ELEVATION
 40
0.0
  9
$PELEVATION
 40
0.0
  9
$THICKNESS
 40
0.0
  9
$LIMCHECK
 70
     0
  9
$CHAMFERA
 40
0.0
  9
$CHAMFERB
 40
0.0
  9
$CHAMFERC
 40
0.0
  9
$CHAMFERD
 40
0.0
  9
$SKPOLY
 70
     0
  9
$TDCREATE
 40
0.000000000
  9
$TDUCREATE
 40
0.000000000
  9
$TDUPDATE
 40
0.000000000
  9
$TDUUPDATE
 40
0.000000000
  9
$TDINDWG
 40
0.0000000000
  9
$TDUSRTIMER
 40
0.0000000000
  9
$USRTIMER
 70
     1
  9
$ANGBASE
 50
0.0
  9
$ANGDIR
 70
     0
  9
$PDMODE
 70
     0
  9
$PDSIZE
 40
0.0
  9
$PLINEWID
 40
0.0
  9
$SPLFRAME
 70
     0
  9
$SPLINETYPE
 70
     6
  9
$SPLINESEGS
 70
     8
  9
$HANDSEED
  5
4E
  9
$SURFTAB1
 70
     6
  9
$SURFTAB2
 70
     6
  9
$SURFTYPE
 70
     6
  9
$SURFU
 70
     6
  9
$SURFV
 70
     6
  9
$UCSBASE
  2

  9
$UCSNAME
  2

  9
$UCSORG
 10
0.0
 20
0.0
 30
0.0
  9
$UCSXDIR
 10
1.0
 20
0.0
 30
0.0
  9
$UCSYDIR
 10
0.0
 20
1.0
 30
0.0
  9
$UCSORTHOREF
  2

  9
$UCSORTHOVIEW
 70
     0
  9
$UCSORGTOP
 10
0.0
 20
0.0
 30
0.0
  9
$UCSORGBOTTOM
 10
0.0
 20
0.0
 30
0.0
  9
$UCSORGLEFT
 10
0.0
 20
0.0
 30
0.0
  9
$UCSORGRIGHT
 10
0.0
 20
0.0
 30
0.0
  9
$UCSORGFRONT
 10
0.0
 20
0.0
 30
0.0
  9
$UCSORGBACK
 10
0.0
 20
0.0
 30
0.0
  9
$PUCSBASE
  2

  9
$PUCSNAME
  2

  9
$PUCSORG
 10
0.0
 20
0.0
 30
0.0
  9
$PUCSXDIR
 10
1.0
 20
0.0
 30
0.0
  9
$PUCSYDIR
 10
0.0
 20
1.0
 30
0.0
  9
$PUCSORTHOREF
  2

  9
$PUCSORTHOVIEW
 70
     0
  9
$PUCSORGTOP
 10
0.0
 20
0.0
 30
0.0
  9
$PUCSORGBOTTOM
 10
0.0
 20
0.0
 30
0.0
  9
$PUCSORGLEFT
 10
0.0
 20
0.0
 30
0.0
  9
$PUCSORGRIGHT
 10
0.0
 20
0.0
 30
0.0
  9
$PUCSORGFRONT
 10
0.0
 20
0.0
 30
0.0
  9
$PUCSORGBACK
 10
0.0
 20
0.0
 30
0.0
  9
$USERI1
 70
     0
  9
$USERI2
 70
     0
  9
$USERI3
 70
     0
  9
$USERI4
 70
     0
  9
$USERI5
 70
     0
  9
$USERR1
 40
0.0
  9
$USERR2
 40
0.0
  9
$USERR3
 40
0.0
  9
$USERR4
 40
0.0
  9
$USERR5
 40
0.0
  9
$WORLDVIEW
 70
     1
  9
$SHADEDGE
 70
     3
  9
$SHADEDIF
 70
    70
  9
$TILEMODE
 70
     1
  9
$MAXACTVP
 70
    16
  9
$PINSBASE
 10
0.0
 20
0.0
 30
0.0
  9
$PLIMCHECK
 70
     0
  9
$PEXTMIN
 10
1.000000E+20
 20
1.000000E+20
 30
1.000000E+20
  9
$PEXTMAX
 10
-1.000000E+20
 20
-1.000000E+20
 30
-1.000000E+20
  9
$PLIMMIN
 10
0.0
 20
0.0
  9
$PLIMMAX
 10
12.0
 20
9.0
  9
$UNITMODE
 70
     0
  9
$VISRETAIN
 70
     0
  9
$PLINEGEN
 70
     1
  9
$PSLTSCALE
 70
     0
  9
$TREEDEPTH
 70
  3020
  9
$CMLSTYLE
  2
Standard
  9
$CMLJUST
 70
     0
  9
$CMLSCALE
 40
1.0
  9
$PROXYGRAPHICS
 70
     0
  9
$MEASUREMENT
 70
     0
  9
$CELWEIGHT
370
     0
  9
$ENDCAPS
280
     0
  9
$JOINSTYLE
280
     0
  9
$LWDISPLAY
290
     0
  9
$INSUNITS
 70
     5
  9
$HYPERLINKBASE
  1

  9
$XEDIT
290
     1
  9
$CEPSNTYPE
380
     0
  9
$PSTYLEMODE
290
     1
  9
$FINGERPRINTGUID
  2

  9
$VERSIONGUID
  2

  9
$EXTNAMES
290
     1
  9
$PSVPSCALE
 40
0.0
  0
ENDSEC
  0
SECTION
  2
CLASSES
  0
CLASS
  1
LWPOLYLINE
  2
AcDbPolyline
  3
AutoCAD 2000
 90
    32768
280
     0
281
     1
  0
CLASS
  1
IMAGE
  2
AcDbRasterImage
  3
ISM
 90
    32895
280
     0
281
     1
  0
CLASS
  1
OLE2FRAME
  2
AcDbOle2Frame
  3
AutoCAD 2000
 90
    32768
280
     0
281
     1
  0
CLASS
  1
HATCH
  2
AcDbHatch
  3
AutoCAD 2000
 90
    32768
280
     0
281
     1
  0
CLASS
  1
DICTIONARYVAR
  2
AcDbDictionaryVar
  3
AutoCAD 2000
 90
    32768
280
     0
281
     0
  0
CLASS
  1
RASTERVARIABLES
  2
AcDbRasterVariables
  3
ISM
 90
    32768
280
     0
281
     0
  0
CLASS
  1
IMAGEDEF
  2
AcDbRasterImageDef
  3
ISM
 90
    32768
280
     0
281
     0
  0
CLASS
  1
IMAGEDEF_REACTOR
  2
AcDbRasterImageDefReactor
  3
ISM
 90
    32769
280
     0
281
     0
  0
CLASS
  1
IDBUFFER
  2
AcDbIdBuffer
  3
AutoCAD 2000
 90
    32768
280
     0
281
     0
  0
CLASS
  1
SPATIAL_FILTER
  2
AcDbSpatialFilter
  3
AutoCAD 2000
 90
    32768
280
     0
281
     0
  0
CLASS
  1
XRECORD
  2
AcDbXrecord
  3
AutoCAD 2000
 90
    32768
280
     0
281
     0
  0
CLASS
  1
SORTENTSTABLE
  2
AcDbSortentsTable
  3
AutoCAD 2000
 90
    32768
280
     0
281
     0
  0
CLASS
  1
LAYER_INDEX
  2
AcDbLayerIndex
  3
AutoCAD 2000
 90
    32768
280
     0
281
     0
  0
CLASS
  1
SPATIAL_INDEX
  2
AcDbSpatialIndex
  3
AutoCAD 2000
 90
    32768
280
     0
281
     0
  0
CLASS
  1
OBJECT_PTR
  2
CAseDLPNTableRecord
  3
"ASE-LPNTableRecord"
 90
    32769
280
     0
281
     0
  0
CLASS
  1
LAYOUT
  2
AcDbLayout
  3
AutoCAD 2000
 90
        0
280
     0
281
     0
  0
CLASS
  1
PLOTSETTINGS
  2
AcDbPlotSettings
  3
AutoCAD 2000
 90
    32768
280
     0
281
     0
  0
CLASS
  1
ACDBDICTIONARYWDFLT
  2
AcDbDictionaryWithDefault
  3
AutoCAD 2000
 90
        0
280
     0
281
     0
  0
CLASS
  1
ACDBPLACEHOLDER
  2
AcDbPlaceHolder
  3
AutoCAD 2000
 90
        0
280
     0
281
     0
  0
CLASS
  1
VBA_PROJECT
  2
AcDbVbaProject
  3
acadvba
 90
    32768
280
     0
281
     0
  0
CLASS
  1
WIPEOUT
  2
AcDbWipeout
  3
WipeOut|AutoCAD Express Tool|expresstools@autodesk.com
 90
    32895
280
     0
281
     1
  0
CLASS
  1
WIPEOUTVARIABLES
  2
AcDbWipeoutVariables
  3
WipeOut|AutoCAD Express Tool|expresstools@autodesk.com
 90
        0
280
     0
281
     0
  0
CLASS
  1
RTEXT
  2
RText
  3
RText|AutoCAD Express Tool|expresstools@autodesk.com
 90
    32768
280
     0
281
     1
  0
CLASS
  1
ARCALIGNEDTEXT
  2
AcDbArcAlignedText
  3
ATEXT|AutoCAD Express Tool|expresstools@autodesk.com
 90
    32768
280
     0
281
     1
  0
ENDSEC
  0
SECTION
  2
TABLES
  0
TABLE
  2
VPORT
  5
7
100
AcDbSymbolTable
 70
     1
  0
VPORT
  5
15
100
AcDbSymbolTableRecord
100
AcDbViewportTableRecord
  2
*ACTIVE
 70
     0
 10
0.0
 20
0.0
 11
1.0
 21
1.0
 12
6.591288
 22
4.579184
 13
0.0
 23
0.0
 14
1.0
 24
1.0
 15
0.0
 25
0.0
 16
0.0
 26
0.0
 36
1.0
 17
0.0
 27
0.0
 37
0.0
 40
9.158369
 41
0.688564
 42
50.0
 43
0.0
 44
0.0
 50
0.0
 51
0.0
 71
     0
 72
   100
 73
     1
 74
     1
 75
     0
 76
     0
 77
     0
 78
     0
281
     0
 65
     0
110
0.0
120
0.0
130
0.0
111
1.0
121
0.0
131
0.0
112
0.0
122
1.0
132
0.0
345
0
346
0
 79
     0
146
0.0
  0
ENDTAB
  0
TABLE
  2
LTYPE
  5
4
100
AcDbSymbolTable
 70
     3
  0
LTYPE
  5
11
100
AcDbSymbolTableRecord
100
AcDbLinetypeTableRecord
  2
ByBlock
 70
    64
  3

 72
    65
 73
     0
 40
0.0
  0
LTYPE
  5
12
100
AcDbSymbolTableRecord
100
AcDbLinetypeTableRecord
  2
ByLayer
 70
    64
  3

 72
    65
 73
     0
 40
0.0
  0
LTYPE
  5
13
100
AcDbSymbolTableRecord
100
AcDbLinetypeTableRecord
  2
Continuous
 70
    64
  3
Solid line
 72
    65
 73
     0
 40
0.0
  0
ENDTAB
  0
TABLE
  2
LAYER
  5
2
100
AcDbSymbolTable
 70
     2
  0
LAYER
  5
14
100
AcDbSymbolTableRecord
100
AcDbLayerTableRecord
  2
0
 70
     0
 62
     7
  6
Continuous
290
     1
370
    -3
390
1D
  0
LAYER
  5
24
100
AcDbSymbolTableRecord
100
AcDbLayerTableRecord
  2
Ebene 1
 70
     0
 62
     7
  6
Continuous
290
     1
370
    -3
390
1F
  0
ENDTAB
  0
TABLE
  2
STYLE
  5
3
100
AcDbSymbolTable
 70
     1
  0
STYLE
  5
17
100
AcDbSymbolTableRecord
100
AcDbTextStyleTableRecord
  2
Standard
 70
     0
 40
0.0
 41
1.0
 50
0.0
 71
     0
 42
0.0
  3
txt
  4

  0
ENDTAB
  0
TABLE
  2
VIEW
  5
5
100
AcDbSymbolTable
 70
     0
  0
ENDTAB
  0
TABLE
  2
UCS
  5
6
100
AcDbSymbolTable
 70
     0
  0
ENDTAB
  0
TABLE
  2
APPID
  5
8
100
AcDbSymbolTable
 70
     1
  0
APPID
  5
16
100
AcDbSymbolTableRecord
100
AcDbRegAppTableRecord
  2
ACAD
 70
     0
  0
ENDTAB
  0
TABLE
  2
DIMSTYLE
  5
9
100
AcDbSymbolTable
 70
     1
100
AcDbDimStyleTable
 71
     0
  0
DIMSTYLE
105
18
100
AcDbSymbolTableRecord
100
AcDbDimStyleTableRecord
  2
Standard
 70
     0
  3

  4

 40
1.0
 41
0.18
 42
0.0625
 43
0.38
 44
0.18
 45
0.0
 46
0.0
 47
0.0
 48
0.0
 71
     0
 72
     0
 73
     1
 74
     1
 75
     0
 76
     0
 77
     0
 78
     0
 79
     0
140
0.18
141
0.09
142
0.0
143
25.4
144
1.0
145
0.0
146
1.0
147
0.09
148
0.0
170
     0
171
     2
172
     0
173
     0
174
     0
175
     0
176
     0
177
     0
178
     0
179
     0
271
     4
272
     4
273
     2
274
     2
275
     0
276
     0
277
     2
278
    46
279
     0
280
     0
281
     0
282
     0
283
     1
284
     0
285
     0
286
     0
288
     0
340
17
341
0
342
0
343
0
344
0
371
    -2
372
    -2
  0
ENDTAB
  0
TABLE
  2
BLOCK_RECORD
  5
1
100
AcDbSymbolTable
 70
     0
  0
BLOCK_RECORD
  5
A
100
AcDbSymbolTableRecord
100
AcDbBlockTableRecord
  2
*MODEL_SPACE
340
20
  0
BLOCK_RECORD
  5
B
100
AcDbSymbolTableRecord
100
AcDbBlockTableRecord
  2
*PAPER_SPACE
340
21
  0
ENDTAB
  0
ENDSEC
  0
SECTION
  2
BLOCKS
  0
BLOCK
  5
D
100
AcDbEntity
  8
0
100
AcDbBlockBegin
  2
*MODEL_SPACE
 70
     0
 10
0.0
 20
0.0
 30
0.0
  3
*MODEL_SPACE
  1

  0
ENDBLK
  5
E
100
AcDbEntity
  8
0
100
AcDbBlockEnd
  0
BLOCK
  5
F
100
AcDbEntity
 67
     1
  8
0
100
AcDbBlockBegin
  2
*PAPER_SPACE
 70
     0
 10
0.0
 20
0.0
 30
0.0
  3
*PAPER_SPACE
  1

  0
ENDBLK
  5
10
100
AcDbEntity
 67
     1
  8
0
100
AcDbBlockEnd
  0
ENDSEC
  0
SECTION
  2
ENTITIES
  0
SPLINE
  5
25
100
AcDbEntity
  8
Ebene 1
100
AcDbSpline
210
0.0
220
0.0
230
1.0
 70
     1
 71
     3
 72
   268
 73
   264
 74
     0
 42
0.0000000001
 43
0.0000000001
 40
0.0
 40
0.0
 40
0.0
 40
0.0
 40
0.0151515151515152
 40
0.0151515151515152
 40
0.0151515151515152
 40
0.0151515151515152
 40
0.0303030303030303
 40
0.0303030303030303
 40
0.0303030303030303
 40
0.0303030303030303
 40
0.0454545454545455
 40
0.0454545454545455
 40
0.0454545454545455
 40
0.0454545454545455
 40
0.0606060606060606
 40
0.0606060606060606
 40
0.0606060606060606
 40
0.0606060606060606
 40
0.0757575757575758
 40
0.0757575757575758
 40
0.0757575757575758
 40
0.0757575757575758
 40
0.0909090909090909
 40
0.0909090909090909
 40
0.0909090909090909
 40
0.0909090909090909
 40
0.1060606060606061
 40
0.1060606060606061
 40
0.1060606060606061
 40
0.1060606060606061
 40
0.1212121212121212
 40
0.1212121212121212
 40
0.1212121212121212
 40
0.1212121212121212
 40
0.1363636363636364
 40
0.1363636363636364
 40
0.1363636363636364
 40
0.1363636363636364
 40
0.1515151515151515
 40
0.1515151515151515
 40
0.1515151515151515
 40
0.1515151515151515
 40
0.1666666666666666
 40
0.1666666666666666
 40
0.1666666666666666
 40
0.1666666666666666
 40
0.1818181818181818
 40
0.1818181818181818
 40
0.1818181818181818
 40
0.1818181818181818
 40
0.1969696969696969
 40
0.1969696969696969
 40
0.1969696969696969
 40
0.1969696969696969
 40
0.212121212121212
 40
0.212121212121212
 40
0.212121212121212
 40
0.212121212121212
 40
0.2272727272727272
 40
0.2272727272727272
 40
0.2272727272727272
 40
0.2272727272727272
 40
0.2424242424242423
 40
0.2424242424242423
 40
0.2424242424242423
 40
0.2424242424242423
 40
0.2575757575757575
 40
0.2575757575757575
 40
0.2575757575757575
 40
0.2575757575757575
 40
0.2727272727272726
 40
0.2727272727272726
 40
0.2727272727272726
 40
0.2727272727272726
 40
0.2878787878787877
 40
0.2878787878787877
 40
0.2878787878787877
 40
0.2878787878787877
 40
0.3030303030303029
 40
0.3030303030303029
 40
0.3030303030303029
 40
0.3030303030303029
 40
0.318181818181818
 40
0.318181818181818
 40
0.318181818181818
 40
0.318181818181818
 40
0.3333333333333332
 40
0.3333333333333332
 40
0.3333333333333332
 40
0.3333333333333332
 40
0.3484848484848483
 40
0.3484848484848483
 40
0.3484848484848483
 40
0.3484848484848483
 40
0.3636363636363634
 40
0.3636363636363634
 40
0.3636363636363634
 40
0.3636363636363634
 40
0.3787878787878786
 40
0.3787878787878786
 40
0.3787878787878786
 40
0.3787878787878786
 40
0.3939393939393937
 40
0.3939393939393937
 40
0.3939393939393937
 40
0.3939393939393937
 40
0.4090909090909088
 40
0.4090909090909088
 40
0.4090909090909088
 40
0.4090909090909088
 40
0.424242424242424
 40
0.424242424242424
 40
0.424242424242424
 40
0.424242424242424
 40
0.4393939393939391
 40
0.4393939393939391
 40
0.4393939393939391
 40
0.4393939393939391
 40
0.4545454545454543
 40
0.4545454545454543
 40
0.4545454545454543
 40
0.4545454545454543
 40
0.4696969696969694
 40
0.4696969696969694
 40
0.4696969696969694
 40
0.4696969696969694
 40
0.4848484848484845
 40
0.4848484848484845
 40
0.4848484848484845
 40
0.4848484848484845
 40
0.4999999999999997
 40
0.4999999999999997
 40
0.4999999999999997
 40
0.4999999999999997
 40
0.5151515151515148
 40
0.5151515151515148
 40
0.5151515151515148
 40
0.5151515151515148
 40
0.5303030303030299
 40
0.5303030303030299
 40
0.5303030303030299
 40
0.5303030303030299
 40
0.5454545454545451
 40
0.5454545454545451
 40
0.5454545454545451
 40
0.5454545454545451
 40
0.5606060606060602
 40
0.5606060606060602
 40
0.5606060606060602
 40
0.5606060606060602
 40
0.5757575757575754
 40
0.5757575757575754
 40
0.5757575757575754
 40
0.5757575757575754
 40
0.5909090909090905
 40
0.5909090909090905
 40
0.5909090909090905
 40
0.5909090909090905
 40
0.6060606060606056
 40
0.6060606060606056
 40
0.6060606060606056
 40
0.6060606060606056
 40
0.6212121212121208
 40
0.6212121212121208
 40
0.6212121212121208
 40
0.6212121212121208
 40
0.6363636363636359
 40
0.6363636363636359
 40
0.6363636363636359
 40
0.6363636363636359
 40
0.6515151515151511
 40
0.6515151515151511
 40
0.6515151515151511
 40
0.6515151515151511
 40
0.6666666666666662
 40
0.6666666666666662
 40
0.6666666666666662
 40
0.6666666666666662
 40
0.6818181818181813
 40
0.6818181818181813
 40
0.6818181818181813
 40
0.6818181818181813
 40
0.6969696969696965
 40
0.6969696969696965
 40
0.6969696969696965
 40
0.6969696969696965
 40
0.7121212121212116
 40
0.7121212121212116
 40
0.7121212121212116
 40
0.7121212121212116
 40
0.7272727272727267
 40
0.7272727272727267
 40
0.7272727272727267
 40
0.7272727272727267
 40
0.7424242424242419
 40
0.7424242424242419
 40
0.7424242424242419
 40
0.7424242424242419
 40
0.757575757575757
 40
0.757575757575757
 40
0.757575757575757
 40
0.757575757575757
 40
0.7727272727272722
 40
0.7727272727272722
 40
0.7727272727272722
 40
0.7727272727272722
 40
0.7878787878787873
 40
0.7878787878787873
 40
0.7878787878787873
 40
0.7878787878787873
 40
0.8030303030303024
 40
0.8030303030303024
 40
0.8030303030303024
 40
0.8030303030303024
 40
0.8181818181818176
 40
0.8181818181818176
 40
0.8181818181818176
 40
0.8181818181818176
 40
0.8333333333333327
 40
0.8333333333333327
 40
0.8333333333333327
 40
0.8333333333333327
 40
0.8484848484848478
 40
0.8484848484848478
 40
0.8484848484848478
 40
0.8484848484848478
 40
0.863636363636363
 40
0.863636363636363
 40
0.863636363636363
 40
0.863636363636363
 40
0.8787878787878781
 40
0.8787878787878781
 40
0.8787878787878781
 40
0.8787878787878781
 40
0.8939393939393933
 40
0.8939393939393933
 40
0.8939393939393933
 40
0.8939393939393933
 40
0.9090909090909084
 40
0.9090909090909084
 40
0.9090909090909084
 40
0.9090909090909084
 40
0.9242424242424235
 40
0.9242424242424235
 40
0.9242424242424235
 40
0.9242424242424235
 40
0.9393939393939387
 40
0.9393939393939387
 40
0.9393939393939387
 40
0.9393939393939387
 40
0.9545454545454538
 40
0.9545454545454538
 40
0.9545454545454538
 40
0.9545454545454538
 40
0.969696969696969
 40
0.969696969696969
 40
0.969696969696969
 40
0.969696969696969
 40
0.9848484848484841
 40
0.9848484848484841
 40
0.9848484848484841
 40
0.9848484848484841
 40
1.0
 40
1.0
 40
1.0
 40
1.0
 10
0.17286
 20
6.5805700000000007
 30
0.0
 10
0.19572
 20
6.5653300000000003
 30
0.0
 10
0.21858
 20
6.5500900000000009
 30
0.0
 10
0.24144
 20
6.5323100000000007
 30
0.0
 10
0.24144
 20
6.5323100000000007
 30
0.0
 10
0.3989200000000001
 20
6.5221500000000008
 30
0.0
 10
0.5233800000000001
 20
6.4103900000000005
 30
0.0
 10
0.531
 20
6.2732300000000008
 30
0.0
 10
0.531
 20
6.2732300000000008
 30
0.0
 10
0.531
 20
6.2732300000000008
 30
0.0
 10
0.5640200000000001
 20
6.2427500000000009
 30
0.0
 10
0.5640200000000001
 20
6.2427500000000009
 30
0.0
 10
0.5640200000000001
 20
6.2427500000000009
 30
0.0
 10
0.7316600000000001
 20
6.2376700000000005
 30
0.0
 10
0.8662800000000001
 20
6.1182900000000009
 30
0.0
 10
0.8662800000000001
 20
5.9709700000000003
 30
0.0
 10
0.8662800000000001
 20
5.9709700000000003
 30
0.0
 10
0.8662800000000001
 20
5.8592100000000009
 30
0.0
 10
0.78754
 20
5.7626900000000001
 30
0.0
 10
0.6757800000000001
 20
5.7195100000000005
 30
0.0
 10
0.6757800000000001
 20
5.7195100000000005
 30
0.0
 10
0.6199
 20
5.4121700000000006
 30
0.0
 10
0.7088000000000001
 20
5.0692700000000004
 30
0.0
 10
0.7392800000000001
 20
4.6933500000000006
 30
0.0
 10
0.7392800000000001
 20
4.6933500000000006
 30
0.0
 10
1.9330800000000001
 20
4.5180899999999999
 30
0.0
 10
2.7941400000000001
 20
3.3903300000000001
 30
0.0
 10
2.8170000000000002
 20
2.1863700000000001
 30
0.0
 10
2.8170000000000002
 20
2.1863700000000001
 30
0.0
 10
3.1675200000000001
 20
2.21177
 30
0.0
 10
3.5409000000000002
 20
2.1508100000000003
 30
0.0
 10
3.8685600000000004
 20
2.2244700000000002
 30
0.0
 10
3.8685600000000004
 20
2.2244700000000002
 30
0.0
 10
3.9041200000000003
 20
2.2955900000000002
 30
0.0
 10
3.9777800000000005
 20
2.34639
 30
0.0
 10
4.0666800000000007
 20
2.34639
 30
0.0
 10
4.0666800000000007
 20
2.34639
 30
0.0
 10
4.1759000000000004
 20
2.34639
 30
0.0
 10
4.2648000000000001
 20
2.2676500000000002
 30
0.0
 10
4.2825800000000003
 20
2.1660500000000003
 30
0.0
 10
4.2825800000000003
 20
2.1660500000000003
 30
0.0
 10
4.2825800000000003
 20
2.1660500000000003
 30
0.0
 10
4.3003600000000004
 20
2.1457300000000004
 30
0.0
 10
4.3003600000000004
 20
2.1457300000000004
 30
0.0
 10
4.3003600000000004
 20
2.1457300000000004
 30
0.0
 10
4.4222800000000007
 20
2.1457300000000004
 30
0.0
 10
4.5188000000000006
 20
2.04921
 30
0.0
 10
4.5188000000000006
 20
1.9323700000000001
 30
0.0
 10
4.5188000000000006
 20
1.9323700000000001
 30
0.0
 10
4.5188000000000006
 20
1.9145900000000002
 30
0.0
 10
4.5162599999999999
 20
1.8968100000000001
 30
0.0
 10
4.5111800000000004
 20
1.8790300000000002
 30
0.0
 10
4.5111800000000004
 20
1.8790300000000002
 30
0.0
 10
4.5289600000000005
 20
1.8536300000000001
 30
0.0
 10
4.5467400000000007
 20
1.8282300000000002
 30
0.0
 10
4.5645200000000008
 20
1.8002900000000002
 30
0.0
 10
4.5645200000000008
 20
1.8002900000000002
 30
0.0
 10
4.6534200000000006
 20
1.7748900000000001
 30
0.0
 10
4.7194600000000007
 20
1.6936100000000001
 30
0.0
 10
4.7194600000000007
 20
1.5970900000000001
 30
0.0
 10
4.7194600000000007
 20
1.5970900000000001
 30
0.0
 10
4.7194600000000007
 20
1.4802500000000001
 30
0.0
 10
4.6229400000000007
 20
1.3862700000000001
 30
0.0
 10
4.5035600000000002
 20
1.3862700000000001
 30
0.0
 10
4.5035600000000002
 20
1.3862700000000001
 30
0.0
 10
4.5035600000000002
 20
1.3837300000000001
 30
0.0
 10
4.5035600000000002
 20
1.3786500000000002
 30
0.0
 10
4.5010200000000005
 20
1.3761100000000002
 30
0.0
 10
4.5010200000000005
 20
1.3761100000000002
 30
0.0
 10
4.5340400000000001
 20
1.3405500000000001
 30
0.0
 10
4.5518200000000002
 20
1.2922900000000002
 30
0.0
 10
4.5518200000000002
 20
1.2414900000000002
 30
0.0
 10
4.5518200000000002
 20
1.2414900000000002
 30
0.0
 10
4.5518200000000002
 20
1.1297300000000001
 30
0.0
 10
4.4654600000000002
 20
1.0382900000000002
 30
0.0
 10
4.3537000000000008
 20
1.03067
 30
0.0
 10
4.3537000000000008
 20
1.03067
 30
0.0
 10
4.3308400000000002
 20
1.0103500000000001
 30
0.0
 10
4.3054399999999999
 20
0.9925700000000001
 30
0.0
 10
4.2800400000000005
 20
0.97733
 30
0.0
 10
4.2800400000000005
 20
0.97733
 30
0.0
 10
4.2622600000000004
 20
0.8808100000000001
 30
0.0
 10
4.1733600000000006
 20
0.8046100000000001
 30
0.0
 10
4.0666800000000007
 20
0.8046100000000001
 30
0.0
 10
4.0666800000000007
 20
0.8046100000000001
 30
0.0
 10
3.9854000000000003
 20
0.8046100000000001
 30
0.0
 10
3.9142800000000002
 20
0.84779
 30
0.0
 10
3.8787200000000004
 20
0.91129
 30
0.0
 10
3.8787200000000004
 20
0.91129
 30
0.0
 10
3.4875600000000002
 20
0.9265300000000001
 30
0.0
 10
2.9998800000000001
 20
1.06369
 30
0.0
 10
2.6569800000000003
 20
0.9163700000000001
 30
0.0
 10
2.6569800000000003
 20
0.9163700000000001
 30
0.0
 10
2.5884
 20
0.78683
 30
0.0
 10
2.54522
 20
0.64205
 30
0.0
 10
2.4918800000000001
 20
0.4972700000000001
 30
0.0
 10
2.4918800000000001
 20
0.4972700000000001
 30
0.0
 10
2.8906600000000005
 20
-0.30282
 30
0.0
 10
1.5165200000000001
 20
-0.59238
 30
0.0
 10
1.11266
 20
-0.1428
 30
0.0
 10
1.11266
 20
-0.1428
 30
0.0
 10
0.9780400000000001
 20
-0.4476000000000001
 30
0.0
 10
1.1202800000000002
 20
-0.7701800000000001
 30
0.0
 10
1.1406000000000001
 20
-1.07498
 30
0.0
 10
1.1406000000000001
 20
-1.07498
 30
0.0
 10
1.0034400000000001
 20
-1.1867400000000001
 30
0.0
 10
1.0085200000000001
 20
-1.4280400000000002
 30
0.0
 10
0.8231000000000001
 20
-1.2832600000000001
 30
0.0
 10
0.8231000000000001
 20
-1.2832600000000001
 30
0.0
 10
0.9247000000000001
 20
-2.8352000000000004
 30
0.0
 10
0.785
 20
-4.3846000000000007
 30
0.0
 10
0.8866000000000001
 20
-5.8730400000000005
 30
0.0
 10
0.8866000000000001
 20
-5.8730400000000005
 30
0.0
 10
0.9755
 20
-5.9213000000000005
 30
0.0
 10
1.0339200000000002
 20
-6.0076600000000004
 30
0.0
 10
1.0339200000000002
 20
-6.1041800000000004
 30
0.0
 10
1.0339200000000002
 20
-6.1041800000000004
 30
0.0
 10
1.0339200000000002
 20
-6.2540400000000007
 30
0.0
 10
0.8993000000000001
 20
-6.3734200000000003
 30
0.0
 10
0.7316600000000001
 20
-6.3734200000000003
 30
0.0
 10
0.7316600000000001
 20
-6.3734200000000003
 30
0.0
 10
0.7316600000000001
 20
-6.5182000000000002
 30
0.0
 10
0.6046600000000001
 20
-6.6350400000000009
 30
0.0
 10
0.4421000000000001
 20
-6.6401200000000005
 30
0.0
 10
0.4421000000000001
 20
-6.6401200000000005
 30
0.0
 10
0.3913
 20
-6.7264800000000005
 30
0.0
 10
0.29224
 20
-6.7874400000000001
 30
0.0
 10
0.1754
 20
-6.7874400000000001
 30
0.0
 10
0.1754
 20
-6.7874400000000001
 30
0.0
 10
0.04078
 20
-6.7874400000000001
 30
0.0
 10
-0.06843
 20
-6.7087000000000003
 30
0.0
 10
-0.10907
 20
-6.6045600000000002
 30
0.0
 10
-0.10907
 20
-6.6045600000000002
 30
0.0
 10
-0.12431
 20
-6.6071000000000009
 30
0.0
 10
-0.14209
 20
-6.6071000000000009
 30
0.0
 10
-0.15733
 20
-6.6071000000000009
 30
0.0
 10
-0.15733
 20
-6.6071000000000009
 30
0.0
 10
-0.3224300000000001
 20
-6.6071000000000009
 30
0.0
 10
-0.45451
 20
-6.4902600000000001
 30
0.0
 10
-0.4595900000000001
 20
-6.3454800000000002
 30
0.0
 10
-0.4595900000000001
 20
-6.3454800000000002
 30
0.0
 10
-0.5992900000000001
 20
-6.3226200000000006
 30
0.0
 10
-0.7059700000000001
 20
-6.2134000000000009
 30
0.0
 10
-0.7059700000000001
 20
-6.0838600000000005
 30
0.0
 10
-0.7059700000000001
 20
-6.0838600000000005
 30
0.0
 10
-0.7059700000000001
 20
-5.9797200000000004
 30
0.0
 10
-0.63739
 20
-5.8882800000000008
 30
0.0
 10
-0.5408700000000001
 20
-5.8451000000000004
 30
0.0
 10
-0.5408700000000001
 20
-5.8451000000000004
 30
0.0
 10
-0.39355
 20
-4.3947600000000007
 30
0.0
 10
-0.6297700000000001
 20
-2.8783800000000004
 30
0.0
 10
-0.5637300000000001
 20
-1.4128000000000001
 30
0.0
 10
-0.5637300000000001
 20
-1.4128000000000001
 30
0.0
 10
-0.8202700000000001
 20
-1.5093200000000002
 30
0.0
 10
-0.7364500000000001
 20
-1.20452
 30
0.0
 10
-0.9142500000000001
 20
-1.1715
 30
0.0
 10
-0.9142500000000001
 20
-1.1715
 30
0.0
 10
-0.8583700000000001
 20
-0.8336800000000001
 30
0.0
 10
-0.8355100000000001
 20
-0.5136400000000001
 30
0.0
 10
-0.8710700000000001
 20
-0.19106
 30
0.0
 10
-0.8710700000000001
 20
-0.19106
 30
0.0
 10
-1.29017
 20
-0.7447800000000001
 30
0.0
 10
-2.7151100000000001
 20
-0.78034
 30
0.0
 10
-2.23251
 20
0.30677
 30
0.0
 10
-2.23251
 20
0.30677
 30
0.0
 10
-2.23759
 20
0.41853
 30
0.0
 10
-2.2579100000000003
 20
0.53029
 30
0.0
 10
-2.3163300000000002
 20
0.6268100000000001
 30
0.0
 10
-2.3163300000000002
 20
0.6268100000000001
 30
0.0
 10
-2.7252700000000001
 20
0.7995300000000001
 30
0.0
 10
-3.2993100000000002
 20
0.6318900000000001
 30
0.0
 10
-3.7412700000000001
 20
0.63697
 30
0.0
 10
-3.7412700000000001
 20
0.63697
 30
0.0
 10
-3.7895300000000005
 20
0.57601
 30
0.0
 10
-3.8657300000000001
 20
0.53791
 30
0.0
 10
-3.9495500000000003
 20
0.53791
 30
0.0
 10
-3.9495500000000003
 20
0.53791
 30
0.0
 10
-4.0790900000000008
 20
0.53791
 30
0.0
 10
-4.1857700000000007
 20
0.6293500000000001
 30
0.0
 10
-4.2086300000000003
 20
0.74873
 30
0.0
 10
-4.2086300000000003
 20
0.74873
 30
0.0
 10
-4.34579
 20
0.7563500000000001
 30
0.0
 10
-4.4575500000000003
 20
0.8681100000000001
 30
0.0
 10
-4.4575500000000003
 20
1.0052700000000001
 30
0.0
 10
-4.4575500000000003
 20
1.0052700000000001
 30
0.0
 10
-4.4575500000000003
 20
1.0128900000000001
 30
0.0
 10
-4.4575500000000003
 20
1.02051
 30
0.0
 10
-4.4575500000000003
 20
1.02813
 30
0.0
 10
-4.4575500000000003
 20
1.02813
 30
0.0
 10
-4.5997900000000005
 20
1.03067
 30
0.0
 10
-4.7140900000000006
 20
1.14497
 30
0.0
 10
-4.7140900000000006
 20
1.2846700000000002
 30
0.0
 10
-4.7140900000000006
 20
1.2846700000000002
 30
0.0
 10
-4.7140900000000006
 20
1.4192900000000002
 30
0.0
 10
-4.6099500000000004
 20
1.53105
 30
0.0
 10
-4.4753300000000005
 20
1.5412100000000002
 30
0.0
 10
-4.4753300000000005
 20
1.5412100000000002
 30
0.0
 10
-4.4981900000000001
 20
1.5818500000000002
 30
0.0
 10
-4.5134300000000005
 20
1.6275700000000002
 30
0.0
 10
-4.5134300000000005
 20
1.6758300000000002
 30
0.0
 10
-4.5134300000000005
 20
1.6758300000000002
 30
0.0
 10
-4.5134300000000005
 20
1.8104500000000001
 30
0.0
 10
-4.4067500000000006
 20
1.9222100000000002
 30
0.0
 10
-4.2721300000000006
 20
1.9323700000000001
 30
0.0
 10
-4.2721300000000006
 20
1.9323700000000001
 30
0.0
 10
-4.2721300000000006
 20
1.9323700000000001
 30
0.0
 10
-4.2670500000000002
 20
1.9374500000000001
 30
0.0
 10
-4.2670500000000002
 20
1.9374500000000001
 30
0.0
 10
-4.2670500000000002
 20
1.9374500000000001
 30
0.0
 10
-4.2264100000000004
 20
2.0263500000000003
 30
0.0
 10
-4.13497
 20
2.0898500000000002
 30
0.0
 10
-4.0282900000000001
 20
2.0898500000000002
 30
0.0
 10
-4.0282900000000001
 20
2.0898500000000002
 30
0.0
 10
-3.9063700000000003
 20
2.0898500000000002
 30
0.0
 10
-3.8022300000000002
 20
2.0085700000000002
 30
0.0
 10
-3.7742900000000001
 20
1.8968100000000001
 30
0.0
 10
-3.7742900000000001
 20
1.8968100000000001
 30
0.0
 10
-3.7742900000000001
 20
1.8968100000000001
 30
0.0
 10
-2.52461
 20
1.9603100000000002
 30
0.0
 10
-2.52461
 20
1.9603100000000002
 30
0.0
 10
-2.52461
 20
1.9603100000000002
 30
0.0
 10
-2.5931900000000003
 20
3.1515700000000004
 30
0.0
 10
-1.8616700000000002
 20
4.3072699999999999
 30
0.0
 10
-0.6932700000000001
 20
4.5968300000000006
 30
0.0
 10
-0.6932700000000001
 20
4.5968300000000006
 30
0.0
 10
-0.6094500000000001
 20
4.8889300000000002
 30
0.0
 10
-0.6678700000000001
 20
5.2699300000000004
 30
0.0
 10
-0.7313700000000001
 20
5.5747300000000006
 30
0.0
 10
-0.7313700000000001
 20
5.5747300000000006
 30
0.0
 10
-0.7313700000000001
 20
5.5747300000000006
 30
0.0
 10
-0.73899
 20
5.6102900000000009
 30
0.0
 10
-0.73899
 20
5.6102900000000009
 30
0.0
 10
-0.73899
 20
5.6102900000000009
 30
0.0
 10
-0.8913900000000001
 20
5.6306100000000008
 30
0.0
 10
-1.00569
 20
5.7449100000000008
 30
0.0
 10
-1.00569
 20
5.8820700000000006
 30
0.0
 10
-1.00569
 20
5.8820700000000006
 30
0.0
 10
-1.00569
 20
6.0090700000000004
 30
0.0
 10
-0.9040900000000001
 20
6.1157500000000002
 30
0.0
 10
-0.7669300000000001
 20
6.1462300000000001
 30
0.0
 10
-0.7669300000000001
 20
6.1462300000000001
 30
0.0
 10
-0.7694700000000001
 20
6.1614700000000004
 30
0.0
 10
-0.7720100000000001
 20
6.1767100000000008
 30
0.0
 10
-0.7720100000000001
 20
6.1944900000000009
 30
0.0
 10
-0.7720100000000001
 20
6.1944900000000009
 30
0.0
 10
-0.7720100000000001
 20
6.3443500000000004
 30
0.0
 10
-0.6297700000000001
 20
6.4662700000000006
 30
0.0
 10
-0.45451
 20
6.4662700000000006
 30
0.0
 10
-0.45451
 20
6.4662700000000006
 30
0.0
 10
-0.45451
 20
6.4662700000000006
 30
0.0
 10
-0.44435
 20
6.4662700000000006
 30
0.0
 10
-0.44435
 20
6.4662700000000006
 30
0.0
 10
-0.44435
 20
6.4662700000000006
 30
0.0
 10
-0.44689
 20
6.4789700000000003
 30
0.0
 10
-0.4494300000000001
 20
6.4942100000000007
 30
0.0
 10
-0.4494300000000001
 20
6.5069100000000004
 30
0.0
 10
-0.4494300000000001
 20
6.5069100000000004
 30
0.0
 10
-0.4494300000000001
 20
6.6567700000000007
 30
0.0
 10
-0.30465
 20
6.7812300000000008
 30
0.0
 10
-0.12939
 20
6.7812300000000008
 30
0.0
 10
-0.12939
 20
6.7812300000000008
 30
0.0
 10
0.01284
 20
6.7812300000000008
 30
0.0
 10
0.1373
 20
6.6948700000000008
 30
0.0
 10
0.17286
 20
6.5805700000000007
 30
0.0
  0
SPLINE
  5
26
100
AcDbEntity
  8
Ebene 1
 62
     7
100
AcDbSpline
210
0.0
220
0.0
230
1.0
 70
     1
 71
     3
 72
    56
 73
    52
 74
     0
 42
0.0000000001
 43
0.0000000001
 40
0.0
 40
0.0
 40
0.0
 40
0.0
 40
0.0769230769230769
 40
0.0769230769230769
 40
0.0769230769230769
 40
0.0769230769230769
 40
0.1538461538461539
 40
0.1538461538461539
 40
0.1538461538461539
 40
0.1538461538461539
 40
0.2307692307692308
 40
0.2307692307692308
 40
0.2307692307692308
 40
0.2307692307692308
 40
0.3076923076923077
 40
0.3076923076923077
 40
0.3076923076923077
 40
0.3076923076923077
 40
0.3846153846153846
 40
0.3846153846153846
 40
0.3846153846153846
 40
0.3846153846153846
 40
0.4615384615384616
 40
0.4615384615384616
 40
0.4615384615384616
 40
0.4615384615384616
 40
0.5384615384615386
 40
0.5384615384615386
 40
0.5384615384615386
 40
0.5384615384615386
 40
0.6153846153846154
 40
0.6153846153846154
 40
0.6153846153846154
 40
0.6153846153846154
 40
0.6923076923076923
 40
0.6923076923076923
 40
0.6923076923076923
 40
0.6923076923076923
 40
0.7692307692307692
 40
0.7692307692307692
 40
0.7692307692307692
 40
0.7692307692307692
 40
0.846153846153846
 40
0.846153846153846
 40
0.846153846153846
 40
0.846153846153846
 40
0.9230769230769229
 40
0.9230769230769229
 40
0.9230769230769229
 40
0.9230769230769229
 40
1.0
 40
1.0
 40
1.0
 40
1.0
 10
-0.11161
 20
6.6872500000000006
 30
0.0
 10
0.02554
 20
6.6872500000000006
 30
0.0
 10
0.11698
 20
6.5094500000000002
 30
0.0
 10
0.10174
 20
6.3824500000000004
 30
0.0
 10
0.10174
 20
6.3824500000000004
 30
0.0
 10
0.29732
 20
6.5907300000000006
 30
0.0
 10
0.47766
 20
6.3494300000000008
 30
0.0
 10
0.42178
 20
6.1411500000000006
 30
0.0
 10
0.42178
 20
6.1411500000000006
 30
0.0
 10
0.5437000000000001
 20
6.1563900000000009
 30
0.0
 10
0.6859400000000001
 20
6.1411500000000006
 30
0.0
 10
0.7342000000000001
 20
6.0116100000000001
 30
0.0
 10
0.7342000000000001
 20
6.0116100000000001
 30
0.0
 10
0.74182
 20
5.9633500000000002
 30
0.0
 10
0.74182
 20
5.9150900000000002
 30
0.0
 10
0.71896
 20
5.8668300000000002
 30
0.0
 10
0.71896
 20
5.8668300000000002
 30
0.0
 10
0.67832
 20
5.8363500000000004
 30
0.0
 10
0.63768
 20
5.8033300000000008
 30
0.0
 10
0.5818000000000001
 20
5.8033300000000008
 30
0.0
 10
0.5818000000000001
 20
5.8033300000000008
 30
0.0
 10
0.531
 20
5.3842300000000005
 30
0.0
 10
0.7596000000000001
 20
4.9016300000000008
 30
0.0
 10
0.5818000000000001
 20
4.5180899999999999
 30
0.0
 10
0.5818000000000001
 20
4.5180899999999999
 30
0.0
 10
0.47004
 20
5.0311700000000004
 30
0.0
 10
0.7316600000000001
 20
6.0751100000000005
 30
0.0
 10
-0.12685
 20
5.8820700000000006
 30
0.0
 10
-0.12685
 20
5.8820700000000006
 30
0.0
 10
-0.8405900000000001
 20
5.7372900000000007
 30
0.0
 10
-0.35291
 20
4.9016300000000008
 30
0.0
 10
-0.51293
 20
4.4368100000000004
 30
0.0
 10
-0.51293
 20
4.4368100000000004
 30
0.0
 10
-0.63231
 20
4.7416100000000005
 30
0.0
 10
-0.63231
 20
5.2242100000000002
 30
0.0
 10
-0.6094500000000001
 20
5.5925100000000008
 30
0.0
 10
-0.6094500000000001
 20
5.5925100000000008
 30
0.0
 10
-0.6094500000000001
 20
5.5925100000000008
 30
0.0
 10
-0.6272300000000001
 20
5.6915700000000005
 30
0.0
 10
-0.6272300000000001
 20
5.6915700000000005
 30
0.0
 10
-0.6272300000000001
 20
5.6915700000000005
 30
0.0
 10
-0.8964700000000001
 20
5.6737900000000003
 30
0.0
 10
-0.8812300000000001
 20
6.1081300000000001
 30
0.0
 10
-0.61199
 20
6.0751100000000005
 30
0.0
 10
-0.61199
 20
6.0751100000000005
 30
0.0
 10
-0.66025
 20
6.2376700000000005
 30
0.0
 10
-0.5205500000000001
 20
6.4611900000000002
 30
0.0
 10
-0.33767
 20
6.3341900000000004
 30
0.0
 10
-0.33767
 20
6.3341900000000004
 30
0.0
 10
-0.26147
 20
6.4459500000000007
 30
0.0
 10
-0.28941
 20
6.6720100000000002
 30
0.0
 10
-0.11161
 20
6.6872500000000006
 30
0.0
  0
SPLINE
  5
27
100
AcDbEntity
  8
Ebene 1
 62
     7
100
AcDbSpline
210
0.0
220
0.0
230
1.0
 70
     1
 71
     3
 72
    28
 73
    24
 74
     0
 42
0.0000000001
 43
0.0000000001
 40
0.0
 40
0.0
 40
0.0
 40
0.0
 40
0.1666666666666667
 40
0.1666666666666667
 40
0.1666666666666667
 40
0.1666666666666667
 40
0.3333333333333333
 40
0.3333333333333333
 40
0.3333333333333333
 40
0.3333333333333333
 40
0.5
 40
0.5
 40
0.5
 40
0.5
 40
0.6666666666666666
 40
0.6666666666666666
 40
0.6666666666666666
 40
0.6666666666666666
 40
0.8333333333333333
 40
0.8333333333333333
 40
0.8333333333333333
 40
0.8333333333333333
 40
1.0
 40
1.0
 40
1.0
 40
1.0
 10
-0.06335
 20
5.8185700000000002
 30
0.0
 10
0.3786000000000001
 20
5.8998500000000007
 30
0.0
 10
0.47766
 20
5.4324900000000005
 30
0.0
 10
0.40146
 20
5.0972100000000005
 30
0.0
 10
0.40146
 20
5.0972100000000005
 30
0.0
 10
0.4827400000000001
 20
4.75685
 30
0.0
 10
0.4421000000000001
 20
4.4368100000000004
 30
0.0
 10
0.23636
 20
4.16249
 30
0.0
 10
0.23636
 20
4.16249
 30
0.0
 10
0.15254
 20
4.21075
 30
0.0
 10
0.08142
 20
4.2920300000000005
 30
0.0
 10
0.01284
 20
4.37331
 30
0.0
 10
0.01284
 20
4.37331
 30
0.0
 10
-0.07605
 20
4.3555300000000008
 30
0.0
 10
-0.15987
 20
4.2920300000000005
 30
0.0
 10
-0.23353
 20
4.2437700000000005
 30
0.0
 10
-0.23353
 20
4.2437700000000005
 30
0.0
 10
-0.4824500000000001
 20
4.5968300000000006
 30
0.0
 10
-0.43419
 20
5.0972100000000005
 30
0.0
 10
-0.44435
 20
5.5290100000000004
 30
0.0
 10
-0.44435
 20
5.5290100000000004
 30
0.0
 10
-0.35037
 20
5.6585500000000009
 30
0.0
 10
-0.20813
 20
5.7703100000000003
 30
0.0
 10
-0.06335
 20
5.8185700000000002
 30
0.0
  0
SPLINE
  5
28
100
AcDbEntity
  8
Ebene 1
100
AcDbSpline
210
0.0
220
0.0
230
1.0
 70
     1
 71
     3
 72
    12
 73
     8
 74
     0
 42
0.0000000001
 43
0.0000000001
 40
0.0
 40
0.0
 40
0.0
 40
0.0
 40
0.5
 40
0.5
 40
0.5
 40
0.5
 40
1.0
 40
1.0
 40
1.0
 40
1.0
 10
-0.06335
 20
5.6585500000000009
 30
0.0
 10
0.11444
 20
5.6585500000000009
 30
0.0
 10
0.20842
 20
5.4502700000000006
 30
0.0
 10
0.01538
 20
5.3689900000000002
 30
0.0
 10
0.01538
 20
5.3689900000000002
 30
0.0
 10
-0.21829
 20
5.2877100000000006
 30
0.0
 10
-0.29449
 20
5.6433100000000005
 30
0.0
 10
-0.06335
 20
5.6585500000000009
 30
0.0
  0
SPLINE
  5
29
100
AcDbEntity
  8
Ebene 1
 62
     7
100
AcDbSpline
210
0.0
220
0.0
230
1.0
 70
     1
 71
     3
 72
    12
 73
     8
 74
     0
 42
0.0000000001
 43
0.0000000001
 40
0.0
 40
0.0
 40
0.0
 40
0.0
 40
0.5
 40
0.5
 40
0.5
 40
0.5
 40
1.0
 40
1.0
 40
1.0
 40
1.0
 10
-0.06335
 20
5.5925100000000008
 30
0.0
 10
0.00776
 20
5.6102900000000009
 30
0.0
 10
0.10936
 20
5.5290100000000004
 30
0.0
 10
0.02808
 20
5.4655100000000001
 30
0.0
 10
0.02808
 20
5.4655100000000001
 30
0.0
 10
-0.06843
 20
5.3842300000000005
 30
0.0
 10
-0.16241
 20
5.5290100000000004
 30
0.0
 10
-0.06335
 20
5.5925100000000008
 30
0.0
  0
SPLINE
  5
2A
100
AcDbEntity
  8
Ebene 1
 62
     7
100
AcDbSpline
210
0.0
220
0.0
230
1.0
 70
     1
 71
     3
 72
   252
 73
   248
 74
     0
 42
0.0000000001
 43
0.0000000001
 40
0.0
 40
0.0
 40
0.0
 40
0.0
 40
0.0161290322580645
 40
0.0161290322580645
 40
0.0161290322580645
 40
0.0161290322580645
 40
0.032258064516129
 40
0.032258064516129
 40
0.032258064516129
 40
0.032258064516129
 40
0.0483870967741935
 40
0.0483870967741935
 40
0.0483870967741935
 40
0.0483870967741935
 40
0.0645161290322581
 40
0.0645161290322581
 40
0.0645161290322581
 40
0.0645161290322581
 40
0.0806451612903226
 40
0.0806451612903226
 40
0.0806451612903226
 40
0.0806451612903226
 40
0.0967741935483871
 40
0.0967741935483871
 40
0.0967741935483871
 40
0.0967741935483871
 40
0.1129032258064516
 40
0.1129032258064516
 40
0.1129032258064516
 40
0.1129032258064516
 40
0.1290322580645161
 40
0.1290322580645161
 40
0.1290322580645161
 40
0.1290322580645161
 40
0.1451612903225806
 40
0.1451612903225806
 40
0.1451612903225806
 40
0.1451612903225806
 40
0.1612903225806451
 40
0.1612903225806451
 40
0.1612903225806451
 40
0.1612903225806451
 40
0.1774193548387096
 40
0.1774193548387096
 40
0.1774193548387096
 40
0.1774193548387096
 40
0.1935483870967741
 40
0.1935483870967741
 40
0.1935483870967741
 40
0.1935483870967741
 40
0.2096774193548386
 40
0.2096774193548386
 40
0.2096774193548386
 40
0.2096774193548386
 40
0.2258064516129031
 40
0.2258064516129031
 40
0.2258064516129031
 40
0.2258064516129031
 40
0.2419354838709676
 40
0.2419354838709676
 40
0.2419354838709676
 40
0.2419354838709676
 40
0.2580645161290321
 40
0.2580645161290321
 40
0.2580645161290321
 40
0.2580645161290321
 40
0.2741935483870966
 40
0.2741935483870966
 40
0.2741935483870966
 40
0.2741935483870966
 40
0.2903225806451611
 40
0.2903225806451611
 40
0.2903225806451611
 40
0.2903225806451611
 40
0.3064516129032257
 40
0.3064516129032257
 40
0.3064516129032257
 40
0.3064516129032257
 40
0.3225806451612902
 40
0.3225806451612902
 40
0.3225806451612902
 40
0.3225806451612902
 40
0.3387096774193547
 40
0.3387096774193547
 40
0.3387096774193547
 40
0.3387096774193547
 40
0.3548387096774192
 40
0.3548387096774192
 40
0.3548387096774192
 40
0.3548387096774192
 40
0.3709677419354837
 40
0.3709677419354837
 40
0.3709677419354837
 40
0.3709677419354837
 40
0.3870967741935482
 40
0.3870967741935482
 40
0.3870967741935482
 40
0.3870967741935482
 40
0.4032258064516127
 40
0.4032258064516127
 40
0.4032258064516127
 40
0.4032258064516127
 40
0.4193548387096772
 40
0.4193548387096772
 40
0.4193548387096772
 40
0.4193548387096772
 40
0.4354838709677417
 40
0.4354838709677417
 40
0.4354838709677417
 40
0.4354838709677417
 40
0.4516129032258062
 40
0.4516129032258062
 40
0.4516129032258062
 40
0.4516129032258062
 40
0.4677419354838707
 40
0.4677419354838707
 40
0.4677419354838707
 40
0.4677419354838707
 40
0.4838709677419352
 40
0.4838709677419352
 40
0.4838709677419352
 40
0.4838709677419352
 40
0.4999999999999997
 40
0.4999999999999997
 40
0.4999999999999997
 40
0.4999999999999997
 40
0.5161290322580642
 40
0.5161290322580642
 40
0.5161290322580642
 40
0.5161290322580642
 40
0.5322580645161287
 40
0.5322580645161287
 40
0.5322580645161287
 40
0.5322580645161287
 40
0.5483870967741932
 40
0.5483870967741932
 40
0.5483870967741932
 40
0.5483870967741932
 40
0.5645161290322577
 40
0.5645161290322577
 40
0.5645161290322577
 40
0.5645161290322577
 40
0.5806451612903222
 40
0.5806451612903222
 40
0.5806451612903222
 40
0.5806451612903222
 40
0.5967741935483867
 40
0.5967741935483867
 40
0.5967741935483867
 40
0.5967741935483867
 40
0.6129032258064512
 40
0.6129032258064512
 40
0.6129032258064512
 40
0.6129032258064512
 40
0.6290322580645157
 40
0.6290322580645157
 40
0.6290322580645157
 40
0.6290322580645157
 40
0.6451612903225802
 40
0.6451612903225802
 40
0.6451612903225802
 40
0.6451612903225802
 40
0.6612903225806447
 40
0.6612903225806447
 40
0.6612903225806447
 40
0.6612903225806447
 40
0.6774193548387092
 40
0.6774193548387092
 40
0.6774193548387092
 40
0.6774193548387092
 40
0.6935483870967737
 40
0.6935483870967737
 40
0.6935483870967737
 40
0.6935483870967737
 40
0.7096774193548382
 40
0.7096774193548382
 40
0.7096774193548382
 40
0.7096774193548382
 40
0.7258064516129027
 40
0.7258064516129027
 40
0.7258064516129027
 40
0.7258064516129027
 40
0.7419354838709672
 40
0.7419354838709672
 40
0.7419354838709672
 40
0.7419354838709672
 40
0.7580645161290317
 40
0.7580645161290317
 40
0.7580645161290317
 40
0.7580645161290317
 40
0.7741935483870962
 40
0.7741935483870962
 40
0.7741935483870962
 40
0.7741935483870962
 40
0.7903225806451607
 40
0.7903225806451607
 40
0.7903225806451607
 40
0.7903225806451607
 40
0.8064516129032252
 40
0.8064516129032252
 40
0.8064516129032252
 40
0.8064516129032252
 40
0.8225806451612897
 40
0.8225806451612897
 40
0.8225806451612897
 40
0.8225806451612897
 40
0.8387096774193542
 40
0.8387096774193542
 40
0.8387096774193542
 40
0.8387096774193542
 40
0.8548387096774187
 40
0.8548387096774187
 40
0.8548387096774187
 40
0.8548387096774187
 40
0.8709677419354832
 40
0.8709677419354832
 40
0.8709677419354832
 40
0.8709677419354832
 40
0.8870967741935477
 40
0.8870967741935477
 40
0.8870967741935477
 40
0.8870967741935477
 40
0.9032258064516122
 40
0.9032258064516122
 40
0.9032258064516122
 40
0.9032258064516122
 40
0.9193548387096767
 40
0.9193548387096767
 40
0.9193548387096767
 40
0.9193548387096767
 40
0.9354838709677412
 40
0.9354838709677412
 40
0.9354838709677412
 40
0.9354838709677412
 40
0.9516129032258057
 40
0.9516129032258057
 40
0.9516129032258057
 40
0.9516129032258057
 40
0.9677419354838702
 40
0.9677419354838702
 40
0.9677419354838702
 40
0.9677419354838702
 40
0.9838709677419347
 40
0.9838709677419347
 40
0.9838709677419347
 40
0.9838709677419347
 40
1.0
 40
1.0
 40
1.0
 40
1.0
 10
0.7697600000000001
 20
4.5815900000000003
 30
0.0
 10
1.8645
 20
4.4850700000000003
 30
0.0
 10
3.1472000000000002
 20
3.05505
 30
0.0
 10
2.42584
 20
2.0568300000000002
 30
0.0
 10
2.42584
 20
2.0568300000000002
 30
0.0
 10
2.2886800000000003
 20
2.1050900000000001
 30
0.0
 10
2.3166200000000003
 20
2.2346300000000001
 30
0.0
 10
2.37758
 20
2.3311500000000001
 30
0.0
 10
2.37758
 20
2.3311500000000001
 30
0.0
 10
2.6773000000000002
 20
2.9255100000000001
 30
0.0
 10
2.2074000000000003
 20
2.0568300000000002
 30
0.0
 10
2.2226400000000002
 20
2.6537300000000004
 30
0.0
 10
2.2226400000000002
 20
2.6537300000000004
 30
0.0
 10
2.21502
 20
2.6029300000000002
 30
0.0
 10
2.2277200000000001
 20
2.5546700000000002
 30
0.0
 10
2.1845400000000001
 20
2.5394300000000003
 30
0.0
 10
2.1845400000000001
 20
2.5394300000000003
 30
0.0
 10
2.4918800000000001
 20
1.9603100000000002
 30
0.0
 10
2.1007200000000004
 20
1.1246500000000001
 30
0.0
 10
1.4454
 20
1.5920100000000001
 30
0.0
 10
1.4454
 20
1.5920100000000001
 30
0.0
 10
1.4454
 20
1.5920100000000001
 30
0.0
 10
1.1761600000000001
 20
1.52597
 30
0.0
 10
1.1761600000000001
 20
1.52597
 30
0.0
 10
1.1761600000000001
 20
1.52597
 30
0.0
 10
1.18632
 20
1.6250300000000002
 30
0.0
 10
1.3311000000000002
 20
1.7190100000000001
 30
0.0
 10
1.3006200000000001
 20
1.8155300000000001
 30
0.0
 10
1.3006200000000001
 20
1.8155300000000001
 30
0.0
 10
1.0263
 20
1.4954900000000002
 30
0.0
 10
0.49036
 20
1.02813
 30
0.0
 10
0.1119
 20
1.3024500000000001
 30
0.0
 10
0.1119
 20
1.3024500000000001
 30
0.0
 10
0.16778
 20
1.1576700000000002
 30
0.0
 10
0.3405
 20
1.1576700000000002
 30
0.0
 10
0.4624200000000001
 20
1.1424300000000001
 30
0.0
 10
0.4624200000000001
 20
1.1424300000000001
 30
0.0
 10
0.4675
 20
0.64205
 30
0.0
 10
1.4479400000000002
 20
-0.03104
 30
0.0
 10
1.6765400000000001
 20
0.59379
 30
0.0
 10
1.6765400000000001
 20
0.59379
 30
0.0
 10
1.7019400000000002
 20
0.5455300000000001
 30
0.0
 10
1.6181200000000002
 20
0.4007500000000001
 30
0.0
 10
1.7197200000000001
 20
0.4007500000000001
 30
0.0
 10
1.7197200000000001
 20
0.4007500000000001
 30
0.0
 10
1.7197200000000001
 20
0.4007500000000001
 30
0.0
 10
1.7730600000000001
 20
1.3354700000000002
 30
0.0
 10
1.7730600000000001
 20
1.3354700000000002
 30
0.0
 10
1.7730600000000001
 20
1.3354700000000002
 30
0.0
 10
1.9737200000000001
 20
1.23641
 30
0.0
 10
2.1870800000000004
 20
1.3659500000000002
 30
0.0
 10
2.2632800000000004
 20
1.5107300000000001
 30
0.0
 10
2.2632800000000004
 20
1.5107300000000001
 30
0.0
 10
2.6646000000000001
 20
0.9468500000000001
 30
0.0
 10
2.0956400000000004
 20
0.35249
 30
0.0
 10
2.4715600000000002
 20
0.01721
 30
0.0
 10
2.4715600000000002
 20
0.01721
 30
0.0
 10
2.08548
 20
-0.25456
 30
0.0
 10
1.5978000000000001
 20
-0.39934
 30
0.0
 10
1.0923400000000001
 20
0.04769
 30
0.0
 10
1.0923400000000001
 20
0.04769
 30
0.0
 10
0.9932800000000001
 20
0.01721
 30
0.0
 10
0.8993000000000001
 20
-0.00056
 30
0.0
 10
0.80786
 20
-0.04628
 30
0.0
 10
0.80786
 20
-0.04628
 30
0.0
 10
0.74182
 20
-0.1428
 30
0.0
 10
0.61482
 20
-0.22408
 30
0.0
 10
0.6300600000000001
 20
-0.35108
 30
0.0
 10
0.6300600000000001
 20
-0.35108
 30
0.0
 10
0.8942200000000001
 20
-0.10978
 30
0.0
 10
0.8205600000000001
 20
-0.8336800000000001
 30
0.0
 10
0.9450200000000001
 20
-0.2698
 30
0.0
 10
0.9450200000000001
 20
-0.2698
 30
0.0
 10
1.11012
 20
-0.72192
 30
0.0
 10
0.912
 20
-0.5771400000000001
 30
0.0
 10
0.8002400000000001
 20
-1.0267200000000001
 30
0.0
 10
0.8002400000000001
 20
-1.0267200000000001
 30
0.0
 10
0.74182
 20
-0.8336800000000001
 30
0.0
 10
0.76468
 20
-0.80066
 30
0.0
 10
0.7265800000000001
 20
-0.9784600000000001
 30
0.0
 10
0.7265800000000001
 20
-0.9784600000000001
 30
0.0
 10
0.6300600000000001
 20
-0.6889000000000001
 30
0.0
 10
0.5564
 20
-1.04196
 30
0.0
 10
0.5259200000000001
 20
-1.1715
 30
0.0
 10
0.5259200000000001
 20
-1.1715
 30
0.0
 10
0.4675
 20
-0.8082800000000001
 30
0.0
 10
0.31002
 20
-0.88956
 30
0.0
 10
0.1373
 20
-1.2680200000000001
 30
0.0
 10
0.1373
 20
-1.2680200000000001
 30
0.0
 10
0.1373
 20
-1.2680200000000001
 30
0.0
 10
0.19064
 20
-0.9454400000000001
 30
0.0
 10
0.19064
 20
-0.9454400000000001
 30
0.0
 10
0.19064
 20
-0.9454400000000001
 30
0.0
 10
0.19064
 20
-0.9454400000000001
 30
0.0
 10
0.12714
 20
-0.8819400000000001
 30
0.0
 10
0.12714
 20
-0.8819400000000001
 30
0.0
 10
0.12714
 20
-0.8819400000000001
 30
0.0
 10
0.12714
 20
-0.8819400000000001
 30
0.0
 10
0.09158
 20
-1.1537200000000001
 30
0.0
 10
0.09158
 20
-1.1537200000000001
 30
0.0
 10
0.09158
 20
-1.1537200000000001
 30
0.0
 10
0.00776
 20
-1.12324
 30
0.0
 10
0.04078
 20
-0.9606800000000001
 30
0.0
 10
-0.06589
 20
-0.9302
 30
0.0
 10
-0.06589
 20
-0.9302
 30
0.0
 10
-0.13955
 20
-0.9784600000000001
 30
0.0
 10
-0.15987
 20
-1.0902200000000002
 30
0.0
 10
-0.19543
 20
-1.1715
 30
0.0
 10
-0.19543
 20
-1.1715
 30
0.0
 10
-0.27163
 20
-1.1054600000000001
 30
0.0
 10
-0.18273
 20
-0.9937
 30
0.0
 10
-0.21067
 20
-0.9149600000000001
 30
0.0
 10
-0.21067
 20
-0.9149600000000001
 30
0.0
 10
-0.27163
 20
-0.9302
 30
0.0
 10
-0.22845
 20
-1.04196
 30
0.0
 10
-0.27417
 20
-1.0902200000000002
 30
0.0
 10
-0.27417
 20
-1.0902200000000002
 30
0.0
 10
-0.30973
 20
-1.0597400000000001
 30
0.0
 10
-0.3224300000000001
 20
-0.9937
 30
0.0
 10
-0.3224300000000001
 20
-0.9454400000000001
 30
0.0
 10
-0.3224300000000001
 20
-0.9454400000000001
 30
0.0
 10
-0.58913
 20
-1.0267200000000001
 30
0.0
 10
-0.7059700000000001
 20
-0.8336800000000001
 30
0.0
 10
-0.6678700000000001
 20
-0.31806
 30
0.0
 10
-0.6678700000000001
 20
-0.31806
 30
0.0
 10
-0.6246900000000001
 20
-0.38156
 30
0.0
 10
-0.58913
 20
-0.5593600000000001
 30
0.0
 10
-0.51293
 20
-0.5441200000000001
 30
0.0
 10
-0.51293
 20
-0.5441200000000001
 30
0.0
 10
-0.5434100000000001
 20
-0.38156
 30
0.0
 10
-0.63231
 20
-0.2063
 30
0.0
 10
-0.59675
 20
-0.03104
 30
0.0
 10
-0.59675
 20
-0.03104
 30
0.0
 10
-1.1606300000000001
 20
-0.12502
 30
0.0
 10
-1.6864100000000002
 20
-0.8159000000000001
 30
0.0
 10
-2.22743
 20
-0.19106
 30
0.0
 10
-2.22743
 20
-0.19106
 30
0.0
 10
-2.1156700000000002
 20
0.4972700000000001
 30
0.0
 10
-2.4230100000000001
 20
1.1576700000000002
 30
0.0
 10
-2.0191500000000002
 20
1.7698100000000001
 30
0.0
 10
-2.0191500000000002
 20
1.7698100000000001
 30
0.0
 10
-1.9607300000000001
 20
1.7520300000000002
 30
0.0
 10
-1.9988300000000001
 20
1.57423
 30
0.0
 10
-1.9150100000000001
 20
1.6402700000000001
 30
0.0
 10
-1.9150100000000001
 20
1.6402700000000001
 30
0.0
 10
-1.8997700000000002
 20
1.8485500000000001
 30
0.0
 10
-1.8032500000000002
 20
2.0568300000000002
 30
0.0
 10
-1.6406900000000002
 20
2.1863700000000001
 30
0.0
 10
-1.6406900000000002
 20
2.1863700000000001
 30
0.0
 10
-1.8667500000000001
 20
2.24987
 30
0.0
 10
-1.9073900000000001
 20
1.8002900000000002
 30
0.0
 10
-2.1486900000000002
 20
1.8968100000000001
 30
0.0
 10
-2.1486900000000002
 20
1.8968100000000001
 30
0.0
 10
-1.9048500000000002
 20
2.3641700000000001
 30
0.0
 10
-1.9886700000000002
 20
2.2193900000000002
 30
0.0
 10
-1.8134100000000002
 20
2.6537300000000004
 30
0.0
 10
-1.8134100000000002
 20
2.6537300000000004
 30
0.0
 10
-1.9404100000000002
 20
2.6207100000000003
 30
0.0
 10
-2.1232900000000003
 20
2.1381100000000002
 30
0.0
 10
-2.30871
 20
1.9603100000000002
 30
0.0
 10
-2.30871
 20
1.9603100000000002
 30
0.0
 10
-2.7049500000000002
 20
3.0067900000000001
 30
0.0
 10
-1.8108700000000002
 20
4.2437700000000005
 30
0.0
 10
-0.7720100000000001
 20
4.4850700000000003
 30
0.0
 10
-0.7720100000000001
 20
4.4850700000000003
 30
0.0
 10
-0.8913900000000001
 20
4.21075
 30
0.0
 10
-1.2774700000000001
 20
4.0659700000000001
 30
0.0
 10
-1.20381
 20
3.7281500000000003
 30
0.0
 10
-1.20381
 20
3.7281500000000003
 30
0.0
 10
-1.2749300000000001
 20
3.4233500000000001
 30
0.0
 10
-1.1758700000000002
 20
3.2785700000000002
 30
0.0
 10
-1.1555500000000001
 20
3.6494100000000005
 30
0.0
 10
-1.1555500000000001
 20
3.6494100000000005
 30
0.0
 10
-1.2368300000000001
 20
3.9872300000000003
 30
0.0
 10
-0.6856500000000001
 20
4.4520500000000007
 30
0.0
 10
-0.38847
 20
4.1955100000000005
 30
0.0
 10
-0.38847
 20
4.1955100000000005
 30
0.0
 10
-0.35037
 20
3.7129100000000004
 30
0.0
 10
-0.7974100000000001
 20
3.4716100000000001
 30
0.0
 10
-0.8355100000000001
 20
3.0067900000000001
 30
0.0
 10
-0.8355100000000001
 20
3.0067900000000001
 30
0.0
 10
-0.8710700000000001
 20
2.6207100000000003
 30
0.0
 10
-0.7567700000000001
 20
3.3268300000000002
 30
0.0
 10
-0.6678700000000001
 20
3.0702900000000004
 30
0.0
 10
-0.6678700000000001
 20
3.0702900000000004
 30
0.0
 10
-0.6678700000000001
 20
3.0702900000000004
 30
0.0
 10
-0.6246900000000001
 20
2.9559900000000003
 30
0.0
 10
-0.6246900000000001
 20
2.9559900000000003
 30
0.0
 10
-0.6246900000000001
 20
2.9559900000000003
 30
0.0
 10
-0.59167
 20
2.9102700000000001
 30
0.0
 10
-0.5637300000000001
 20
2.7654900000000002
 30
0.0
 10
-0.5002300000000001
 20
2.7985100000000003
 30
0.0
 10
-0.5002300000000001
 20
2.7985100000000003
 30
0.0
 10
-0.8913900000000001
 20
3.2049100000000004
 30
0.0
 10
-0.04049
 20
4.5485700000000007
 30
0.0
 10
0.277
 20
3.8094300000000003
 30
0.0
 10
0.277
 20
3.8094300000000003
 30
0.0
 10
0.3913
 20
3.3903300000000001
 30
0.0
 10
0.08142
 20
2.7807300000000001
 30
0.0
 10
0.4624200000000001
 20
2.3311500000000001
 30
0.0
 10
0.4624200000000001
 20
2.3311500000000001
 30
0.0
 10
0.4624200000000001
 20
2.3311500000000001
 30
0.0
 10
0.41416
 20
2.7172300000000003
 30
0.0
 10
0.41416
 20
2.7172300000000003
 30
0.0
 10
0.41416
 20
2.7172300000000003
 30
0.0
 10
0.45988
 20
2.7477100000000001
 30
0.0
 10
0.49036
 20
2.6689700000000003
 30
0.0
 10
0.5183000000000001
 20
2.6359500000000002
 30
0.0
 10
0.5183000000000001
 20
2.6359500000000002
 30
0.0
 10
0.83072
 20
2.2828900000000001
 30
0.0
 10
0.01538
 20
3.3446100000000003
 30
0.0
 10
0.52846
 20
3.4233500000000001
 30
0.0
 10
0.52846
 20
3.4233500000000001
 30
0.0
 10
0.52846
 20
3.4233500000000001
 30
0.0
 10
0.43702
 20
3.6011500000000001
 30
0.0
 10
0.43702
 20
3.6011500000000001
 30
0.0
 10
0.43702
 20
3.6011500000000001
 30
0.0
 10
-0.09129
 20
4.2742500000000003
 30
0.0
 10
1.2015600000000002
 20
4.5180899999999999
 30
0.0
 10
0.8027800000000001
 20
3.8094300000000003
 30
0.0
 10
0.8027800000000001
 20
3.8094300000000003
 30
0.0
 10
0.8408800000000001
 20
3.8094300000000003
 30
0.0
 10
0.8586600000000001
 20
3.9872300000000003
 30
0.0
 10
0.8840600000000001
 20
3.8576900000000003
 30
0.0
 10
0.8840600000000001
 20
3.8576900000000003
 30
0.0
 10
0.8993000000000001
 20
3.7281500000000003
 30
0.0
 10
0.9577200000000001
 20
3.8729300000000002
 30
0.0
 10
0.93232
 20
3.9389700000000003
 30
0.0
 10
0.93232
 20
3.9389700000000003
 30
0.0
 10
0.93486
 20
4.0507300000000006
 30
0.0
 10
0.9653400000000001
 20
4.2285300000000001
 30
0.0
 10
1.0821800000000001
 20
4.0659700000000001
 30
0.0
 10
1.0821800000000001
 20
4.0659700000000001
 30
0.0
 10
1.2066400000000002
 20
3.8907100000000003
 30
0.0
 10
1.3742800000000002
 20
3.3446100000000003
 30
0.0
 10
1.23712
 20
3.8729300000000002
 30
0.0
 10
1.23712
 20
3.8729300000000002
 30
0.0
 10
1.2218800000000001
 20
3.9694500000000001
 30
0.0
 10
1.2066400000000002
 20
4.0989900000000006
 30
0.0
 10
1.3463400000000001
 20
4.0177100000000001
 30
0.0
 10
1.3463400000000001
 20
4.0177100000000001
 30
0.0
 10
1.3463400000000001
 20
4.0177100000000001
 30
0.0
 10
1.78068
 20
3.7281500000000003
 30
0.0
 10
1.78068
 20
3.7281500000000003
 30
0.0
 10
1.78068
 20
3.7281500000000003
 30
0.0
 10
1.6282800000000002
 20
4.1472500000000005
 30
0.0
 10
0.70118
 20
4.0507300000000006
 30
0.0
 10
0.7697600000000001
 20
4.5815900000000003
 30
0.0
  0
SPLINE
  5
2B
100
AcDbEntity
  8
Ebene 1
100
AcDbSpline
210
0.0
220
0.0
230
1.0
 70
     1
 71
     3
 72
    24
 73
    20
 74
     0
 42
0.0000000001
 43
0.0000000001
 40
0.0
 40
0.0
 40
0.0
 40
0.0
 40
0.2
 40
0.2
 40
0.2
 40
0.2
 40
0.4
 40
0.4
 40
0.4
 40
0.4
 40
0.6000000000000001
 40
0.6000000000000001
 40
0.6000000000000001
 40
0.6000000000000001
 40
0.8
 40
0.8
 40
0.8
 40
0.8
 40
1.0
 40
1.0
 40
1.0
 40
1.0
 10
1.39714
 20
2.42767
 30
0.0
 10
1.4200000000000002
 20
2.42767
 30
0.0
 10
1.4581000000000002
 20
2.42767
 30
0.0
 10
1.4581000000000002
 20
2.3946500000000004
 30
0.0
 10
1.4581000000000002
 20
2.3946500000000004
 30
0.0
 10
1.0720200000000002
 20
2.1863700000000001
 30
0.0
 10
0.6046600000000001
 20
2.0898500000000002
 30
0.0
 10
0.31764
 20
1.7190100000000001
 30
0.0
 10
0.31764
 20
1.7190100000000001
 30
0.0
 10
0.31764
 20
1.7190100000000001
 30
0.0
 10
0.2617600000000001
 20
1.7190100000000001
 30
0.0
 10
0.2617600000000001
 20
1.7190100000000001
 30
0.0
 10
0.2617600000000001
 20
1.7190100000000001
 30
0.0
 10
0.2617600000000001
 20
1.7190100000000001
 30
0.0
 10
0.2617600000000001
 20
1.8333100000000002
 30
0.0
 10
0.2617600000000001
 20
1.8333100000000002
 30
0.0
 10
0.2617600000000001
 20
1.8333100000000002
 30
0.0
 10
0.5564
 20
2.1711300000000002
 30
0.0
 10
1.0415400000000001
 20
2.2016100000000001
 30
0.0
 10
1.39714
 20
2.42767
 30
0.0
  0
SPLINE
  5
2C
100
AcDbEntity
  8
Ebene 1
 62
     7
100
AcDbSpline
210
0.0
220
0.0
230
1.0
 70
     1
 71
     3
 72
    60
 73
    56
 74
     0
 42
0.0000000001
 43
0.0000000001
 40
0.0
 40
0.0
 40
0.0
 40
0.0
 40
0.0714285714285714
 40
0.0714285714285714
 40
0.0714285714285714
 40
0.0714285714285714
 40
0.1428571428571429
 40
0.1428571428571429
 40
0.1428571428571429
 40
0.1428571428571429
 40
0.2142857142857143
 40
0.2142857142857143
 40
0.2142857142857143
 40
0.2142857142857143
 40
0.2857142857142857
 40
0.2857142857142857
 40
0.2857142857142857
 40
0.2857142857142857
 40
0.3571428571428571
 40
0.3571428571428571
 40
0.3571428571428571
 40
0.3571428571428571
 40
0.4285714285714285
 40
0.4285714285714285
 40
0.4285714285714285
 40
0.4285714285714285
 40
0.4999999999999999
 40
0.4999999999999999
 40
0.4999999999999999
 40
0.4999999999999999
 40
0.5714285714285713
 40
0.5714285714285713
 40
0.5714285714285713
 40
0.5714285714285713
 40
0.6428571428571427
 40
0.6428571428571427
 40
0.6428571428571427
 40
0.6428571428571427
 40
0.7142857142857141
 40
0.7142857142857141
 40
0.7142857142857141
 40
0.7142857142857141
 40
0.7857142857142855
 40
0.7857142857142855
 40
0.7857142857142855
 40
0.7857142857142855
 40
0.8571428571428569
 40
0.8571428571428569
 40
0.8571428571428569
 40
0.8571428571428569
 40
0.9285714285714283
 40
0.9285714285714283
 40
0.9285714285714283
 40
0.9285714285714283
 40
1.0
 40
1.0
 40
1.0
 40
1.0
 10
4.0819200000000002
 20
2.2828900000000001
 30
0.0
 10
4.2165400000000002
 20
2.24987
 30
0.0
 10
4.2140000000000004
 20
2.1381100000000002
 30
0.0
 10
4.1835200000000006
 20
2.0263500000000003
 30
0.0
 10
4.1835200000000006
 20
2.0263500000000003
 30
0.0
 10
4.3892600000000002
 20
2.1050900000000001
 30
0.0
 10
4.4705400000000006
 20
1.8637900000000001
 30
0.0
 10
4.3587800000000003
 20
1.7367900000000001
 30
0.0
 10
4.3587800000000003
 20
1.7367900000000001
 30
0.0
 10
4.6432600000000006
 20
1.8815700000000002
 30
0.0
 10
4.7220000000000004
 20
1.39897
 30
0.0
 10
4.3765600000000004
 20
1.4294500000000001
 30
0.0
 10
4.3765600000000004
 20
1.4294500000000001
 30
0.0
 10
4.5670600000000006
 20
1.31769
 30
0.0
 10
4.4172000000000002
 20
1.0128900000000001
 30
0.0
 10
4.19876
 20
1.0763900000000002
 30
0.0
 10
4.19876
 20
1.0763900000000002
 30
0.0
 10
4.1936800000000005
 20
0.99765
 30
0.0
 10
4.17082
 20
0.9468500000000001
 30
0.0
 10
4.0819200000000002
 20
0.9163700000000001
 30
0.0
 10
4.0819200000000002
 20
0.9163700000000001
 30
0.0
 10
3.8482400000000001
 20
1.0763900000000002
 30
0.0
 10
3.5434400000000004
 20
1.0128900000000001
 30
0.0
 10
3.2310200000000004
 20
1.02813
 30
0.0
 10
3.2310200000000004
 20
1.02813
 30
0.0
 10
3.0913200000000001
 20
1.0128900000000001
 30
0.0
 10
2.9186000000000001
 20
0.99765
 30
0.0
 10
2.8017600000000003
 20
1.06115
 30
0.0
 10
2.8017600000000003
 20
1.06115
 30
0.0
 10
3.0049600000000001
 20
1.10941
 30
0.0
 10
3.2259400000000005
 20
1.10941
 30
0.0
 10
3.4393000000000002
 20
1.1246500000000001
 30
0.0
 10
3.4393000000000002
 20
1.1246500000000001
 30
0.0
 10
3.7060000000000004
 20
1.1729100000000001
 30
0.0
 10
4.1352600000000006
 20
0.99765
 30
0.0
 10
4.1454200000000005
 20
1.3811900000000001
 30
0.0
 10
4.1454200000000005
 20
1.3811900000000001
 30
0.0
 10
4.1784400000000002
 20
1.6072500000000001
 30
0.0
 10
4.1403400000000001
 20
1.8637900000000001
 30
0.0
 10
3.9981000000000004
 20
2.0568300000000002
 30
0.0
 10
3.9981000000000004
 20
2.0568300000000002
 30
0.0
 10
3.5942400000000001
 20
2.0568300000000002
 30
0.0
 10
3.1472000000000002
 20
2.0085700000000002
 30
0.0
 10
2.7687400000000002
 20
2.0898500000000002
 30
0.0
 10
2.7687400000000002
 20
2.0898500000000002
 30
0.0
 10
2.7687400000000002
 20
2.0898500000000002
 30
0.0
 10
3.0049600000000001
 20
2.12033
 30
0.0
 10
3.0049600000000001
 20
2.12033
 30
0.0
 10
3.0049600000000001
 20
2.12033
 30
0.0
 10
3.0049600000000001
 20
2.12033
 30
0.0
 10
3.4393000000000002
 20
2.1381100000000002
 30
0.0
 10
3.4393000000000002
 20
2.1381100000000002
 30
0.0
 10
3.4393000000000002
 20
2.1381100000000002
 30
0.0
 10
3.6577400000000004
 20
2.1863700000000001
 30
0.0
 10
3.9574600000000002
 20
2.0568300000000002
 30
0.0
 10
4.0819200000000002
 20
2.2828900000000001
 30
0.0
  0
SPLINE
  5
2D
100
AcDbEntity
  8
Ebene 1
100
AcDbSpline
210
0.0
220
0.0
230
1.0
 70
     1
 71
     3
 72
    24
 73
    20
 74
     0
 42
0.0000000001
 43
0.0000000001
 40
0.0
 40
0.0
 40
0.0
 40
0.0
 40
0.2
 40
0.2
 40
0.2
 40
0.2
 40
0.4
 40
0.4
 40
0.4
 40
0.4
 40
0.6000000000000001
 40
0.6000000000000001
 40
0.6000000000000001
 40
0.6000000000000001
 40
0.8
 40
0.8
 40
0.8
 40
0.8
 40
1.0
 40
1.0
 40
1.0
 40
1.0
 10
-1.20381
 20
2.1381100000000002
 30
0.0
 10
-0.8126500000000001
 20
2.0898500000000002
 30
0.0
 10
-0.38847
 20
2.0568300000000002
 30
0.0
 10
-0.09129
 20
1.7367900000000001
 30
0.0
 10
-0.09129
 20
1.7367900000000001
 30
0.0
 10
-0.09129
 20
1.7367900000000001
 30
0.0
 10
0.04332
 20
1.7520300000000002
 30
0.0
 10
0.04332
 20
1.7520300000000002
 30
0.0
 10
0.04332
 20
1.7520300000000002
 30
0.0
 10
0.0103
 20
1.6707500000000002
 30
0.0
 10
-0.08113
 20
1.6402700000000001
 30
0.0
 10
-0.15987
 20
1.6072500000000001
 30
0.0
 10
-0.15987
 20
1.6072500000000001
 30
0.0
 10
-0.34783
 20
2.0085700000000002
 30
0.0
 10
-0.8126500000000001
 20
2.0085700000000002
 30
0.0
 10
-1.1834900000000002
 20
2.0898500000000002
 30
0.0
 10
-1.1834900000000002
 20
2.0898500000000002
 30
0.0
 10
-1.1834900000000002
 20
2.0898500000000002
 30
0.0
 10
-1.20381
 20
2.1381100000000002
 30
0.0
 10
-1.20381
 20
2.1381100000000002
 30
0.0
  0
SPLINE
  5
2E
100
AcDbEntity
  8
Ebene 1
100
AcDbSpline
210
0.0
220
0.0
230
1.0
 70
     1
 71
     3
 72
    12
 73
     8
 74
     0
 42
0.0000000001
 43
0.0000000001
 40
0.0
 40
0.0
 40
0.0
 40
0.0
 40
0.5
 40
0.5
 40
0.5
 40
0.5
 40
1.0
 40
1.0
 40
1.0
 40
1.0
 10
1.9915000000000003
 20
2.0746100000000003
 30
0.0
 10
2.1439000000000004
 20
2.0415900000000002
 30
0.0
 10
2.1108800000000003
 20
1.8002900000000002
 30
0.0
 10
2.0727800000000003
 20
1.7037700000000002
 30
0.0
 10
2.0727800000000003
 20
1.7037700000000002
 30
0.0
 10
2.0727800000000003
 20
1.7037700000000002
 30
0.0
 10
1.9915000000000003
 20
2.0746100000000003
 30
0.0
 10
1.9915000000000003
 20
2.0746100000000003
 30
0.0
  0
SPLINE
  5
2F
100
AcDbEntity
  8
Ebene 1
 62
     7
100
AcDbSpline
210
0.0
220
0.0
230
1.0
 70
     1
 71
     3
 72
    52
 73
    48
 74
     0
 42
0.0000000001
 43
0.0000000001
 40
0.0
 40
0.0
 40
0.0
 40
0.0
 40
0.0833333333333333
 40
0.0833333333333333
 40
0.0833333333333333
 40
0.0833333333333333
 40
0.1666666666666667
 40
0.1666666666666667
 40
0.1666666666666667
 40
0.1666666666666667
 40
0.25
 40
0.25
 40
0.25
 40
0.25
 40
0.3333333333333333
 40
0.3333333333333333
 40
0.3333333333333333
 40
0.3333333333333333
 40
0.4166666666666666
 40
0.4166666666666666
 40
0.4166666666666666
 40
0.4166666666666666
 40
0.4999999999999999
 40
0.4999999999999999
 40
0.4999999999999999
 40
0.4999999999999999
 40
0.5833333333333333
 40
0.5833333333333333
 40
0.5833333333333333
 40
0.5833333333333333
 40
0.6666666666666666
 40
0.6666666666666666
 40
0.6666666666666666
 40
0.6666666666666666
 40
0.75
 40
0.75
 40
0.75
 40
0.75
 40
0.8333333333333334
 40
0.8333333333333334
 40
0.8333333333333334
 40
0.8333333333333334
 40
0.9166666666666667
 40
0.9166666666666667
 40
0.9166666666666667
 40
0.9166666666666667
 40
1.0
 40
1.0
 40
1.0
 40
1.0
 10
-4.0663900000000002
 20
2.0263500000000003
 30
0.0
 10
-3.9470100000000001
 20
2.0415900000000002
 30
0.0
 10
-3.9012900000000004
 20
1.9120500000000002
 30
0.0
 10
-3.8733500000000003
 20
1.8485500000000001
 30
0.0
 10
-3.8733500000000003
 20
1.8485500000000001
 30
0.0
 10
-3.4796500000000004
 20
1.8815700000000002
 30
0.0
 10
-3.0275300000000001
 20
1.9450700000000001
 30
0.0
 10
-2.65415
 20
1.8333100000000002
 30
0.0
 10
-2.65415
 20
1.8333100000000002
 30
0.0
 10
-3.1011900000000003
 20
1.65551
 30
0.0
 10
-3.9190700000000005
 20
2.0898500000000002
 30
0.0
 10
-4.0943300000000002
 20
1.4954900000000002
 30
0.0
 10
-4.0943300000000002
 20
1.4954900000000002
 30
0.0
 10
-4.1908500000000002
 20
1.19069
 30
0.0
 10
-3.9673300000000005
 20
0.8198500000000001
 30
0.0
 10
-3.6599900000000005
 20
0.8350900000000001
 30
0.0
 10
-3.6599900000000005
 20
0.8350900000000001
 30
0.0
 10
-3.2764500000000001
 20
0.8020700000000001
 30
0.0
 10
-2.8725900000000002
 20
0.9011300000000001
 30
0.0
 10
-2.5093700000000001
 20
0.8198500000000001
 30
0.0
 10
-2.5093700000000001
 20
0.8198500000000001
 30
0.0
 10
-2.9868900000000003
 20
0.6903100000000001
 30
0.0
 10
-3.5761700000000003
 20
0.7715900000000001
 30
0.0
 10
-4.0460700000000003
 20
0.65983
 30
0.0
 10
-4.0460700000000003
 20
0.65983
 30
0.0
 10
-4.1197300000000006
 20
0.7080900000000001
 30
0.0
 10
-4.1044900000000002
 20
0.78683
 30
0.0
 10
-4.1019500000000004
 20
0.8681100000000001
 30
0.0
 10
-4.1019500000000004
 20
0.8681100000000001
 30
0.0
 10
-4.2645100000000005
 20
0.8350900000000001
 30
0.0
 10
-4.3661099999999999
 20
0.9468500000000001
 30
0.0
 10
-4.3102300000000007
 20
1.10941
 30
0.0
 10
-4.3102300000000007
 20
1.10941
 30
0.0
 10
-4.4524699999999999
 20
1.10941
 30
0.0
 10
-4.64297
 20
1.1576700000000002
 30
0.0
 10
-4.6074100000000007
 20
1.3507100000000001
 30
0.0
 10
-4.6074100000000007
 20
1.3507100000000001
 30
0.0
 10
-4.55661
 20
1.4624700000000002
 30
0.0
 10
-4.4169100000000006
 20
1.4802500000000001
 30
0.0
 10
-4.3229300000000004
 20
1.4802500000000001
 30
0.0
 10
-4.3229300000000004
 20
1.4802500000000001
 30
0.0
 10
-4.3838900000000001
 20
1.6072500000000001
 30
0.0
 10
-4.40421
 20
1.8815700000000002
 30
0.0
 10
-4.1806900000000002
 20
1.8002900000000002
 30
0.0
 10
-4.1806900000000002
 20
1.8002900000000002
 30
0.0
 10
-4.1984700000000004
 20
1.8968100000000001
 30
0.0
 10
-4.1375100000000007
 20
1.9780900000000001
 30
0.0
 10
-4.0663900000000002
 20
2.0263500000000003
 30
0.0
  0
SPLINE
  5
30
100
AcDbEntity
  8
Ebene 1
 62
     7
100
AcDbSpline
210
0.0
220
0.0
230
1.0
 70
     1
 71
     3
 72
    24
 73
    20
 74
     0
 42
0.0000000001
 43
0.0000000001
 40
0.0
 40
0.0
 40
0.0
 40
0.0
 40
0.2
 40
0.2
 40
0.2
 40
0.2
 40
0.4
 40
0.4
 40
0.4
 40
0.4
 40
0.6000000000000001
 40
0.6000000000000001
 40
0.6000000000000001
 40
0.6000000000000001
 40
0.8
 40
0.8
 40
0.8
 40
0.8
 40
1.0
 40
1.0
 40
1.0
 40
1.0
 10
3.5663000000000005
 20
2.0085700000000002
 30
0.0
 10
4.0870000000000006
 20
2.1863700000000001
 30
0.0
 10
4.2317800000000005
 20
1.5107300000000001
 30
0.0
 10
3.9981000000000004
 20
1.19069
 30
0.0
 10
3.9981000000000004
 20
1.19069
 30
0.0
 10
3.9981000000000004
 20
1.19069
 30
0.0
 10
2.5122
 20
1.19069
 30
0.0
 10
2.5122
 20
1.19069
 30
0.0
 10
2.5122
 20
1.19069
 30
0.0
 10
2.4360000000000004
 20
1.31769
 30
0.0
 10
2.5858600000000003
 20
1.4624700000000002
 30
0.0
 10
2.7001600000000003
 20
1.5107300000000001
 30
0.0
 10
2.7001600000000003
 20
1.5107300000000001
 30
0.0
 10
2.7103200000000003
 20
1.6402700000000001
 30
0.0
 10
2.5325200000000003
 20
1.5589900000000001
 30
0.0
 10
2.46394
 20
1.6072500000000001
 30
0.0
 10
2.46394
 20
1.6072500000000001
 30
0.0
 10
2.5426800000000003
 20
2.1050900000000001
 30
0.0
 10
3.2132400000000003
 20
1.9120500000000002
 30
0.0
 10
3.5663000000000005
 20
2.0085700000000002
 30
0.0
  0
SPLINE
  5
31
100
AcDbEntity
  8
Ebene 1
 62
     7
100
AcDbSpline
210
0.0
220
0.0
230
1.0
 70
     1
 71
     3
 72
    24
 73
    20
 74
     0
 42
0.0000000001
 43
0.0000000001
 40
0.0
 40
0.0
 40
0.0
 40
0.0
 40
0.2
 40
0.2
 40
0.2
 40
0.2
 40
0.4
 40
0.4
 40
0.4
 40
0.4
 40
0.6000000000000001
 40
0.6000000000000001
 40
0.6000000000000001
 40
0.6000000000000001
 40
0.8
 40
0.8
 40
0.8
 40
0.8
 40
1.0
 40
1.0
 40
1.0
 40
1.0
 10
-3.1977100000000003
 20
1.7698100000000001
 30
0.0
 10
-2.9614900000000004
 20
1.7698100000000001
 30
0.0
 10
-2.7405100000000004
 20
1.7367900000000001
 30
0.0
 10
-2.5093700000000001
 20
1.6885300000000001
 30
0.0
 10
-2.5093700000000001
 20
1.6885300000000001
 30
0.0
 10
-2.5093700000000001
 20
1.6885300000000001
 30
0.0
 10
-2.52461
 20
1.2846700000000002
 30
0.0
 10
-2.52461
 20
1.2846700000000002
 30
0.0
 10
-2.52461
 20
1.2846700000000002
 30
0.0
 10
-2.8522700000000003
 20
0.9468500000000001
 30
0.0
 10
-3.3399500000000004
 20
0.8350900000000001
 30
0.0
 10
-3.8047700000000004
 20
0.9011300000000001
 30
0.0
 10
-3.8047700000000004
 20
0.9011300000000001
 30
0.0
 10
-4.02067
 20
1.02813
 30
0.0
 10
-4.0841700000000003
 20
1.3507100000000001
 30
0.0
 10
-3.9241500000000005
 20
1.52597
 30
0.0
 10
-3.9241500000000005
 20
1.52597
 30
0.0
 10
-3.8098500000000004
 20
1.8155300000000001
 30
0.0
 10
-3.4339300000000001
 20
1.7190100000000001
 30
0.0
 10
-3.1977100000000003
 20
1.7698100000000001
 30
0.0
  0
SPLINE
  5
32
100
AcDbEntity
  8
Ebene 1
100
AcDbSpline
210
0.0
220
0.0
230
1.0
 70
     1
 71
     3
 72
    16
 73
    12
 74
     0
 42
0.0000000001
 43
0.0000000001
 40
0.0
 40
0.0
 40
0.0
 40
0.0
 40
0.3333333333333333
 40
0.3333333333333333
 40
0.3333333333333333
 40
0.3333333333333333
 40
0.6666666666666666
 40
0.6666666666666666
 40
0.6666666666666666
 40
0.6666666666666666
 40
1.0
 40
1.0
 40
1.0
 40
1.0
 10
3.7288600000000005
 20
1.7037700000000002
 30
0.0
 10
3.8711000000000002
 20
1.7520300000000002
 30
0.0
 10
3.9904800000000002
 20
1.5920100000000001
 30
0.0
 10
3.8863400000000001
 20
1.4802500000000001
 30
0.0
 10
3.8863400000000001
 20
1.4802500000000001
 30
0.0
 10
3.8126800000000003
 20
1.44723
 30
0.0
 10
3.7136200000000001
 20
1.44723
 30
0.0
 10
3.6526600000000005
 20
1.4954900000000002
 30
0.0
 10
3.6526600000000005
 20
1.4954900000000002
 30
0.0
 10
3.6323400000000001
 20
1.57423
 30
0.0
 10
3.6552000000000002
 20
1.6707500000000002
 30
0.0
 10
3.7288600000000005
 20
1.7037700000000002
 30
0.0
  0
SPLINE
  5
33
100
AcDbEntity
  8
Ebene 1
 62
     7
100
AcDbSpline
210
0.0
220
0.0
230
1.0
 70
     1
 71
     3
 72
    12
 73
     8
 74
     0
 42
0.0000000001
 43
0.0000000001
 40
0.0
 40
0.0
 40
0.0
 40
0.0
 40
0.5
 40
0.5
 40
0.5
 40
0.5
 40
1.0
 40
1.0
 40
1.0
 40
1.0
 10
3.7593400000000003
 20
1.6707500000000002
 30
0.0
 10
3.8507800000000003
 20
1.6885300000000001
 30
0.0
 10
3.9168200000000004
 20
1.5589900000000001
 30
0.0
 10
3.8228400000000002
 20
1.5107300000000001
 30
0.0
 10
3.8228400000000002
 20
1.5107300000000001
 30
0.0
 10
3.7110800000000004
 20
1.4802500000000001
 30
0.0
 10
3.6780600000000003
 20
1.6250300000000002
 30
0.0
 10
3.7593400000000003
 20
1.6707500000000002
 30
0.0
  0
SPLINE
  5
34
100
AcDbEntity
  8
Ebene 1
100
AcDbSpline
210
0.0
220
0.0
230
1.0
 70
     1
 71
     3
 72
    12
 73
     8
 74
     0
 42
0.0000000001
 43
0.0000000001
 40
0.0
 40
0.0
 40
0.0
 40
0.0
 40
0.5
 40
0.5
 40
0.5
 40
0.5
 40
1.0
 40
1.0
 40
1.0
 40
1.0
 10
-3.7920700000000003
 20
1.4802500000000001
 30
0.0
 10
-3.6015700000000002
 20
1.5437500000000002
 30
0.0
 10
-3.4593300000000005
 20
1.3507100000000001
 30
0.0
 10
-3.6193500000000003
 20
1.2059300000000002
 30
0.0
 10
-3.6193500000000003
 20
1.2059300000000002
 30
0.0
 10
-3.7946100000000005
 20
1.0916300000000001
 30
0.0
 10
-3.9266900000000002
 20
1.3659500000000002
 30
0.0
 10
-3.7920700000000003
 20
1.4802500000000001
 30
0.0
  0
SPLINE
  5
35
100
AcDbEntity
  8
Ebene 1
 62
     7
100
AcDbSpline
210
0.0
220
0.0
230
1.0
 70
     1
 71
     3
 72
    12
 73
     8
 74
     0
 42
0.0000000001
 43
0.0000000001
 40
0.0
 40
0.0
 40
0.0
 40
0.0
 40
0.5
 40
0.5
 40
0.5
 40
0.5
 40
1.0
 40
1.0
 40
1.0
 40
1.0
 10
-3.6955500000000003
 20
1.4294500000000001
 30
0.0
 10
-3.6142700000000003
 20
1.44723
 30
0.0
 10
-3.5837900000000005
 20
1.3507100000000001
 30
0.0
 10
-3.6650700000000005
 20
1.31769
 30
0.0
 10
-3.6650700000000005
 20
1.31769
 30
0.0
 10
-3.7107900000000003
 20
1.3354700000000002
 30
0.0
 10
-3.7565100000000005
 20
1.39897
 30
0.0
 10
-3.6955500000000003
 20
1.4294500000000001
 30
0.0
  0
SPLINE
  5
36
100
AcDbEntity
  8
Ebene 1
100
AcDbSpline
210
0.0
220
0.0
230
1.0
 70
     1
 71
     3
 72
    40
 73
    36
 74
     0
 42
0.0000000001
 43
0.0000000001
 40
0.0
 40
0.0
 40
0.0
 40
0.0
 40
0.1111111111111111
 40
0.1111111111111111
 40
0.1111111111111111
 40
0.1111111111111111
 40
0.2222222222222222
 40
0.2222222222222222
 40
0.2222222222222222
 40
0.2222222222222222
 40
0.3333333333333333
 40
0.3333333333333333
 40
0.3333333333333333
 40
0.3333333333333333
 40
0.4444444444444444
 40
0.4444444444444444
 40
0.4444444444444444
 40
0.4444444444444444
 40
0.5555555555555556
 40
0.5555555555555556
 40
0.5555555555555556
 40
0.5555555555555556
 40
0.6666666666666667
 40
0.6666666666666667
 40
0.6666666666666667
 40
0.6666666666666667
 40
0.7777777777777779
 40
0.7777777777777779
 40
0.7777777777777779
 40
0.7777777777777779
 40
0.8888888888888891
 40
0.8888888888888891
 40
0.8888888888888891
 40
0.8888888888888891
 40
1.0
 40
1.0
 40
1.0
 40
1.0
 10
-0.22337
 20
1.4294500000000001
 30
0.0
 10
-0.07097
 20
1.3507100000000001
 30
0.0
 10
-0.6932700000000001
 20
1.02813
 30
0.0
 10
-0.30465
 20
1.06115
 30
0.0
 10
-0.30465
 20
1.06115
 30
0.0
 10
-0.28687
 20
1.0459100000000001
 30
0.0
 10
-0.24369
 20
1.0459100000000001
 30
0.0
 10
-0.25893
 20
1.0128900000000001
 30
0.0
 10
-0.25893
 20
1.0128900000000001
 30
0.0
 10
-0.78217
 20
0.9468500000000001
 30
0.0
 10
-0.9625100000000001
 20
0.2737500000000001
 30
0.0
 10
-1.4578100000000001
 20
0.14421
 30
0.0
 10
-1.4578100000000001
 20
0.14421
 30
0.0
 10
-1.4578100000000001
 20
0.14421
 30
0.0
 10
-1.25461
 20
0.3372500000000001
 30
0.0
 10
-1.25461
 20
0.3372500000000001
 30
0.0
 10
-1.25461
 20
0.3372500000000001
 30
0.0
 10
-1.4298700000000002
 20
0.30677
 30
0.0
 10
-1.62799
 20
0.16199
 30
0.0
 10
-1.7778500000000002
 20
0.32201
 30
0.0
 10
-1.7778500000000002
 20
0.32201
 30
0.0
 10
-1.8235700000000001
 20
0.57855
 30
0.0
 10
-1.8261100000000001
 20
0.9468500000000001
 30
0.0
 10
-1.6051300000000002
 20
1.1246500000000001
 30
0.0
 10
-1.6051300000000002
 20
1.1246500000000001
 30
0.0
 10
-1.7092700000000001
 20
1.2059300000000002
 30
0.0
 10
-1.9175500000000001
 20
1.2541900000000001
 30
0.0
 10
-1.9226300000000001
 20
1.4142100000000002
 30
0.0
 10
-1.9226300000000001
 20
1.4142100000000002
 30
0.0
 10
-1.4857500000000001
 20
1.0459100000000001
 30
0.0
 10
-0.9167900000000001
 20
1.6250300000000002
 30
0.0
 10
-0.4494300000000001
 20
1.2694300000000001
 30
0.0
 10
-0.4494300000000001
 20
1.2694300000000001
 30
0.0
 10
-0.4494300000000001
 20
1.2694300000000001
 30
0.0
 10
-0.22337
 20
1.4294500000000001
 30
0.0
 10
-0.22337
 20
1.4294500000000001
 30
0.0
  0
SPLINE
  5
37
100
AcDbEntity
  8
Ebene 1
100
AcDbSpline
210
0.0
220
0.0
230
1.0
 70
     1
 71
     3
 72
    24
 73
    20
 74
     0
 42
0.0000000001
 43
0.0000000001
 40
0.0
 40
0.0
 40
0.0
 40
0.0
 40
0.2
 40
0.2
 40
0.2
 40
0.2
 40
0.4
 40
0.4
 40
0.4
 40
0.4
 40
0.6000000000000001
 40
0.6000000000000001
 40
0.6000000000000001
 40
0.6000000000000001
 40
0.8
 40
0.8
 40
0.8
 40
0.8
 40
1.0
 40
1.0
 40
1.0
 40
1.0
 10
-2.0242300000000002
 20
1.4142100000000002
 30
0.0
 10
-2.0089900000000003
 20
1.4142100000000002
 30
0.0
 10
-1.9785100000000002
 20
1.4294500000000001
 30
0.0
 10
-1.9759700000000002
 20
1.39897
 30
0.0
 10
-1.9759700000000002
 20
1.39897
 30
0.0
 10
-2.0293100000000002
 20
1.2541900000000001
 30
0.0
 10
-2.0394700000000001
 20
1.0916300000000001
 30
0.0
 10
-1.9277100000000003
 20
0.9646300000000001
 30
0.0
 10
-1.9277100000000003
 20
0.9646300000000001
 30
0.0
 10
-1.9327900000000002
 20
0.7385700000000001
 30
0.0
 10
-1.9480300000000002
 20
0.4972700000000001
 30
0.0
 10
-2.0039100000000003
 20
0.28899
 30
0.0
 10
-2.0039100000000003
 20
0.28899
 30
0.0
 10
-2.01153
 20
0.57855
 30
0.0
 10
-1.9505700000000001
 20
0.8681100000000001
 30
0.0
 10
-2.1537700000000002
 20
1.0763900000000002
 30
0.0
 10
-2.1537700000000002
 20
1.0763900000000002
 30
0.0
 10
-2.1537700000000002
 20
1.0763900000000002
 30
0.0
 10
-2.0242300000000002
 20
1.4142100000000002
 30
0.0
 10
-2.0242300000000002
 20
1.4142100000000002
 30
0.0
  0
SPLINE
  5
38
100
AcDbEntity
  8
Ebene 1
100
AcDbSpline
210
0.0
220
0.0
230
1.0
 70
     1
 71
     3
 72
    12
 73
     8
 74
     0
 42
0.0000000001
 43
0.0000000001
 40
0.0
 40
0.0
 40
0.0
 40
0.0
 40
0.5
 40
0.5
 40
0.5
 40
0.5
 40
1.0
 40
1.0
 40
1.0
 40
1.0
 10
2.0727800000000003
 20
1.2694300000000001
 30
0.0
 10
2.2404200000000003
 20
1.2211700000000001
 30
0.0
 10
2.1007200000000004
 20
0.99765
 30
0.0
 10
2.0118200000000002
 20
0.9468500000000001
 30
0.0
 10
2.0118200000000002
 20
0.9468500000000001
 30
0.0
 10
1.9534000000000002
 20
1.06115
 30
0.0
 10
2.1210400000000003
 20
1.1424300000000001
 30
0.0
 10
2.0727800000000003
 20
1.2694300000000001
 30
0.0
  0
SPLINE
  5
39
100
AcDbEntity
  8
Ebene 1
100
AcDbSpline
210
0.0
220
0.0
230
1.0
 70
     1
 71
     3
 72
    24
 73
    20
 74
     0
 42
0.0000000001
 43
0.0000000001
 40
0.0
 40
0.0
 40
0.0
 40
0.0
 40
0.2
 40
0.2
 40
0.2
 40
0.2
 40
0.4
 40
0.4
 40
0.4
 40
0.4
 40
0.6000000000000001
 40
0.6000000000000001
 40
0.6000000000000001
 40
0.6000000000000001
 40
0.8
 40
0.8
 40
0.8
 40
0.8
 40
1.0
 40
1.0
 40
1.0
 40
1.0
 10
2.2810600000000001
 20
1.2541900000000001
 30
0.0
 10
2.3039200000000002
 20
1.2541900000000001
 30
0.0
 10
2.3420200000000002
 20
1.2541900000000001
 30
0.0
 10
2.3293200000000001
 20
1.2211700000000001
 30
0.0
 10
2.3293200000000001
 20
1.2211700000000001
 30
0.0
 10
2.16168
 20
0.9646300000000001
 30
0.0
 10
2.1439000000000004
 20
0.65983
 30
0.0
 10
2.2023200000000003
 20
0.37027
 30
0.0
 10
2.2023200000000003
 20
0.37027
 30
0.0
 10
2.1921600000000003
 20
0.35249
 30
0.0
 10
2.1743800000000002
 20
0.32201
 30
0.0
 10
2.1515200000000001
 20
0.32201
 30
0.0
 10
2.1515200000000001
 20
0.32201
 30
0.0
 10
2.1413600000000002
 20
0.32201
 30
0.0
 10
2.1185
 20
0.32201
 30
0.0
 10
2.1210400000000003
 20
0.3372500000000001
 30
0.0
 10
2.1210400000000003
 20
0.3372500000000001
 30
0.0
 10
2.09056
 20
0.65983
 30
0.0
 10
2.0423
 20
0.99765
 30
0.0
 10
2.2810600000000001
 20
1.2541900000000001
 30
0.0
  0
SPLINE
  5
3A
100
AcDbEntity
  8
Ebene 1
 62
     7
100
AcDbSpline
210
0.0
220
0.0
230
1.0
 70
     1
 71
     3
 72
    24
 73
    20
 74
     0
 42
0.0000000001
 43
0.0000000001
 40
0.0
 40
0.0
 40
0.0
 40
0.0
 40
0.2
 40
0.2
 40
0.2
 40
0.2
 40
0.4
 40
0.4
 40
0.4
 40
0.4
 40
0.6000000000000001
 40
0.6000000000000001
 40
0.6000000000000001
 40
0.6000000000000001
 40
0.8
 40
0.8
 40
0.8
 40
0.8
 40
1.0
 40
1.0
 40
1.0
 40
1.0
 10
1.1406000000000001
 20
1.0916300000000001
 30
0.0
 10
1.1406000000000001
 20
1.0916300000000001
 30
0.0
 10
1.2574400000000001
 20
1.0763900000000002
 30
0.0
 10
1.2574400000000001
 20
1.0763900000000002
 30
0.0
 10
1.2574400000000001
 20
1.0763900000000002
 30
0.0
 10
1.2574400000000001
 20
1.0763900000000002
 30
0.0
 10
1.2980800000000001
 20
1.06115
 30
0.0
 10
1.2980800000000001
 20
1.06115
 30
0.0
 10
1.2980800000000001
 20
1.06115
 30
0.0
 10
1.2015600000000002
 20
0.99765
 30
0.0
 10
1.0313800000000002
 20
0.9316100000000001
 30
0.0
 10
0.9374000000000001
 20
1.02813
 30
0.0
 10
0.9374000000000001
 20
1.02813
 30
0.0
 10
0.9374000000000001
 20
1.02813
 30
0.0
 10
1.0440800000000001
 20
1.06115
 30
0.0
 10
1.0440800000000001
 20
1.06115
 30
0.0
 10
1.0440800000000001
 20
1.06115
 30
0.0
 10
1.0440800000000001
 20
1.06115
 30
0.0
 10
1.1406000000000001
 20
1.0916300000000001
 30
0.0
 10
1.1406000000000001
 20
1.0916300000000001
 30
0.0
  0
SPLINE
  5
3B
100
AcDbEntity
  8
Ebene 1
 62
     7
100
AcDbSpline
210
0.0
220
0.0
230
1.0
 70
     1
 71
     3
 72
    20
 73
    16
 74
     0
 42
0.0000000001
 43
0.0000000001
 40
0.0
 40
0.0
 40
0.0
 40
0.0
 40
0.25
 40
0.25
 40
0.25
 40
0.25
 40
0.5
 40
0.5
 40
0.5
 40
0.5
 40
0.75
 40
0.75
 40
0.75
 40
0.75
 40
1.0
 40
1.0
 40
1.0
 40
1.0
 10
-1.0285500000000001
 20
0.9316100000000001
 30
0.0
 10
-0.99553
 20
0.9316100000000001
 30
0.0
 10
-0.9269500000000001
 20
0.9316100000000001
 30
0.0
 10
-0.9345700000000001
 20
0.8833500000000001
 30
0.0
 10
-0.9345700000000001
 20
0.8833500000000001
 30
0.0
 10
-1.0158500000000001
 20
0.8833500000000001
 30
0.0
 10
-1.1809500000000002
 20
0.8020700000000001
 30
0.0
 10
-1.21397
 20
0.9011300000000001
 30
0.0
 10
-1.21397
 20
0.9011300000000001
 30
0.0
 10
-1.21397
 20
0.9011300000000001
 30
0.0
 10
-1.1403100000000002
 20
0.9163700000000001
 30
0.0
 10
-1.1403100000000002
 20
0.9163700000000001
 30
0.0
 10
-1.1403100000000002
 20
0.9163700000000001
 30
0.0
 10
-1.1403100000000002
 20
0.9163700000000001
 30
0.0
 10
-1.0285500000000001
 20
0.9316100000000001
 30
0.0
 10
-1.0285500000000001
 20
0.9316100000000001
 30
0.0
  0
SPLINE
  5
3C
100
AcDbEntity
  8
Ebene 1
100
AcDbSpline
210
0.0
220
0.0
230
1.0
 70
     1
 71
     3
 72
    24
 73
    20
 74
     0
 42
0.0000000001
 43
0.0000000001
 40
0.0
 40
0.0
 40
0.0
 40
0.0
 40
0.2
 40
0.2
 40
0.2
 40
0.2
 40
0.4
 40
0.4
 40
0.4
 40
0.4
 40
0.6000000000000001
 40
0.6000000000000001
 40
0.6000000000000001
 40
0.6000000000000001
 40
0.8
 40
0.8
 40
0.8
 40
0.8
 40
1.0
 40
1.0
 40
1.0
 40
1.0
 10
-0.4494300000000001
 20
0.7715900000000001
 30
0.0
 10
-0.4494300000000001
 20
0.7715900000000001
 30
0.0
 10
-0.19543
 20
0.7080900000000001
 30
0.0
 10
-0.19543
 20
0.7080900000000001
 30
0.0
 10
-0.19543
 20
0.7080900000000001
 30
0.0
 10
-0.19543
 20
0.7080900000000001
 30
0.0
 10
-0.14717
 20
0.5633100000000001
 30
0.0
 10
-0.14717
 20
0.5633100000000001
 30
0.0
 10
-0.14717
 20
0.5633100000000001
 30
0.0
 10
-0.28433
 20
0.6115700000000001
 30
0.0
 10
-0.4494300000000001
 20
0.7563500000000001
 30
0.0
 10
-0.5815100000000001
 20
0.59379
 30
0.0
 10
-0.5815100000000001
 20
0.59379
 30
0.0
 10
-0.5815100000000001
 20
0.59379
 30
0.0
 10
-0.65263
 20
0.59379
 30
0.0
 10
-0.65263
 20
0.59379
 30
0.0
 10
-0.65263
 20
0.59379
 30
0.0
 10
-0.66025
 20
0.7080900000000001
 30
0.0
 10
-0.5027700000000001
 20
0.7080900000000001
 30
0.0
 10
-0.4494300000000001
 20
0.7715900000000001
 30
0.0
  0
SPLINE
  5
3D
100
AcDbEntity
  8
Ebene 1
100
AcDbSpline
210
0.0
220
0.0
230
1.0
 70
     1
 71
     3
 72
    20
 73
    16
 74
     0
 42
0.0000000001
 43
0.0000000001
 40
0.0
 40
0.0
 40
0.0
 40
0.0
 40
0.25
 40
0.25
 40
0.25
 40
0.25
 40
0.5
 40
0.5
 40
0.5
 40
0.5
 40
0.75
 40
0.75
 40
0.75
 40
0.75
 40
1.0
 40
1.0
 40
1.0
 40
1.0
 10
0.33796
 20
0.7385700000000001
 30
0.0
 10
0.3989200000000001
 20
0.7385700000000001
 30
0.0
 10
0.45988
 20
0.7385700000000001
 30
0.0
 10
0.51068
 20
0.7080900000000001
 30
0.0
 10
0.51068
 20
0.7080900000000001
 30
0.0
 10
0.55132
 20
0.65983
 30
0.0
 10
0.6884800000000001
 20
0.5633100000000001
 30
0.0
 10
0.5818000000000001
 20
0.51505
 30
0.0
 10
0.5818000000000001
 20
0.51505
 30
0.0
 10
0.47004
 20
0.6115700000000001
 30
0.0
 10
0.36082
 20
0.6750700000000001
 30
0.0
 10
0.2135
 20
0.6268100000000001
 30
0.0
 10
0.2135
 20
0.6268100000000001
 30
0.0
 10
0.18556
 20
0.72333
 30
0.0
 10
0.29732
 20
0.7080900000000001
 30
0.0
 10
0.33796
 20
0.7385700000000001
 30
0.0
  0
SPLINE
  5
3E
100
AcDbEntity
  8
Ebene 1
100
AcDbSpline
210
0.0
220
0.0
230
1.0
 70
     1
 71
     3
 72
    24
 73
    20
 74
     0
 42
0.0000000001
 43
0.0000000001
 40
0.0
 40
0.0
 40
0.0
 40
0.0
 40
0.2
 40
0.2
 40
0.2
 40
0.2
 40
0.4
 40
0.4
 40
0.4
 40
0.4
 40
0.6000000000000001
 40
0.6000000000000001
 40
0.6000000000000001
 40
0.6000000000000001
 40
0.8
 40
0.8
 40
0.8
 40
0.8
 40
1.0
 40
1.0
 40
1.0
 40
1.0
 10
0.32018
 20
0.43377
 30
0.0
 10
0.32018
 20
0.43377
 30
0.0
 10
0.5894200000000001
 20
0.4007500000000001
 30
0.0
 10
0.5894200000000001
 20
0.4007500000000001
 30
0.0
 10
0.5894200000000001
 20
0.4007500000000001
 30
0.0
 10
0.5894200000000001
 20
0.4007500000000001
 30
0.0
 10
0.8002400000000001
 20
0.35249
 30
0.0
 10
0.8002400000000001
 20
0.35249
 30
0.0
 10
0.8002400000000001
 20
0.35249
 30
0.0
 10
0.8002400000000001
 20
0.35249
 30
0.0
 10
0.8002400000000001
 20
0.2737500000000001
 30
0.0
 10
0.8002400000000001
 20
0.2737500000000001
 30
0.0
 10
0.8002400000000001
 20
0.2737500000000001
 30
0.0
 10
0.59704
 20
0.17723
 30
0.0
 10
0.37098
 20
0.12897
 30
0.0
 10
0.13222
 20
0.16199
 30
0.0
 10
0.13222
 20
0.16199
 30
0.0
 10
0.01284
 20
0.32201
 30
0.0
 10
0.18302
 20
0.41853
 30
0.0
 10
0.32018
 20
0.43377
 30
0.0
  0
SPLINE
  5
3F
100
AcDbEntity
  8
Ebene 1
100
AcDbSpline
210
0.0
220
0.0
230
1.0
 70
     1
 71
     3
 72
    24
 73
    20
 74
     0
 42
0.0000000001
 43
0.0000000001
 40
0.0
 40
0.0
 40
0.0
 40
0.0
 40
0.2
 40
0.2
 40
0.2
 40
0.2
 40
0.4
 40
0.4
 40
0.4
 40
0.4
 40
0.6000000000000001
 40
0.6000000000000001
 40
0.6000000000000001
 40
0.6000000000000001
 40
0.8
 40
0.8
 40
0.8
 40
0.8
 40
1.0
 40
1.0
 40
1.0
 40
1.0
 10
-0.33767
 20
0.38551
 30
0.0
 10
-0.15225
 20
0.4515500000000001
 30
0.0
 10
-0.05319
 20
0.25597
 30
0.0
 10
-0.14717
 20
0.11119
 30
0.0
 10
-0.14717
 20
0.11119
 30
0.0
 10
-0.30973
 20
0.03245
 30
0.0
 10
-0.4900700000000001
 20
0.16199
 30
0.0
 10
-0.65263
 20
0.11119
 30
0.0
 10
-0.65263
 20
0.11119
 30
0.0
 10
-0.67803
 20
0.12897
 30
0.0
 10
-0.7135900000000001
 20
0.14421
 30
0.0
 10
-0.72121
 20
0.17723
 30
0.0
 10
-0.72121
 20
0.17723
 30
0.0
 10
-0.7135900000000001
 20
0.22549
 30
0.0
 10
-0.6704100000000001
 20
0.24073
 30
0.0
 10
-0.63739
 20
0.2737500000000001
 30
0.0
 10
-0.63739
 20
0.2737500000000001
 30
0.0
 10
-0.63739
 20
0.2737500000000001
 30
0.0
 10
-0.33767
 20
0.38551
 30
0.0
 10
-0.33767
 20
0.38551
 30
0.0
  0
SPLINE
  5
40
100
AcDbEntity
  8
Ebene 1
100
AcDbSpline
210
0.0
220
0.0
230
1.0
 70
     1
 71
     3
 72
    24
 73
    20
 74
     0
 42
0.0000000001
 43
0.0000000001
 40
0.0
 40
0.0
 40
0.0
 40
0.0
 40
0.2
 40
0.2
 40
0.2
 40
0.2
 40
0.4
 40
0.4
 40
0.4
 40
0.4
 40
0.6000000000000001
 40
0.6000000000000001
 40
0.6000000000000001
 40
0.6000000000000001
 40
0.8
 40
0.8
 40
0.8
 40
0.8
 40
1.0
 40
1.0
 40
1.0
 40
1.0
 10
-1.04379
 20
0.30677
 30
0.0
 10
-1.04379
 20
0.30677
 30
0.0
 10
-0.9828300000000001
 20
0.28899
 30
0.0
 10
-0.9828300000000001
 20
0.28899
 30
0.0
 10
-0.9828300000000001
 20
0.28899
 30
0.0
 10
-0.9828300000000001
 20
0.28899
 30
0.0
 10
-1.5619500000000002
 20
-0.2698
 30
0.0
 10
-1.5619500000000002
 20
-0.2698
 30
0.0
 10
-1.5619500000000002
 20
-0.2698
 30
0.0
 10
-1.7905500000000001
 20
-0.33584
 30
0.0
 10
-2.06995
 20
-0.19106
 30
0.0
 10
-2.0191500000000002
 20
0.06293
 30
0.0
 10
-2.0191500000000002
 20
0.06293
 30
0.0
 10
-2.0191500000000002
 20
0.06293
 30
0.0
 10
-1.9632700000000001
 20
0.06293
 30
0.0
 10
-1.9632700000000001
 20
0.06293
 30
0.0
 10
-1.9632700000000001
 20
0.06293
 30
0.0
 10
-1.7194300000000002
 20
-0.39934
 30
0.0
 10
-1.2850900000000001
 20
0.11119
 30
0.0
 10
-1.04379
 20
0.30677
 30
0.0
  0
SPLINE
  5
41
100
AcDbEntity
  8
Ebene 1
100
AcDbSpline
210
0.0
220
0.0
230
1.0
 70
     1
 71
     3
 72
    12
 73
     8
 74
     0
 42
0.0000000001
 43
0.0000000001
 40
0.0
 40
0.0
 40
0.0
 40
0.0
 40
0.5
 40
0.5
 40
0.5
 40
0.5
 40
1.0
 40
1.0
 40
1.0
 40
1.0
 10
-0.43165
 20
-0.1428
 30
0.0
 10
-0.26147
 20
-0.19106
 30
0.0
 10
-0.25385
 20
-0.43236
 30
0.0
 10
-0.24369
 20
-0.6076200000000001
 30
0.0
 10
-0.24369
 20
-0.6076200000000001
 30
0.0
 10
-0.24369
 20
-0.6076200000000001
 30
0.0
 10
-0.43165
 20
-0.1428
 30
0.0
 10
-0.43165
 20
-0.1428
 30
0.0
  0
SPLINE
  5
42
100
AcDbEntity
  8
Ebene 1
 62
     7
100
AcDbSpline
210
0.0
220
0.0
230
1.0
 70
     1
 71
     3
 72
    16
 73
    12
 74
     0
 42
0.0000000001
 43
0.0000000001
 40
0.0
 40
0.0
 40
0.0
 40
0.0
 40
0.3333333333333333
 40
0.3333333333333333
 40
0.3333333333333333
 40
0.3333333333333333
 40
0.6666666666666666
 40
0.6666666666666666
 40
0.6666666666666666
 40
0.6666666666666666
 40
1.0
 40
1.0
 40
1.0
 40
1.0
 10
-0.7542300000000001
 20
-0.4806200000000001
 30
0.0
 10
-0.6856500000000001
 20
-0.5136400000000001
 30
0.0
 10
-0.65517
 20
-0.7524000000000001
 30
0.0
 10
-0.76439
 20
-0.73716
 30
0.0
 10
-0.76439
 20
-0.73716
 30
0.0
 10
-0.76439
 20
-0.73716
 30
0.0
 10
-0.7974100000000001
 20
-0.7701800000000001
 30
0.0
 10
-0.7974100000000001
 20
-0.7701800000000001
 30
0.0
 10
-0.7974100000000001
 20
-0.7701800000000001
 30
0.0
 10
-0.7974100000000001
 20
-0.7701800000000001
 30
0.0
 10
-0.7542300000000001
 20
-0.4806200000000001
 30
0.0
 10
-0.7542300000000001
 20
-0.4806200000000001
 30
0.0
  0
SPLINE
  5
43
100
AcDbEntity
  8
Ebene 1
 62
     7
100
AcDbSpline
210
0.0
220
0.0
230
1.0
 70
     1
 71
     3
 72
    16
 73
    12
 74
     0
 42
0.0000000001
 43
0.0000000001
 40
0.0
 40
0.0
 40
0.0
 40
0.0
 40
0.3333333333333333
 40
0.3333333333333333
 40
0.3333333333333333
 40
0.3333333333333333
 40
0.6666666666666666
 40
0.6666666666666666
 40
0.6666666666666666
 40
0.6666666666666666
 40
1.0
 40
1.0
 40
1.0
 40
1.0
 10
0.8993000000000001
 20
-0.80066
 30
0.0
 10
0.8993000000000001
 20
-0.80066
 30
0.0
 10
0.9450200000000001
 20
-0.8336800000000001
 30
0.0
 10
0.9450200000000001
 20
-0.8336800000000001
 30
0.0
 10
0.9450200000000001
 20
-0.8336800000000001
 30
0.0
 10
0.9374000000000001
 20
-0.9937
 30
0.0
 10
1.0720200000000002
 20
-1.12324
 30
0.0
 10
0.9450200000000001
 20
-1.25024
 30
0.0
 10
0.9450200000000001
 20
-1.25024
 30
0.0
 10
0.8129400000000001
 20
-1.1537200000000001
 30
0.0
 10
0.8612000000000001
 20
-0.9302
 30
0.0
 10
0.8993000000000001
 20
-0.80066
 30
0.0
  0
SPLINE
  5
44
100
AcDbEntity
  8
Ebene 1
 62
     7
100
AcDbSpline
210
0.0
220
0.0
230
1.0
 70
     1
 71
     3
 72
    12
 73
     8
 74
     0
 42
0.0000000001
 43
0.0000000001
 40
0.0
 40
0.0
 40
0.0
 40
0.0
 40
0.5
 40
0.5
 40
0.5
 40
0.5
 40
1.0
 40
1.0
 40
1.0
 40
1.0
 10
-0.7694700000000001
 20
-0.8336800000000001
 30
0.0
 10
-0.68057
 20
-0.9302
 30
0.0
 10
-0.7339100000000001
 20
-1.0902200000000002
 30
0.0
 10
-0.84567
 20
-1.1537200000000001
 30
0.0
 10
-0.84567
 20
-1.1537200000000001
 30
0.0
 10
-0.8812300000000001
 20
-1.0597400000000001
 30
0.0
 10
-0.82789
 20
-0.9302
 30
0.0
 10
-0.7694700000000001
 20
-0.8336800000000001
 30
0.0
  0
SPLINE
  5
45
100
AcDbEntity
  8
Ebene 1
 62
     7
100
AcDbSpline
210
0.0
220
0.0
230
1.0
 70
     1
 71
     3
 72
    12
 73
     8
 74
     0
 42
0.0000000001
 43
0.0000000001
 40
0.0
 40
0.0
 40
0.0
 40
0.0
 40
0.5
 40
0.5
 40
0.5
 40
0.5
 40
1.0
 40
1.0
 40
1.0
 40
1.0
 10
0.6249800000000001
 20
-0.9302
 30
0.0
 10
0.7519800000000001
 20
-1.07498
 30
0.0
 10
0.8205600000000001
 20
-1.2985000000000002
 30
0.0
 10
0.6732400000000001
 20
-1.46106
 30
0.0
 10
0.6732400000000001
 20
-1.46106
 30
0.0
 10
0.4675
 20
-1.3645400000000001
 30
0.0
 10
0.6122800000000001
 20
-1.0902200000000002
 30
0.0
 10
0.6249800000000001
 20
-0.9302
 30
0.0
  0
SPLINE
  5
46
100
AcDbEntity
  8
Ebene 1
 62
     7
100
AcDbSpline
210
0.0
220
0.0
230
1.0
 70
     1
 71
     3
 72
    12
 73
     8
 74
     0
 42
0.0000000001
 43
0.0000000001
 40
0.0
 40
0.0
 40
0.0
 40
0.0
 40
0.5
 40
0.5
 40
0.5
 40
0.5
 40
1.0
 40
1.0
 40
1.0
 40
1.0
 10
-0.40117
 20
-0.9937
 30
0.0
 10
-0.26655
 20
-1.12324
 30
0.0
 10
-0.25893
 20
-1.3950200000000001
 30
0.0
 10
-0.46467
 20
-1.4915400000000001
 30
0.0
 10
-0.46467
 20
-1.4915400000000001
 30
0.0
 10
-0.5992900000000001
 20
-1.3493000000000002
 30
0.0
 10
-0.4494300000000001
 20
-1.1537200000000001
 30
0.0
 10
-0.40117
 20
-0.9937
 30
0.0
  0
SPLINE
  5
47
100
AcDbEntity
  8
Ebene 1
 62
     7
100
AcDbSpline
210
0.0
220
0.0
230
1.0
 70
     1
 71
     3
 72
    16
 73
    12
 74
     0
 42
0.0000000001
 43
0.0000000001
 40
0.0
 40
0.0
 40
0.0
 40
0.0
 40
0.3333333333333333
 40
0.3333333333333333
 40
0.3333333333333333
 40
0.3333333333333333
 40
0.6666666666666666
 40
0.6666666666666666
 40
0.6666666666666666
 40
0.6666666666666666
 40
1.0
 40
1.0
 40
1.0
 40
1.0
 10
-0.6246900000000001
 20
-1.0089400000000002
 30
0.0
 10
-0.6246900000000001
 20
-1.0089400000000002
 30
0.0
 10
-0.59675
 20
-1.0089400000000002
 30
0.0
 10
-0.59675
 20
-1.0089400000000002
 30
0.0
 10
-0.59675
 20
-1.0089400000000002
 30
0.0
 10
-0.56881
 20
-1.12324
 30
0.0
 10
-0.56881
 20
-1.2985000000000002
 30
0.0
 10
-0.70089
 20
-1.33152
 30
0.0
 10
-0.70089
 20
-1.33152
 30
0.0
 10
-0.7339100000000001
 20
-1.2350000000000001
 30
0.0
 10
-0.6627900000000001
 20
-1.1054600000000001
 30
0.0
 10
-0.6246900000000001
 20
-1.0089400000000002
 30
0.0
  0
SPLINE
  5
48
100
AcDbEntity
  8
Ebene 1
 62
     7
100
AcDbSpline
210
0.0
220
0.0
230
1.0
 70
     1
 71
     3
 72
    16
 73
    12
 74
     0
 42
0.0000000001
 43
0.0000000001
 40
0.0
 40
0.0
 40
0.0
 40
0.0
 40
0.3333333333333333
 40
0.3333333333333333
 40
0.3333333333333333
 40
0.3333333333333333
 40
0.6666666666666666
 40
0.6666666666666666
 40
0.6666666666666666
 40
0.6666666666666666
 40
1.0
 40
1.0
 40
1.0
 40
1.0
 10
-0.06335
 20
-1.0089400000000002
 30
0.0
 10
0.0103
 20
-1.12324
 30
0.0
 10
0.05094
 20
-1.2680200000000001
 30
0.0
 10
0.07888
 20
-1.4128000000000001
 30
0.0
 10
0.07888
 20
-1.4128000000000001
 30
0.0
 10
0.01538
 20
-1.4763000000000002
 30
0.0
 10
-0.04811
 20
-1.5728200000000001
 30
0.0
 10
-0.12685
 20
-1.6058400000000002
 30
0.0
 10
-0.12685
 20
-1.6058400000000002
 30
0.0
 10
-0.30465
 20
-1.4280400000000002
 30
0.0
 10
-0.14971
 20
-1.20452
 30
0.0
 10
-0.06335
 20
-1.0089400000000002
 30
0.0
  0
SPLINE
  5
49
100
AcDbEntity
  8
Ebene 1
 62
     7
100
AcDbSpline
210
0.0
220
0.0
230
1.0
 70
     1
 71
     3
 72
    12
 73
     8
 74
     0
 42
0.0000000001
 43
0.0000000001
 40
0.0
 40
0.0
 40
0.0
 40
0.0
 40
0.5
 40
0.5
 40
0.5
 40
0.5
 40
1.0
 40
1.0
 40
1.0
 40
1.0
 10
0.33796
 20
-1.0216400000000001
 30
0.0
 10
0.53608
 20
-1.1334000000000002
 30
0.0
 10
0.5564
 20
-1.4915400000000001
 30
0.0
 10
0.28716
 20
-1.5728200000000001
 30
0.0
 10
0.28716
 20
-1.5728200000000001
 30
0.0
 10
0.07634
 20
-1.4432800000000001
 30
0.0
 10
0.31002
 20
-1.1994400000000001
 30
0.0
 10
0.33796
 20
-1.0216400000000001
 30
0.0
  0
SPLINE
  5
4A
100
AcDbEntity
  8
Ebene 1
 62
     7
100
AcDbSpline
210
0.0
220
0.0
230
1.0
 70
     1
 71
     3
 72
    36
 73
    32
 74
     0
 42
0.0000000001
 43
0.0000000001
 40
0.0
 40
0.0
 40
0.0
 40
0.0
 40
0.125
 40
0.125
 40
0.125
 40
0.125
 40
0.25
 40
0.25
 40
0.25
 40
0.25
 40
0.375
 40
0.375
 40
0.375
 40
0.375
 40
0.5
 40
0.5
 40
0.5
 40
0.5
 40
0.625
 40
0.625
 40
0.625
 40
0.625
 40
0.75
 40
0.75
 40
0.75
 40
0.75
 40
0.875
 40
0.875
 40
0.875
 40
0.875
 40
1.0
 40
1.0
 40
1.0
 40
1.0
 10
0.4167
 20
-1.7658600000000002
 30
0.0
 10
0.47766
 20
-1.8776200000000001
 30
0.0
 10
0.48782
 20
-1.9106400000000001
 30
0.0
 10
0.5894200000000001
 20
-1.8623800000000001
 30
0.0
 10
0.5894200000000001
 20
-1.8623800000000001
 30
0.0
 10
0.72404
 20
-3.1806400000000004
 30
0.0
 10
0.6122800000000001
 20
-4.4582600000000001
 30
0.0
 10
0.5564
 20
-5.7765200000000005
 30
0.0
 10
0.5564
 20
-5.7765200000000005
 30
0.0
 10
0.4522600000000001
 20
-5.9213000000000005
 30
0.0
 10
0.31002
 20
-6.0102000000000002
 30
0.0
 10
0.14238
 20
-6.0102000000000002
 30
0.0
 10
0.14238
 20
-6.0102000000000002
 30
0.0
 10
-0.03287
 20
-5.9771800000000006
 30
0.0
 10
-0.07859
 20
-5.7689000000000004
 30
0.0
 10
-0.17003
 20
-5.6723800000000004
 30
0.0
 10
-0.17003
 20
-5.6723800000000004
 30
0.0
 10
-0.30973
 20
-4.4811200000000007
 30
0.0
 10
-0.25639
 20
-3.2289000000000003
 30
0.0
 10
-0.33005
 20
-2.0401800000000003
 30
0.0
 10
-0.33005
 20
-2.0401800000000003
 30
0.0
 10
-0.27417
 20
-2.0401800000000003
 30
0.0
 10
-0.23099
 20
-2.1849600000000002
 30
0.0
 10
-0.12685
 20
-2.1519400000000002
 30
0.0
 10
-0.12685
 20
-2.1519400000000002
 30
0.0
 10
-0.08621
 20
-1.9436600000000002
 30
0.0
 10
0.1246
 20
-2.0071600000000003
 30
0.0
 10
0.19572
 20
-1.7811000000000001
 30
0.0
 10
0.19572
 20
-1.7811000000000001
 30
0.0
 10
0.18048
 20
-2.0071600000000003
 30
0.0
 10
0.33796
 20
-1.9258800000000003
 30
0.0
 10
0.4167
 20
-1.7658600000000002
 30
0.0
  0
SPLINE
  5
4B
100
AcDbEntity
  8
Ebene 1
 62
     7
100
AcDbSpline
210
0.0
220
0.0
230
1.0
 70
     1
 71
     3
 72
    60
 73
    56
 74
     0
 42
0.0000000001
 43
0.0000000001
 40
0.0
 40
0.0
 40
0.0
 40
0.0
 40
0.0714285714285714
 40
0.0714285714285714
 40
0.0714285714285714
 40
0.0714285714285714
 40
0.1428571428571429
 40
0.1428571428571429
 40
0.1428571428571429
 40
0.1428571428571429
 40
0.2142857142857143
 40
0.2142857142857143
 40
0.2142857142857143
 40
0.2142857142857143
 40
0.2857142857142857
 40
0.2857142857142857
 40
0.2857142857142857
 40
0.2857142857142857
 40
0.3571428571428571
 40
0.3571428571428571
 40
0.3571428571428571
 40
0.3571428571428571
 40
0.4285714285714285
 40
0.4285714285714285
 40
0.4285714285714285
 40
0.4285714285714285
 40
0.4999999999999999
 40
0.4999999999999999
 40
0.4999999999999999
 40
0.4999999999999999
 40
0.5714285714285713
 40
0.5714285714285713
 40
0.5714285714285713
 40
0.5714285714285713
 40
0.6428571428571427
 40
0.6428571428571427
 40
0.6428571428571427
 40
0.6428571428571427
 40
0.7142857142857141
 40
0.7142857142857141
 40
0.7142857142857141
 40
0.7142857142857141
 40
0.7857142857142855
 40
0.7857142857142855
 40
0.7857142857142855
 40
0.7857142857142855
 40
0.8571428571428569
 40
0.8571428571428569
 40
0.8571428571428569
 40
0.8571428571428569
 40
0.9285714285714283
 40
0.9285714285714283
 40
0.9285714285714283
 40
0.9285714285714283
 40
1.0
 40
1.0
 40
1.0
 40
1.0
 10
0.7062600000000001
 20
-1.9589000000000001
 30
0.0
 10
0.8535800000000001
 20
-2.7132800000000001
 30
0.0
 10
0.7748400000000001
 20
-3.5667200000000001
 30
0.0
 10
0.78754
 20
-4.3693600000000004
 30
0.0
 10
0.78754
 20
-4.3693600000000004
 30
0.0
 10
0.7138800000000001
 20
-4.8849800000000005
 30
0.0
 10
0.8459600000000001
 20
-5.5123600000000001
 30
0.0
 10
0.7265800000000001
 20
-5.9771800000000006
 30
0.0
 10
0.7265800000000001
 20
-5.9771800000000006
 30
0.0
 10
0.7977000000000001
 20
-5.9949600000000007
 30
0.0
 10
0.87136
 20
-6.0584600000000002
 30
0.0
 10
0.85104
 20
-6.1549800000000001
 30
0.0
 10
0.85104
 20
-6.1549800000000001
 30
0.0
 10
0.82564
 20
-6.2032400000000001
 30
0.0
 10
0.7773800000000001
 20
-6.2337200000000008
 30
0.0
 10
0.7215
 20
-6.2337200000000008
 30
0.0
 10
0.7215
 20
-6.2337200000000008
 30
0.0
 10
0.57164
 20
-6.2337200000000008
 30
0.0
 10
0.61482
 20
-6.5232800000000006
 30
0.0
 10
0.40654
 20
-6.3632600000000004
 30
0.0
 10
0.40654
 20
-6.3632600000000004
 30
0.0
 10
0.3989200000000001
 20
-6.6350400000000009
 30
0.0
 10
0.06364
 20
-6.6045600000000002
 30
0.0
 10
0.02808
 20
-6.3480200000000009
 30
0.0
 10
0.02808
 20
-6.3480200000000009
 30
0.0
 10
-0.12939
 20
-6.4267600000000007
 30
0.0
 10
-0.25639
 20
-6.3302400000000008
 30
0.0
 10
-0.21067
 20
-6.1372000000000009
 30
0.0
 10
-0.21067
 20
-6.1372000000000009
 30
0.0
 10
-0.28687
 20
-6.1372000000000009
 30
0.0
 10
-0.3656100000000001
 20
-6.1702200000000005
 30
0.0
 10
-0.41133
 20
-6.0889400000000009
 30
0.0
 10
-0.41133
 20
-6.0889400000000009
 30
0.0
 10
-0.25639
 20
-4.8214800000000002
 30
0.0
 10
-0.6196100000000001
 20
-3.4219400000000002
 30
0.0
 10
-0.41133
 20
-2.1519400000000002
 30
0.0
 10
-0.41133
 20
-2.1519400000000002
 30
0.0
 10
-0.34783
 20
-2.4567400000000004
 30
0.0
 10
-0.36053
 20
-2.8098000000000001
 30
0.0
 10
-0.33767
 20
-3.1476200000000003
 30
0.0
 10
-0.33767
 20
-3.1476200000000003
 30
0.0
 10
-0.33767
 20
-3.1476200000000003
 30
0.0
 10
-0.30465
 20
-4.3871400000000005
 30
0.0
 10
-0.30465
 20
-4.3871400000000005
 30
0.0
 10
-0.30465
 20
-4.3871400000000005
 30
0.0
 10
-0.18781
 20
-4.9332400000000005
 30
0.0
 10
-0.45705
 20
-5.6546000000000003
 30
0.0
 10
-0.07859
 20
-6.0584600000000002
 30
0.0
 10
-0.07859
 20
-6.0584600000000002
 30
0.0
 10
0.47004
 20
-6.3480200000000009
 30
0.0
 10
0.82564
 20
-5.7511200000000002
 30
0.0
 10
0.6707000000000001
 20
-5.2710600000000003
 30
0.0
 10
0.6707000000000001
 20
-5.2710600000000003
 30
0.0
 10
0.70372
 20
-4.1941000000000006
 30
0.0
 10
0.70118
 20
-3.0511000000000004
 30
0.0
 10
0.7062600000000001
 20
-1.9589000000000001
 30
0.0
  0
SPLINE
  5
4C
100
AcDbEntity
  8
Ebene 1
100
AcDbSpline
210
0.0
220
0.0
230
1.0
 70
     1
 71
     3
 72
    12
 73
     8
 74
     0
 42
0.0000000001
 43
0.0000000001
 40
0.0
 40
0.0
 40
0.0
 40
0.0
 40
0.5
 40
0.5
 40
0.5
 40
0.5
 40
1.0
 40
1.0
 40
1.0
 40
1.0
 10
0.19318
 20
-5.6241200000000005
 30
0.0
 10
0.3252600000000001
 20
-5.5911000000000008
 30
0.0
 10
0.37352
 20
-5.7993800000000002
 30
0.0
 10
0.25668
 20
-5.8501800000000008
 30
0.0
 10
0.25668
 20
-5.8501800000000008
 30
0.0
 10
0.05602
 20
-5.9289200000000006
 30
0.0
 10
-0.00493
 20
-5.6241200000000005
 30
0.0
 10
0.19318
 20
-5.6241200000000005
 30
0.0
  0
SPLINE
  5
4D
100
AcDbEntity
  8
Ebene 1
 62
     7
100
AcDbSpline
210
0.0
220
0.0
230
1.0
 70
     1
 71
     3
 72
    12
 73
     8
 74
     0
 42
0.0000000001
 43
0.0000000001
 40
0.0
 40
0.0
 40
0.0
 40
0.0
 40
0.5
 40
0.5
 40
0.5
 40
0.5
 40
1.0
 40
1.0
 40
1.0
 40
1.0
 10
0.1754
 20
-5.6723800000000004
 30
0.0
 10
0.25922
 20
-5.6546000000000003
 30
0.0
 10
0.28716
 20
-5.7841400000000007
 30
0.0
 10
0.20842
 20
-5.7993800000000002
 30
0.0
 10
0.20842
 20
-5.7993800000000002
 30
0.0
 10
0.12714
 20
-5.8171600000000003
 30
0.0
 10
0.10174
 20
-5.6876200000000008
 30
0.0
 10
0.1754
 20
-5.6723800000000004
 30
0.0
  0
ENDSEC
  0
SECTION
  2
OBJECTS
  0
DICTIONARY
  5
19
100
AcDbDictionary
280
     0
281
     1
  3
ACAD_GROUP
350
1A
  3
ACAD_MLINESTYLE
350
1B
  3
ACAD_LAYOUT
350
1E
  3
ACAD_PLOTSETTINGS
350
22
  3
ACAD_PLOTSTYLENAME
350
1F
  3
ACAD_WIPEOUT_VARS
350
23
  0
DICTIONARY
  5
1A
102
{ACAD_REACTORS
330
19
102
}
100
AcDbDictionary
280
     0
281
     1
  0
DICTIONARY
  5
1B
102
{ACAD_REACTORS
330
19
102
}
100
AcDbDictionary
280
     0
281
     1
  3
Standard
350
1C
  0
MLINESTYLE
  5
1C
102
{ACAD_REACTORS
330
1B
102
}
100
AcDbMlineStyle
  2
Standard
 70
     0
  3

 62
     0
 51
90.0
 52
90.0
 71
     2
 49
0.5
 62
   256
  6
BYLAYER
 49
-0.5
 62
   256
  6
BYLAYER
  0
ACDBDICTIONARYWDFLT
  5
1F
102
{ACAD_REACTORS
330
19
102
}
100
AcDbDictionary
281
     1
  3
Normal
350
1D
100
AcDbDictionaryWithDefault
340
1D
  0
ACDBPLACEHOLDER
  5
1D
102
{ACAD_REACTORS
330
1F
102
}
  0
LAYOUT
  5
20
102
{ACAD_REACTORS
330
1E
102
}
100
AcDbPlotSettings
  1

  2

  4

  6

 40
0.0
 41
0.0
 42
0.0
 43
0.0
 44
0.0
 45
0.0
 46
0.0
 47
0.0
 48
0.0
 49
0.0
140
0.0
141
0.0
142
1.0
143
1.0
 70
  1024
 72
     0
 73
     0
 74
     0
  7

 75
     0
147
1.0
148
0.0
149
0.0
100
AcDbLayout
  1
Model
 70
     0
 71
     0
 10
0.0
 20
0.0
 11
0.0
 21
0.0
 12
0.0
 22
0.0
 32
0.0
 14
0.0
 24
0.0
 34
0.0
 15
0.0
 25
0.0
 35
0.0
146
0.0
 13
0.0
 23
0.0
 33
0.0
 16
0.0
 26
0.0
 36
0.0
 17
0.0
 27
0.0
 37
0.0
 76
     0
330
A
331
0
345
0
346
0
  0
LAYOUT
  5
21
102
{ACAD_REACTORS
330
1E
102
}
100
AcDbPlotSettings
  1

  2

  4

  6

 40
0.0
 41
0.0
 42
0.0
 43
0.0
 44
0.0
 45
0.0
 46
0.0
 47
0.0
 48
0.0
 49
0.0
140
0.0
141
0.0
142
1.0
143
1.0
 70
     0
 72
     0
 73
     0
 74
     0
  7

 75
     0
147
1.0
148
0.0
149
0.0
100
AcDbLayout
  1
Layout1
 70
     0
 71
     0
 10
0.0
 20
0.0
 11
0.0
 21
0.0
 12
0.0
 22
0.0
 32
0.0
 14
0.0
 24
0.0
 34
0.0
 15
0.0
 25
0.0
 35
0.0
146
0.0
 13
0.0
 23
0.0
 33
0.0
 16
0.0
 26
0.0
 36
0.0
 17
0.0
 27
0.0
 37
0.0
 76
     0
330
B
331
0
345
0
346
0
  0
DICTIONARY
  5
1E
102
{ACAD_REACTORS
330
19
102
}
100
AcDbDictionary
280
     0
281
     1
  3
Layout1
350
21
  3
Model
350
20
  0
DICTIONARY
  5
22
102
{ACAD_REACTORS
330
19
102
}
100
AcDbDictionary
280
     0
281
     1
  0
WIPEOUTVARIABLES
  5
23
100
AcDbWipeoutVariables
 70
     1
  0
ENDSEC
  0
EOF
