  0
SECTION
  2
HEADER
  9
$ACADVER
  1
AC1015
  9
$ACADMAINTVER
 70
     6
  9
$DWGCODEPAGE
  3
DOS850
  9
$INSBASE
 10
0.0
 20
0.0
 30
0.0
  9
$EXTMIN
 10
-3.25571
 20
-6.9373
 30
1.000000E+20
  9
$EXTMAX
 10
3.26146
 20
6.93109
 30
-1.000000E+20
  9
$LIMMIN
 10
0.0
 20
0.0
  9
$LIMMAX
 10
0.0
 20
0.0
  9
$ORTHOMODE
 70
     0
  9
$REGENMODE
 70
     1
  9
$FILLMODE
 70
     1
  9
$QTEXTMODE
 70
     0
  9
$MIRRTEXT
 70
     1
  9
$LTSCALE
 40
1.0
  9
$ATTMODE
 70
     1
  9
$TEXTSIZE
 40
0.2
  9
$TRACEWID
 40
0.05
  9
$TEXTSTYLE
  7
Standard
  9
$CLAYER
  8
0
  9
$CELTYPE
  6
Continuous
  9
$CECOLOR
 62
   256
  9
$CELTSCALE
 40
1.0
  9
$DISPSILH
 70
     0
  9
$DIMSCALE
 40
1.0
  9
$DIMASZ
 40
0.18
  9
$DIMEXO
 40
0.0625
  9
$DIMDLI
 40
0.38
  9
$DIMRND
 40
0.0
  9
$DIMDLE
 40
0.0
  9
$DIMEXE
 40
0.18
  9
$DIMTP
 40
0.0
  9
$DIMTM
 40
0.0
  9
$DIMTXT
 40
0.18
  9
$DIMCEN
 40
0.09
  9
$DIMTSZ
 40
0.0
  9
$DIMTOL
 70
     0
  9
$DIMLIM
 70
     0
  9
$DIMTIH
 70
     1
  9
$DIMTOH
 70
     1
  9
$DIMSE1
 70
     0
  9
$DIMSE2
 70
     0
  9
$DIMTAD
 70
     0
  9
$DIMZIN
 70
     0
  9
$DIMBLK
  1

  9
$DIMASO
 70
     1
  9
$DIMSHO
 70
     1
  9
$DIMPOST
  1

  9
$DIMAPOST
  1

  9
$DIMALT
 70
     0
  9
$DIMALTD
 70
     2
  9
$DIMALTF
 40
25.4
  9
$DIMLFAC
 40
1.0
  9
$DIMTOFL
 70
     0
  9
$DIMTVP
 40
0.0
  9
$DIMTIX
 70
     0
  9
$DIMSOXD
 70
     0
  9
$DIMSAH
 70
     0
  9
$DIMBLK1
  1

  9
$DIMBLK2
  1

  9
$DIMSTYLE
  2
Standard
  9
$DIMCLRD
 70
     0
  9
$DIMCLRE
 70
     0
  9
$DIMCLRT
 70
     0
  9
$DIMTFAC
 40
1.0
  9
$DIMGAP
 40
0.09
  9
$DIMJUST
 70
     0
  9
$DIMSD1
 70
     0
  9
$DIMSD2
 70
     0
  9
$DIMTOLJ
 70
     1
  9
$DIMTZIN
 70
     0
  9
$DIMALTZ
 70
     0
  9
$DIMALTTZ
 70
     0
  9
$DIMUPT
 70
     0
  9
$DIMDEC
 70
     4
  9
$DIMTDEC
 70
     4
  9
$DIMALTU
 70
     2
  9
$DIMALTTD
 70
     2
  9
$DIMTXSTY
  7
Standard
  9
$DIMAUNIT
 70
     0
  9
$DIMADEC
 70
     0
  9
$DIMALTRND
 40
0.0
  9
$DIMAZIN
 70
     0
  9
$DIMDSEP
 70
     0
  9
$DIMATFIT
 70
     3
  9
$DIMFRAC
 70
     0
  9
$DIMLDRBLK
  1

  9
$DIMLUNIT
 70
     2
  9
$DIMLWD
 70
     0
  9
$DIMLWE
 70
     0
  9
$DIMTMOVE
 70
     0
  9
$LUNITS
 70
     2
  9
$LUPREC
 70
     4
  9
$SKETCHINC
 40
0.1
  9
$FILLETRAD
 40
0.0
  9
$AUNITS
 70
     0
  9
$AUPREC
 70
     0
  9
$MENU
  1
acad
  9
$ELEVATION
 40
0.0
  9
$PELEVATION
 40
0.0
  9
$THICKNESS
 40
0.0
  9
$LIMCHECK
 70
     0
  9
$CHAMFERA
 40
0.0
  9
$CHAMFERB
 40
0.0
  9
$CHAMFERC
 40
0.0
  9
$CHAMFERD
 40
0.0
  9
$SKPOLY
 70
     0
  9
$TDCREATE
 40
0.000000000
  9
$TDUCREATE
 40
0.000000000
  9
$TDUPDATE
 40
0.000000000
  9
$TDUUPDATE
 40
0.000000000
  9
$TDINDWG
 40
0.0000000000
  9
$TDUSRTIMER
 40
0.0000000000
  9
$USRTIMER
 70
     1
  9
$ANGBASE
 50
0.0
  9
$ANGDIR
 70
     0
  9
$PDMODE
 70
     0
  9
$PDSIZE
 40
0.0
  9
$PLINEWID
 40
0.0
  9
$SPLFRAME
 70
     0
  9
$SPLINETYPE
 70
     6
  9
$SPLINESEGS
 70
     8
  9
$HANDSEED
  5
3C
  9
$SURFTAB1
 70
     6
  9
$SURFTAB2
 70
     6
  9
$SURFTYPE
 70
     6
  9
$SURFU
 70
     6
  9
$SURFV
 70
     6
  9
$UCSBASE
  2

  9
$UCSNAME
  2

  9
$UCSORG
 10
0.0
 20
0.0
 30
0.0
  9
$UCSXDIR
 10
1.0
 20
0.0
 30
0.0
  9
$UCSYDIR
 10
0.0
 20
1.0
 30
0.0
  9
$UCSORTHOREF
  2

  9
$UCSORTHOVIEW
 70
     0
  9
$UCSORGTOP
 10
0.0
 20
0.0
 30
0.0
  9
$UCSORGBOTTOM
 10
0.0
 20
0.0
 30
0.0
  9
$UCSORGLEFT
 10
0.0
 20
0.0
 30
0.0
  9
$UCSORGRIGHT
 10
0.0
 20
0.0
 30
0.0
  9
$UCSORGFRONT
 10
0.0
 20
0.0
 30
0.0
  9
$UCSORGBACK
 10
0.0
 20
0.0
 30
0.0
  9
$PUCSBASE
  2

  9
$PUCSNAME
  2

  9
$PUCSORG
 10
0.0
 20
0.0
 30
0.0
  9
$PUCSXDIR
 10
1.0
 20
0.0
 30
0.0
  9
$PUCSYDIR
 10
0.0
 20
1.0
 30
0.0
  9
$PUCSORTHOREF
  2

  9
$PUCSORTHOVIEW
 70
     0
  9
$PUCSORGTOP
 10
0.0
 20
0.0
 30
0.0
  9
$PUCSORGBOTTOM
 10
0.0
 20
0.0
 30
0.0
  9
$PUCSORGLEFT
 10
0.0
 20
0.0
 30
0.0
  9
$PUCSORGRIGHT
 10
0.0
 20
0.0
 30
0.0
  9
$PUCSORGFRONT
 10
0.0
 20
0.0
 30
0.0
  9
$PUCSORGBACK
 10
0.0
 20
0.0
 30
0.0
  9
$USERI1
 70
     0
  9
$USERI2
 70
     0
  9
$USERI3
 70
     0
  9
$USERI4
 70
     0
  9
$USERI5
 70
     0
  9
$USERR1
 40
0.0
  9
$USERR2
 40
0.0
  9
$USERR3
 40
0.0
  9
$USERR4
 40
0.0
  9
$USERR5
 40
0.0
  9
$WORLDVIEW
 70
     1
  9
$SHADEDGE
 70
     3
  9
$SHADEDIF
 70
    70
  9
$TILEMODE
 70
     1
  9
$MAXACTVP
 70
    16
  9
$PINSBASE
 10
0.0
 20
0.0
 30
0.0
  9
$PLIMCHECK
 70
     0
  9
$PEXTMIN
 10
1.000000E+20
 20
1.000000E+20
 30
1.000000E+20
  9
$PEXTMAX
 10
-1.000000E+20
 20
-1.000000E+20
 30
-1.000000E+20
  9
$PLIMMIN
 10
0.0
 20
0.0
  9
$PLIMMAX
 10
12.0
 20
9.0
  9
$UNITMODE
 70
     0
  9
$VISRETAIN
 70
     0
  9
$PLINEGEN
 70
     1
  9
$PSLTSCALE
 70
     0
  9
$TREEDEPTH
 70
  3020
  9
$CMLSTYLE
  2
Standard
  9
$CMLJUST
 70
     0
  9
$CMLSCALE
 40
1.0
  9
$PROXYGRAPHICS
 70
     0
  9
$MEASUREMENT
 70
     0
  9
$CELWEIGHT
370
     0
  9
$ENDCAPS
280
     0
  9
$JOINSTYLE
280
     0
  9
$LWDISPLAY
290
     0
  9
$INSUNITS
 70
     5
  9
$HYPERLINKBASE
  1

  9
$XEDIT
290
     1
  9
$CEPSNTYPE
380
     0
  9
$PSTYLEMODE
290
     1
  9
$FINGERPRINTGUID
  2

  9
$VERSIONGUID
  2

  9
$EXTNAMES
290
     1
  9
$PSVPSCALE
 40
0.0
  0
ENDSEC
  0
SECTION
  2
CLASSES
  0
CLASS
  1
LWPOLYLINE
  2
AcDbPolyline
  3
AutoCAD 2000
 90
    32768
280
     0
281
     1
  0
CLASS
  1
IMAGE
  2
AcDbRasterImage
  3
ISM
 90
    32895
280
     0
281
     1
  0
CLASS
  1
OLE2FRAME
  2
AcDbOle2Frame
  3
AutoCAD 2000
 90
    32768
280
     0
281
     1
  0
CLASS
  1
HATCH
  2
AcDbHatch
  3
AutoCAD 2000
 90
    32768
280
     0
281
     1
  0
CLASS
  1
DICTIONARYVAR
  2
AcDbDictionaryVar
  3
AutoCAD 2000
 90
    32768
280
     0
281
     0
  0
CLASS
  1
RASTERVARIABLES
  2
AcDbRasterVariables
  3
ISM
 90
    32768
280
     0
281
     0
  0
CLASS
  1
IMAGEDEF
  2
AcDbRasterImageDef
  3
ISM
 90
    32768
280
     0
281
     0
  0
CLASS
  1
IMAGEDEF_REACTOR
  2
AcDbRasterImageDefReactor
  3
ISM
 90
    32769
280
     0
281
     0
  0
CLASS
  1
IDBUFFER
  2
AcDbIdBuffer
  3
AutoCAD 2000
 90
    32768
280
     0
281
     0
  0
CLASS
  1
SPATIAL_FILTER
  2
AcDbSpatialFilter
  3
AutoCAD 2000
 90
    32768
280
     0
281
     0
  0
CLASS
  1
XRECORD
  2
AcDbXrecord
  3
AutoCAD 2000
 90
    32768
280
     0
281
     0
  0
CLASS
  1
SORTENTSTABLE
  2
AcDbSortentsTable
  3
AutoCAD 2000
 90
    32768
280
     0
281
     0
  0
CLASS
  1
LAYER_INDEX
  2
AcDbLayerIndex
  3
AutoCAD 2000
 90
    32768
280
     0
281
     0
  0
CLASS
  1
SPATIAL_INDEX
  2
AcDbSpatialIndex
  3
AutoCAD 2000
 90
    32768
280
     0
281
     0
  0
CLASS
  1
OBJECT_PTR
  2
CAseDLPNTableRecord
  3
"ASE-LPNTableRecord"
 90
    32769
280
     0
281
     0
  0
CLASS
  1
LAYOUT
  2
AcDbLayout
  3
AutoCAD 2000
 90
        0
280
     0
281
     0
  0
CLASS
  1
PLOTSETTINGS
  2
AcDbPlotSettings
  3
AutoCAD 2000
 90
    32768
280
     0
281
     0
  0
CLASS
  1
ACDBDICTIONARYWDFLT
  2
AcDbDictionaryWithDefault
  3
AutoCAD 2000
 90
        0
280
     0
281
     0
  0
CLASS
  1
ACDBPLACEHOLDER
  2
AcDbPlaceHolder
  3
AutoCAD 2000
 90
        0
280
     0
281
     0
  0
CLASS
  1
VBA_PROJECT
  2
AcDbVbaProject
  3
acadvba
 90
    32768
280
     0
281
     0
  0
CLASS
  1
WIPEOUT
  2
AcDbWipeout
  3
WipeOut|AutoCAD Express Tool|expresstools@autodesk.com
 90
    32895
280
     0
281
     1
  0
CLASS
  1
WIPEOUTVARIABLES
  2
AcDbWipeoutVariables
  3
WipeOut|AutoCAD Express Tool|expresstools@autodesk.com
 90
        0
280
     0
281
     0
  0
CLASS
  1
RTEXT
  2
RText
  3
RText|AutoCAD Express Tool|expresstools@autodesk.com
 90
    32768
280
     0
281
     1
  0
CLASS
  1
ARCALIGNEDTEXT
  2
AcDbArcAlignedText
  3
ATEXT|AutoCAD Express Tool|expresstools@autodesk.com
 90
    32768
280
     0
281
     1
  0
ENDSEC
  0
SECTION
  2
TABLES
  0
TABLE
  2
VPORT
  5
7
100
AcDbSymbolTable
 70
     1
  0
VPORT
  5
15
100
AcDbSymbolTableRecord
100
AcDbViewportTableRecord
  2
*ACTIVE
 70
     0
 10
0.0
 20
0.0
 11
1.0
 21
1.0
 12
6.591288
 22
4.579184
 13
0.0
 23
0.0
 14
1.0
 24
1.0
 15
0.0
 25
0.0
 16
0.0
 26
0.0
 36
1.0
 17
0.0
 27
0.0
 37
0.0
 40
9.158369
 41
0.688564
 42
50.0
 43
0.0
 44
0.0
 50
0.0
 51
0.0
 71
     0
 72
   100
 73
     1
 74
     1
 75
     0
 76
     0
 77
     0
 78
     0
281
     0
 65
     0
110
0.0
120
0.0
130
0.0
111
1.0
121
0.0
131
0.0
112
0.0
122
1.0
132
0.0
345
0
346
0
 79
     0
146
0.0
  0
ENDTAB
  0
TABLE
  2
LTYPE
  5
4
100
AcDbSymbolTable
 70
     3
  0
LTYPE
  5
11
100
AcDbSymbolTableRecord
100
AcDbLinetypeTableRecord
  2
ByBlock
 70
    64
  3

 72
    65
 73
     0
 40
0.0
  0
LTYPE
  5
12
100
AcDbSymbolTableRecord
100
AcDbLinetypeTableRecord
  2
ByLayer
 70
    64
  3

 72
    65
 73
     0
 40
0.0
  0
LTYPE
  5
13
100
AcDbSymbolTableRecord
100
AcDbLinetypeTableRecord
  2
Continuous
 70
    64
  3
Solid line
 72
    65
 73
     0
 40
0.0
  0
ENDTAB
  0
TABLE
  2
LAYER
  5
2
100
AcDbSymbolTable
 70
     2
  0
LAYER
  5
14
100
AcDbSymbolTableRecord
100
AcDbLayerTableRecord
  2
0
 70
     0
 62
     7
  6
Continuous
290
     1
370
    -3
390
1D
  0
LAYER
  5
24
100
AcDbSymbolTableRecord
100
AcDbLayerTableRecord
  2
Ebene 1
 70
     0
 62
     7
  6
Continuous
290
     1
370
    -3
390
1F
  0
ENDTAB
  0
TABLE
  2
STYLE
  5
3
100
AcDbSymbolTable
 70
     1
  0
STYLE
  5
17
100
AcDbSymbolTableRecord
100
AcDbTextStyleTableRecord
  2
Standard
 70
     0
 40
0.0
 41
1.0
 50
0.0
 71
     0
 42
0.0
  3
txt
  4

  0
ENDTAB
  0
TABLE
  2
VIEW
  5
5
100
AcDbSymbolTable
 70
     0
  0
ENDTAB
  0
TABLE
  2
UCS
  5
6
100
AcDbSymbolTable
 70
     0
  0
ENDTAB
  0
TABLE
  2
APPID
  5
8
100
AcDbSymbolTable
 70
     1
  0
APPID
  5
16
100
AcDbSymbolTableRecord
100
AcDbRegAppTableRecord
  2
ACAD
 70
     0
  0
ENDTAB
  0
TABLE
  2
DIMSTYLE
  5
9
100
AcDbSymbolTable
 70
     1
100
AcDbDimStyleTable
 71
     0
  0
DIMSTYLE
105
18
100
AcDbSymbolTableRecord
100
AcDbDimStyleTableRecord
  2
Standard
 70
     0
  3

  4

 40
1.0
 41
0.18
 42
0.0625
 43
0.38
 44
0.18
 45
0.0
 46
0.0
 47
0.0
 48
0.0
 71
     0
 72
     0
 73
     1
 74
     1
 75
     0
 76
     0
 77
     0
 78
     0
 79
     0
140
0.18
141
0.09
142
0.0
143
25.4
144
1.0
145
0.0
146
1.0
147
0.09
148
0.0
170
     0
171
     2
172
     0
173
     0
174
     0
175
     0
176
     0
177
     0
178
     0
179
     0
271
     4
272
     4
273
     2
274
     2
275
     0
276
     0
277
     2
278
    46
279
     0
280
     0
281
     0
282
     0
283
     1
284
     0
285
     0
286
     0
288
     0
340
17
341
0
342
0
343
0
344
0
371
    -2
372
    -2
  0
ENDTAB
  0
TABLE
  2
BLOCK_RECORD
  5
1
100
AcDbSymbolTable
 70
     0
  0
BLOCK_RECORD
  5
A
100
AcDbSymbolTableRecord
100
AcDbBlockTableRecord
  2
*MODEL_SPACE
340
20
  0
BLOCK_RECORD
  5
B
100
AcDbSymbolTableRecord
100
AcDbBlockTableRecord
  2
*PAPER_SPACE
340
21
  0
ENDTAB
  0
ENDSEC
  0
SECTION
  2
BLOCKS
  0
BLOCK
  5
D
100
AcDbEntity
  8
0
100
AcDbBlockBegin
  2
*MODEL_SPACE
 70
     0
 10
0.0
 20
0.0
 30
0.0
  3
*MODEL_SPACE
  1

  0
ENDBLK
  5
E
100
AcDbEntity
  8
0
100
AcDbBlockEnd
  0
BLOCK
  5
F
100
AcDbEntity
 67
     1
  8
0
100
AcDbBlockBegin
  2
*PAPER_SPACE
 70
     0
 10
0.0
 20
0.0
 30
0.0
  3
*PAPER_SPACE
  1

  0
ENDBLK
  5
10
100
AcDbEntity
 67
     1
  8
0
100
AcDbBlockEnd
  0
ENDSEC
  0
SECTION
  2
ENTITIES
  0
SPLINE
  5
25
100
AcDbEntity
  8
Ebene 1
100
AcDbSpline
210
0.0
220
0.0
230
1.0
 70
     1
 71
     3
 72
   180
 73
   176
 74
     0
 42
0.0000000001
 43
0.0000000001
 40
0.0
 40
0.0
 40
0.0
 40
0.0
 40
0.0227272727272727
 40
0.0227272727272727
 40
0.0227272727272727
 40
0.0227272727272727
 40
0.0454545454545455
 40
0.0454545454545455
 40
0.0454545454545455
 40
0.0454545454545455
 40
0.0681818181818182
 40
0.0681818181818182
 40
0.0681818181818182
 40
0.0681818181818182
 40
0.0909090909090909
 40
0.0909090909090909
 40
0.0909090909090909
 40
0.0909090909090909
 40
0.1136363636363637
 40
0.1136363636363637
 40
0.1136363636363637
 40
0.1136363636363637
 40
0.1363636363636364
 40
0.1363636363636364
 40
0.1363636363636364
 40
0.1363636363636364
 40
0.1590909090909091
 40
0.1590909090909091
 40
0.1590909090909091
 40
0.1590909090909091
 40
0.1818181818181819
 40
0.1818181818181819
 40
0.1818181818181819
 40
0.1818181818181819
 40
0.2045454545454546
 40
0.2045454545454546
 40
0.2045454545454546
 40
0.2045454545454546
 40
0.2272727272727273
 40
0.2272727272727273
 40
0.2272727272727273
 40
0.2272727272727273
 40
0.2500000000000001
 40
0.2500000000000001
 40
0.2500000000000001
 40
0.2500000000000001
 40
0.2727272727272728
 40
0.2727272727272728
 40
0.2727272727272728
 40
0.2727272727272728
 40
0.2954545454545455
 40
0.2954545454545455
 40
0.2954545454545455
 40
0.2954545454545455
 40
0.3181818181818182
 40
0.3181818181818182
 40
0.3181818181818182
 40
0.3181818181818182
 40
0.3409090909090909
 40
0.3409090909090909
 40
0.3409090909090909
 40
0.3409090909090909
 40
0.3636363636363636
 40
0.3636363636363636
 40
0.3636363636363636
 40
0.3636363636363636
 40
0.3863636363636363
 40
0.3863636363636363
 40
0.3863636363636363
 40
0.3863636363636363
 40
0.409090909090909
 40
0.409090909090909
 40
0.409090909090909
 40
0.409090909090909
 40
0.4318181818181817
 40
0.4318181818181817
 40
0.4318181818181817
 40
0.4318181818181817
 40
0.4545454545454544
 40
0.4545454545454544
 40
0.4545454545454544
 40
0.4545454545454544
 40
0.4772727272727271
 40
0.4772727272727271
 40
0.4772727272727271
 40
0.4772727272727271
 40
0.4999999999999998
 40
0.4999999999999998
 40
0.4999999999999998
 40
0.4999999999999998
 40
0.5227272727272726
 40
0.5227272727272726
 40
0.5227272727272726
 40
0.5227272727272726
 40
0.5454545454545453
 40
0.5454545454545453
 40
0.5454545454545453
 40
0.5454545454545453
 40
0.568181818181818
 40
0.568181818181818
 40
0.568181818181818
 40
0.568181818181818
 40
0.5909090909090907
 40
0.5909090909090907
 40
0.5909090909090907
 40
0.5909090909090907
 40
0.6136363636363634
 40
0.6136363636363634
 40
0.6136363636363634
 40
0.6136363636363634
 40
0.6363636363636361
 40
0.6363636363636361
 40
0.6363636363636361
 40
0.6363636363636361
 40
0.6590909090909088
 40
0.6590909090909088
 40
0.6590909090909088
 40
0.6590909090909088
 40
0.6818181818181816
 40
0.6818181818181816
 40
0.6818181818181816
 40
0.6818181818181816
 40
0.7045454545454543
 40
0.7045454545454543
 40
0.7045454545454543
 40
0.7045454545454543
 40
0.727272727272727
 40
0.727272727272727
 40
0.727272727272727
 40
0.727272727272727
 40
0.7499999999999997
 40
0.7499999999999997
 40
0.7499999999999997
 40
0.7499999999999997
 40
0.7727272727272724
 40
0.7727272727272724
 40
0.7727272727272724
 40
0.7727272727272724
 40
0.7954545454545451
 40
0.7954545454545451
 40
0.7954545454545451
 40
0.7954545454545451
 40
0.8181818181818178
 40
0.8181818181818178
 40
0.8181818181818178
 40
0.8181818181818178
 40
0.8409090909090905
 40
0.8409090909090905
 40
0.8409090909090905
 40
0.8409090909090905
 40
0.8636363636363632
 40
0.8636363636363632
 40
0.8636363636363632
 40
0.8636363636363632
 40
0.8863636363636359
 40
0.8863636363636359
 40
0.8863636363636359
 40
0.8863636363636359
 40
0.9090909090909086
 40
0.9090909090909086
 40
0.9090909090909086
 40
0.9090909090909086
 40
0.9318181818181813
 40
0.9318181818181813
 40
0.9318181818181813
 40
0.9318181818181813
 40
0.954545454545454
 40
0.954545454545454
 40
0.954545454545454
 40
0.954545454545454
 40
0.9772727272727267
 40
0.9772727272727267
 40
0.9772727272727267
 40
0.9772727272727267
 40
1.0
 40
1.0
 40
1.0
 40
1.0
 10
-3.1850100000000001
 20
6.9310900000000002
 30
0.0
 10
-2.7836900000000004
 20
6.0370100000000004
 30
0.0
 10
-2.19441
 20
5.0235500000000002
 30
0.0
 10
-2.0902700000000003
 20
3.9034100000000005
 30
0.0
 10
-2.0902700000000003
 20
3.9034100000000005
 30
0.0
 10
-1.9226300000000001
 20
3.6646500000000004
 30
0.0
 10
-1.6635500000000001
 20
3.9465900000000005
 30
0.0
 10
-1.7372100000000001
 20
4.1447100000000008
 30
0.0
 10
-1.7372100000000001
 20
4.1447100000000008
 30
0.0
 10
-1.75499
 20
4.3555300000000008
 30
0.0
 10
-1.9480300000000002
 20
4.4571300000000003
 30
0.0
 10
-2.0089900000000003
 20
4.6400100000000002
 30
0.0
 10
-2.0089900000000003
 20
4.6400100000000002
 30
0.0
 10
-0.9802900000000001
 20
4.4622100000000007
 30
0.0
 10
-1.4273300000000002
 20
3.0601300000000005
 30
0.0
 10
-1.17079
 20
2.3286100000000003
 30
0.0
 10
-1.17079
 20
2.3286100000000003
 30
0.0
 10
-1.0971300000000002
 20
2.16351
 30
0.0
 10
-1.0945900000000002
 20
1.9501500000000001
 30
0.0
 10
-0.86853
 20
1.8764900000000002
 30
0.0
 10
-0.86853
 20
1.8764900000000002
 30
0.0
 10
-0.72375
 20
1.8968100000000001
 30
0.0
 10
-0.6856500000000001
 20
2.0415900000000002
 30
0.0
 10
-0.65263
 20
2.1482700000000001
 30
0.0
 10
-0.65263
 20
2.1482700000000001
 30
0.0
 10
-1.0641100000000001
 20
3.2404700000000002
 30
0.0
 10
-0.34021
 20
4.20059
 30
0.0
 10
-0.88885
 20
4.8355900000000007
 30
0.0
 10
-0.88885
 20
4.8355900000000007
 30
0.0
 10
-0.22591
 20
4.45967
 30
0.0
 10
-0.22845
 20
3.6087700000000003
 30
0.0
 10
-0.3757700000000001
 20
2.9712300000000003
 30
0.0
 10
-0.3757700000000001
 20
2.9712300000000003
 30
0.0
 10
-0.3757700000000001
 20
2.9712300000000003
 30
0.0
 10
-0.28179
 20
2.8239100000000001
 30
0.0
 10
-0.28179
 20
2.8239100000000001
 30
0.0
 10
-0.28179
 20
2.8239100000000001
 30
0.0
 10
-0.07605
 20
2.7781900000000004
 30
0.0
 10
-0.20559
 20
3.1490300000000002
 30
0.0
 10
-0.21067
 20
3.2811100000000004
 30
0.0
 10
-0.21067
 20
3.2811100000000004
 30
0.0
 10
0.3659
 20
2.8493100000000005
 30
0.0
 10
-0.5865900000000001
 20
1.5462900000000002
 30
0.0
 10
0.28462
 20
1.27705
 30
0.0
 10
0.28462
 20
1.27705
 30
0.0
 10
0.6529200000000001
 20
1.3659500000000002
 30
0.0
 10
0.0484
 20
2.4149700000000003
 30
0.0
 10
0.3405
 20
2.9255100000000001
 30
0.0
 10
0.3405
 20
2.9255100000000001
 30
0.0
 10
0.3913
 20
2.03905
 30
0.0
 10
1.3234800000000002
 20
1.9704700000000002
 30
0.0
 10
1.2066400000000002
 20
0.57855
 30
0.0
 10
1.2066400000000002
 20
0.57855
 30
0.0
 10
1.27014
 20
0.51251
 30
0.0
 10
1.3819000000000001
 20
0.36519
 30
0.0
 10
1.4631800000000001
 20
0.4540900000000001
 30
0.0
 10
1.4631800000000001
 20
0.4540900000000001
 30
0.0
 10
1.6638400000000002
 20
0.6750700000000001
 30
0.0
 10
1.4530200000000002
 20
1.0027300000000001
 30
0.0
 10
1.2930000000000001
 20
1.10941
 30
0.0
 10
1.2930000000000001
 20
1.10941
 30
0.0
 10
1.9915000000000003
 20
1.10941
 30
0.0
 10
1.8568800000000001
 20
0.31439
 30
0.0
 10
1.9915000000000003
 20
-0.09962
 30
0.0
 10
1.9915000000000003
 20
-0.09962
 30
0.0
 10
2.4283800000000002
 20
-0.3841000000000001
 30
0.0
 10
2.0600800000000001
 20
0.26105
 30
0.0
 10
2.0245200000000003
 20
0.28645
 30
0.0
 10
2.0245200000000003
 20
0.28645
 30
0.0
 10
2.7204800000000002
 20
0.05277
 30
0.0
 10
2.6036400000000004
 20
-0.82606
 30
0.0
 10
2.7230200000000004
 20
-1.3950200000000001
 30
0.0
 10
2.7230200000000004
 20
-1.3950200000000001
 30
0.0
 10
2.7408000000000001
 20
-1.4737600000000002
 30
0.0
 10
2.7636600000000002
 20
-1.5677400000000001
 30
0.0
 10
2.8424
 20
-1.6134600000000001
 30
0.0
 10
2.8424
 20
-1.6134600000000001
 30
0.0
 10
3.0227400000000002
 20
-1.63124
 30
0.0
 10
2.7916000000000003
 20
-1.3924800000000002
 30
0.0
 10
2.9363800000000002
 20
-1.37216
 30
0.0
 10
2.9363800000000002
 20
-1.37216
 30
0.0
 10
3.8736400000000004
 20
-2.2586200000000001
 30
0.0
 10
2.4182200000000003
 20
-3.4752800000000001
 30
0.0
 10
3.0989400000000002
 20
-4.4125400000000008
 30
0.0
 10
3.0989400000000002
 20
-4.4125400000000008
 30
0.0
 10
3.1294200000000001
 20
-4.5039800000000003
 30
0.0
 10
3.1421200000000002
 20
-4.6157400000000006
 30
0.0
 10
3.1116400000000004
 20
-4.7071800000000001
 30
0.0
 10
3.1116400000000004
 20
-4.7071800000000001
 30
0.0
 10
2.8652600000000001
 20
-5.0221400000000003
 30
0.0
 10
2.4766400000000002
 20
-5.2609000000000004
 30
0.0
 10
2.0702400000000001
 20
-5.2863000000000007
 30
0.0
 10
2.0702400000000001
 20
-5.2863000000000007
 30
0.0
 10
2.3852000000000002
 20
-5.9771800000000006
 30
0.0
 10
2.0956400000000004
 20
-6.5766200000000001
 30
0.0
 10
1.8238600000000003
 20
-6.8306200000000006
 30
0.0
 10
1.8238600000000003
 20
-6.8306200000000006
 30
0.0
 10
1.7451200000000002
 20
-6.6934600000000009
 30
0.0
 10
1.6892400000000001
 20
-6.6553600000000008
 30
0.0
 10
1.6054200000000001
 20
-6.6274200000000008
 30
0.0
 10
1.6054200000000001
 20
-6.6274200000000008
 30
0.0
 10
1.6028800000000001
 20
-6.9017400000000002
 30
0.0
 10
1.5647800000000001
 20
-6.9754000000000005
 30
0.0
 10
1.4352400000000001
 20
-6.6858400000000007
 30
0.0
 10
1.4352400000000001
 20
-6.6858400000000007
 30
0.0
 10
1.3819000000000001
 20
-6.7341000000000006
 30
0.0
 10
1.4555600000000002
 20
-6.8941200000000009
 30
0.0
 10
1.4174600000000002
 20
-6.9373000000000005
 30
0.0
 10
1.4174600000000002
 20
-6.9373000000000005
 30
0.0
 10
0.9221600000000001
 20
-6.7671200000000002
 30
0.0
 10
0.49036
 20
-6.3480200000000009
 30
0.0
 10
0.4954400000000001
 20
-5.6673000000000009
 30
0.0
 10
0.4954400000000001
 20
-5.6673000000000009
 30
0.0
 10
0.17286
 20
-5.7511200000000002
 30
0.0
 10
-0.31735
 20
-5.9670200000000007
 30
0.0
 10
-0.6856500000000001
 20
-5.8654200000000003
 30
0.0
 10
-0.6856500000000001
 20
-5.8654200000000003
 30
0.0
 10
-0.7491500000000001
 20
-5.5758600000000005
 30
0.0
 10
-0.9650500000000001
 20
-5.4387000000000008
 30
0.0
 10
-1.00061
 20
-5.0881800000000004
 30
0.0
 10
-1.00061
 20
-5.0881800000000004
 30
0.0
 10
-1.9886700000000002
 20
-4.4963600000000001
 30
0.0
 10
-3.0097500000000004
 20
-3.6226000000000003
 30
0.0
 10
-2.5322300000000002
 20
-2.3627600000000002
 30
0.0
 10
-2.5322300000000002
 20
-2.3627600000000002
 30
0.0
 10
-2.4636500000000003
 20
-2.5304000000000002
 30
0.0
 10
-2.5347700000000004
 20
-2.7640800000000003
 30
0.0
 10
-2.3112500000000002
 20
-2.8555200000000003
 30
0.0
 10
-2.3112500000000002
 20
-2.8555200000000003
 30
0.0
 10
-2.1436100000000002
 20
-2.7945600000000002
 30
0.0
 10
-2.2248900000000003
 20
-2.5329400000000004
 30
0.0
 10
-2.2121900000000001
 20
-2.3805400000000003
 30
0.0
 10
-2.2121900000000001
 20
-2.3805400000000003
 30
0.0
 10
-2.3823700000000003
 20
-1.4559800000000001
 30
0.0
 10
-3.5482300000000002
 20
-0.08184
 30
0.0
 10
-3.0859500000000004
 20
0.5048900000000001
 30
0.0
 10
-3.0859500000000004
 20
0.5048900000000001
 30
0.0
 10
-3.0630900000000003
 20
0.23565
 30
0.0
 10
-2.9792700000000001
 20
-0.24948
 30
0.0
 10
-2.6897100000000003
 20
-0.4171200000000001
 30
0.0
 10
-2.6897100000000003
 20
-0.4171200000000001
 30
0.0
 10
-2.0953500000000003
 20
-0.76256
 30
0.0
 10
-2.1182100000000004
 20
-1.4559800000000001
 30
0.0
 10
-1.9937500000000001
 20
-1.3391400000000002
 30
0.0
 10
-1.9937500000000001
 20
-1.3391400000000002
 30
0.0
 10
-1.6508500000000002
 20
-1.0648200000000001
 30
0.0
 10
-2.6846300000000003
 20
0.12643
 30
0.0
 10
-2.0674100000000002
 20
-0.32568
 30
0.0
 10
-2.0674100000000002
 20
-0.32568
 30
0.0
 10
-1.9835900000000002
 20
-0.4044200000000001
 30
0.0
 10
-1.84135
 20
-0.346
 30
0.0
 10
-1.8540500000000002
 20
-0.24948
 30
0.0
 10
-1.8540500000000002
 20
-0.24948
 30
0.0
 10
-2.3925300000000003
 20
0.5074300000000001
 30
0.0
 10
-3.3018500000000004
 20
1.2643500000000001
 30
0.0
 10
-2.8471900000000003
 20
2.3006700000000002
 30
0.0
 10
-2.8471900000000003
 20
2.3006700000000002
 30
0.0
 10
-2.8471900000000003
 20
2.3006700000000002
 30
0.0
 10
-2.7836900000000004
 20
1.9349100000000001
 30
0.0
 10
-2.7836900000000004
 20
1.9349100000000001
 30
0.0
 10
-2.7836900000000004
 20
1.9349100000000001
 30
0.0
 10
-2.7938500000000004
 20
1.4980300000000002
 30
0.0
 10
-2.3493500000000003
 20
1.6478900000000001
 30
0.0
 10
-2.48651
 20
2.01111
 30
0.0
 10
-2.48651
 20
2.01111
 30
0.0
 10
-2.8243300000000002
 20
2.9382100000000002
 30
0.0
 10
-3.5583900000000002
 20
4.0659700000000001
 30
0.0
 10
-2.9284700000000004
 20
5.0311700000000004
 30
0.0
 10
-2.9284700000000004
 20
5.0311700000000004
 30
0.0
 10
-2.8827500000000001
 20
4.6755700000000004
 30
0.0
 10
-3.0783300000000002
 20
4.1523300000000001
 30
0.0
 10
-2.6871700000000001
 20
3.8907100000000003
 30
0.0
 10
-2.6871700000000001
 20
3.8907100000000003
 30
0.0
 10
-2.1588500000000002
 20
4.2463100000000003
 30
0.0
 10
-3.5812500000000003
 20
5.8769900000000002
 30
0.0
 10
-3.1850100000000001
 20
6.9310900000000002
 30
0.0
  0
SPLINE
  5
26
100
AcDbEntity
  8
Ebene 1
 62
     7
100
AcDbSpline
210
0.0
220
0.0
230
1.0
 70
     1
 71
     3
 72
   192
 73
   188
 74
     0
 42
0.0000000001
 43
0.0000000001
 40
0.0
 40
0.0
 40
0.0
 40
0.0
 40
0.0212765957446809
 40
0.0212765957446809
 40
0.0212765957446809
 40
0.0212765957446809
 40
0.0425531914893617
 40
0.0425531914893617
 40
0.0425531914893617
 40
0.0425531914893617
 40
0.0638297872340425
 40
0.0638297872340425
 40
0.0638297872340425
 40
0.0638297872340425
 40
0.0851063829787234
 40
0.0851063829787234
 40
0.0851063829787234
 40
0.0851063829787234
 40
0.1063829787234043
 40
0.1063829787234043
 40
0.1063829787234043
 40
0.1063829787234043
 40
0.1276595744680851
 40
0.1276595744680851
 40
0.1276595744680851
 40
0.1276595744680851
 40
0.148936170212766
 40
0.148936170212766
 40
0.148936170212766
 40
0.148936170212766
 40
0.1702127659574468
 40
0.1702127659574468
 40
0.1702127659574468
 40
0.1702127659574468
 40
0.1914893617021277
 40
0.1914893617021277
 40
0.1914893617021277
 40
0.1914893617021277
 40
0.2127659574468085
 40
0.2127659574468085
 40
0.2127659574468085
 40
0.2127659574468085
 40
0.2340425531914894
 40
0.2340425531914894
 40
0.2340425531914894
 40
0.2340425531914894
 40
0.2553191489361702
 40
0.2553191489361702
 40
0.2553191489361702
 40
0.2553191489361702
 40
0.276595744680851
 40
0.276595744680851
 40
0.276595744680851
 40
0.276595744680851
 40
0.2978723404255319
 40
0.2978723404255319
 40
0.2978723404255319
 40
0.2978723404255319
 40
0.3191489361702127
 40
0.3191489361702127
 40
0.3191489361702127
 40
0.3191489361702127
 40
0.3404255319148935
 40
0.3404255319148935
 40
0.3404255319148935
 40
0.3404255319148935
 40
0.3617021276595743
 40
0.3617021276595743
 40
0.3617021276595743
 40
0.3617021276595743
 40
0.3829787234042552
 40
0.3829787234042552
 40
0.3829787234042552
 40
0.3829787234042552
 40
0.404255319148936
 40
0.404255319148936
 40
0.404255319148936
 40
0.404255319148936
 40
0.4255319148936168
 40
0.4255319148936168
 40
0.4255319148936168
 40
0.4255319148936168
 40
0.4468085106382976
 40
0.4468085106382976
 40
0.4468085106382976
 40
0.4468085106382976
 40
0.4680851063829785
 40
0.4680851063829785
 40
0.4680851063829785
 40
0.4680851063829785
 40
0.4893617021276593
 40
0.4893617021276593
 40
0.4893617021276593
 40
0.4893617021276593
 40
0.5106382978723402
 40
0.5106382978723402
 40
0.5106382978723402
 40
0.5106382978723402
 40
0.5319148936170211
 40
0.5319148936170211
 40
0.5319148936170211
 40
0.5319148936170211
 40
0.5531914893617019
 40
0.5531914893617019
 40
0.5531914893617019
 40
0.5531914893617019
 40
0.5744680851063828
 40
0.5744680851063828
 40
0.5744680851063828
 40
0.5744680851063828
 40
0.5957446808510637
 40
0.5957446808510637
 40
0.5957446808510637
 40
0.5957446808510637
 40
0.6170212765957446
 40
0.6170212765957446
 40
0.6170212765957446
 40
0.6170212765957446
 40
0.6382978723404255
 40
0.6382978723404255
 40
0.6382978723404255
 40
0.6382978723404255
 40
0.6595744680851063
 40
0.6595744680851063
 40
0.6595744680851063
 40
0.6595744680851063
 40
0.6808510638297872
 40
0.6808510638297872
 40
0.6808510638297872
 40
0.6808510638297872
 40
0.7021276595744681
 40
0.7021276595744681
 40
0.7021276595744681
 40
0.7021276595744681
 40
0.723404255319149
 40
0.723404255319149
 40
0.723404255319149
 40
0.723404255319149
 40
0.7446808510638299
 40
0.7446808510638299
 40
0.7446808510638299
 40
0.7446808510638299
 40
0.7659574468085107
 40
0.7659574468085107
 40
0.7659574468085107
 40
0.7659574468085107
 40
0.7872340425531916
 40
0.7872340425531916
 40
0.7872340425531916
 40
0.7872340425531916
 40
0.8085106382978725
 40
0.8085106382978725
 40
0.8085106382978725
 40
0.8085106382978725
 40
0.8297872340425534
 40
0.8297872340425534
 40
0.8297872340425534
 40
0.8297872340425534
 40
0.8510638297872343
 40
0.8510638297872343
 40
0.8510638297872343
 40
0.8510638297872343
 40
0.8723404255319152
 40
0.8723404255319152
 40
0.8723404255319152
 40
0.8723404255319152
 40
0.893617021276596
 40
0.893617021276596
 40
0.893617021276596
 40
0.893617021276596
 40
0.9148936170212769
 40
0.9148936170212769
 40
0.9148936170212769
 40
0.9148936170212769
 40
0.9361702127659578
 40
0.9361702127659578
 40
0.9361702127659578
 40
0.9361702127659578
 40
0.9574468085106387
 40
0.9574468085106387
 40
0.9574468085106387
 40
0.9574468085106387
 40
0.9787234042553196
 40
0.9787234042553196
 40
0.9787234042553196
 40
0.9787234042553196
 40
1.0
 40
1.0
 40
1.0
 40
1.0
 10
-3.0072100000000002
 20
6.1106700000000007
 30
0.0
 10
-2.4357100000000003
 20
5.5493300000000003
 30
0.0
 10
-2.4026900000000002
 20
4.5968300000000006
 30
0.0
 10
-2.1334500000000003
 20
3.8576900000000003
 30
0.0
 10
-2.1334500000000003
 20
3.8576900000000003
 30
0.0
 10
-2.0572500000000002
 20
3.7941900000000004
 30
0.0
 10
-1.9531100000000001
 20
3.6697300000000004
 30
0.0
 10
-1.8210300000000001
 20
3.7560900000000004
 30
0.0
 10
-1.8210300000000001
 20
3.7560900000000004
 30
0.0
 10
-1.6127500000000001
 20
3.8627700000000003
 30
0.0
 10
-1.62799
 20
4.0888300000000006
 30
0.0
 10
-1.6076700000000002
 20
4.2615500000000006
 30
0.0
 10
-1.6076700000000002
 20
4.2615500000000006
 30
0.0
 10
-1.11999
 20
3.4919300000000004
 30
0.0
 10
-1.5543300000000002
 20
2.4098900000000003
 30
0.0
 10
-0.9345700000000001
 20
1.7215500000000001
 30
0.0
 10
-0.9345700000000001
 20
1.7215500000000001
 30
0.0
 10
-0.18019
 20
2.0212700000000003
 30
0.0
 10
-0.99299
 20
3.0398100000000001
 30
0.0
 10
-0.45705
 20
3.5147900000000001
 30
0.0
 10
-0.45705
 20
3.5147900000000001
 30
0.0
 10
-0.48753
 20
3.2404700000000002
 30
0.0
 10
-0.6094500000000001
 20
2.5749900000000001
 30
0.0
 10
-0.14717
 20
2.6969100000000004
 30
0.0
 10
-0.14717
 20
2.6969100000000004
 30
0.0
 10
-0.17257
 20
2.20669
 30
0.0
 10
-0.30465
 20
1.2541900000000001
 30
0.0
 10
0.35828
 20
1.1805300000000001
 30
0.0
 10
0.35828
 20
1.1805300000000001
 30
0.0
 10
0.5462400000000001
 20
1.2973700000000001
 30
0.0
 10
0.5208400000000001
 20
1.5234300000000001
 30
0.0
 10
0.4802
 20
1.69615
 30
0.0
 10
0.4802
 20
1.69615
 30
0.0
 10
0.38368
 20
2.0034900000000002
 30
0.0
 10
0.4548
 20
2.1228700000000003
 30
0.0
 10
0.6732400000000001
 20
1.8460100000000002
 30
0.0
 10
0.6732400000000001
 20
1.8460100000000002
 30
0.0
 10
1.15076
 20
1.48787
 30
0.0
 10
0.95518
 20
0.9036700000000001
 30
0.0
 10
1.14822
 20
0.43631
 30
0.0
 10
1.14822
 20
0.43631
 30
0.0
 10
1.3057000000000001
 20
0.2635900000000001
 30
0.0
 10
1.6308200000000002
 20
0.41599
 30
0.0
 10
1.6765400000000001
 20
0.6115700000000001
 30
0.0
 10
1.6765400000000001
 20
0.6115700000000001
 30
0.0
 10
1.7222600000000001
 20
0.2737500000000001
 30
0.0
 10
1.9051400000000001
 20
-0.7117600000000001
 30
0.0
 10
2.3318600000000003
 20
-0.1301
 30
0.0
 10
2.3318600000000003
 20
-0.1301
 30
0.0
 10
2.71286
 20
-0.5974600000000001
 30
0.0
 10
2.5249000000000001
 20
-1.1969000000000001
 30
0.0
 10
2.6823800000000002
 20
-1.7226800000000002
 30
0.0
 10
2.6823800000000002
 20
-1.7226800000000002
 30
0.0
 10
3.6501200000000003
 20
-1.7836400000000001
 30
0.0
 10
2.9389200000000004
 20
-3.1400000000000001
 30
0.0
 10
2.8068400000000002
 20
-3.7750000000000004
 30
0.0
 10
2.8068400000000002
 20
-3.7750000000000004
 30
0.0
 10
2.5604600000000004
 20
-3.2060400000000002
 30
0.0
 10
3.1065600000000004
 20
-2.6447000000000003
 30
0.0
 10
2.9389200000000004
 20
-2.0706600000000002
 30
0.0
 10
2.9389200000000004
 20
-2.0706600000000002
 30
0.0
 10
2.8373200000000001
 20
-2.0986000000000002
 30
0.0
 10
2.8805000000000001
 20
-2.3195800000000002
 30
0.0
 10
2.7509600000000001
 20
-2.4034
 30
0.0
 10
2.7509600000000001
 20
-2.4034
 30
0.0
 10
2.5223600000000004
 20
-2.1341600000000001
 30
0.0
 10
2.5223600000000004
 20
-1.6109200000000001
 30
0.0
 10
2.3928200000000004
 20
-1.3874000000000002
 30
0.0
 10
2.3928200000000004
 20
-1.3874000000000002
 30
0.0
 10
2.08548
 20
-0.8590800000000001
 30
0.0
 10
1.78068
 20
-0.6889000000000001
 30
0.0
 10
1.2269600000000001
 20
-0.03866
 30
0.0
 10
1.2269600000000001
 20
-0.03866
 30
0.0
 10
1.1202800000000002
 20
-0.1174
 30
0.0
 10
1.3895200000000001
 20
-0.8794000000000001
 30
0.0
 10
0.9628000000000001
 20
-0.5238
 30
0.0
 10
0.9628000000000001
 20
-0.5238
 30
0.0
 10
0.9628000000000001
 20
-0.5238
 30
0.0
 10
0.70118
 20
0.25343
 30
0.0
 10
0.70118
 20
0.25343
 30
0.0
 10
0.70118
 20
0.25343
 30
0.0
 10
0.6529200000000001
 20
0.40837
 30
0.0
 10
0.5487800000000001
 20
0.5633100000000001
 30
0.0
 10
0.38368
 20
0.62173
 30
0.0
 10
0.38368
 20
0.62173
 30
0.0
 10
0.6199
 20
-0.63302
 30
0.0
 10
-0.15479
 20
0.4439300000000001
 30
0.0
 10
-0.25893
 20
1.0509900000000001
 30
0.0
 10
-0.25893
 20
1.0509900000000001
 30
0.0
 10
-0.27925
 20
1.14497
 30
0.0
 10
-0.3325900000000001
 20
1.2135500000000001
 30
0.0
 10
-0.37323
 20
1.2872100000000002
 30
0.0
 10
-0.37323
 20
1.2872100000000002
 30
0.0
 10
-0.80249
 20
1.7571100000000002
 30
0.0
 10
-0.11923
 20
0.5048900000000001
 30
0.0
 10
-0.6881900000000001
 20
0.63697
 30
0.0
 10
-0.6881900000000001
 20
0.63697
 30
0.0
 10
-1.07935
 20
1.5183500000000001
 30
0.0
 10
-1.7676900000000002
 20
2.2524100000000002
 30
0.0
 10
-2.11313
 20
3.1617300000000004
 30
0.0
 10
-2.11313
 20
3.1617300000000004
 30
0.0
 10
-2.26553
 20
2.2879700000000001
 30
0.0
 10
-1.0920500000000002
 20
1.4650100000000001
 30
0.0
 10
-1.5162300000000002
 20
0.7360300000000001
 30
0.0
 10
-1.5162300000000002
 20
0.7360300000000001
 30
0.0
 10
-1.6940300000000001
 20
0.6903100000000001
 30
0.0
 10
-1.6762500000000002
 20
0.9595500000000001
 30
0.0
 10
-1.79817
 20
0.9265300000000001
 30
0.0
 10
-1.79817
 20
0.9265300000000001
 30
0.0
 10
-1.8388100000000001
 20
0.85033
 30
0.0
 10
-1.7448300000000001
 20
0.7588900000000001
 30
0.0
 10
-1.7778500000000002
 20
0.68269
 30
0.0
 10
-1.7778500000000002
 20
0.68269
 30
0.0
 10
-1.6991100000000001
 20
0.07055
 30
0.0
 10
-0.8761500000000001
 20
-0.44252
 30
0.0
 10
-1.1936500000000001
 20
-1.0445
 30
0.0
 10
-1.1936500000000001
 20
-1.0445
 30
0.0
 10
-1.3079500000000002
 20
-1.04196
 30
0.0
 10
-1.3536700000000002
 20
-0.7879600000000001
 30
0.0
 10
-1.4298700000000002
 20
-0.90734
 30
0.0
 10
-1.4298700000000002
 20
-0.90734
 30
0.0
 10
-1.2800100000000001
 20
-1.6668000000000001
 30
0.0
 10
-1.5924300000000002
 20
-2.4161000000000001
 30
0.0
 10
-1.6406900000000002
 20
-3.1781000000000001
 30
0.0
 10
-1.6406900000000002
 20
-3.1781000000000001
 30
0.0
 10
-1.7219700000000002
 20
-3.4524200000000005
 30
0.0
 10
-1.9505700000000001
 20
-3.2949400000000004
 30
0.0
 10
-2.0420100000000003
 20
-3.2365200000000001
 30
0.0
 10
-2.0420100000000003
 20
-3.2365200000000001
 30
0.0
 10
-1.9353300000000002
 20
-3.9578800000000003
 30
0.0
 10
-0.7288300000000001
 20
-4.1890200000000002
 30
0.0
 10
-0.9345700000000001
 20
-4.9586400000000008
 30
0.0
 10
-0.9345700000000001
 20
-4.9586400000000008
 30
0.0
 10
-1.5543300000000002
 20
-4.3719000000000001
 30
0.0
 10
-2.5550900000000003
 20
-3.8867600000000002
 30
0.0
 10
-2.4915900000000004
 20
-2.9037800000000002
 30
0.0
 10
-2.4915900000000004
 20
-2.9037800000000002
 30
0.0
 10
-2.4153900000000004
 20
-2.9672800000000001
 30
0.0
 10
-2.2426700000000004
 20
-3.0384000000000002
 30
0.0
 10
-2.1664700000000003
 20
-2.9190200000000002
 30
0.0
 10
-2.1664700000000003
 20
-2.9190200000000002
 30
0.0
 10
-2.1664700000000003
 20
-2.9190200000000002
 30
0.0
 10
-2.0902700000000003
 20
-2.48468
 30
0.0
 10
-2.0902700000000003
 20
-2.48468
 30
0.0
 10
-2.0902700000000003
 20
-2.48468
 30
0.0
 10
-2.2172700000000001
 20
-1.7506200000000001
 30
0.0
 10
-2.5703300000000002
 20
-1.0902200000000002
 30
0.0
 10
-2.8852900000000004
 20
-0.43998
 30
0.0
 10
-2.8852900000000004
 20
-0.43998
 30
0.0
 10
-2.6592300000000004
 20
-0.6127
 30
0.0
 10
-2.44333
 20
-0.82352
 30
0.0
 10
-2.3544300000000002
 20
-1.08514
 30
0.0
 10
-2.3544300000000002
 20
-1.08514
 30
0.0
 10
-2.2680700000000003
 20
-1.2604000000000002
 30
0.0
 10
-2.1207500000000001
 20
-1.67188
 30
0.0
 10
-1.8362700000000001
 20
-1.3975600000000001
 30
0.0
 10
-1.8362700000000001
 20
-1.3975600000000001
 30
0.0
 10
-1.7676900000000002
 20
-0.9784600000000001
 30
0.0
 10
-2.1004300000000002
 20
-0.61524
 30
0.0
 10
-1.7270500000000002
 20
-0.3333
 30
0.0
 10
-1.7270500000000002
 20
-0.3333
 30
0.0
 10
-2.0191500000000002
 20
0.3372500000000001
 30
0.0
 10
-2.8954500000000003
 20
0.7538100000000001
 30
0.0
 10
-2.7862300000000002
 20
1.6174100000000002
 30
0.0
 10
-2.7862300000000002
 20
1.6174100000000002
 30
0.0
 10
-2.7125700000000004
 20
1.5539100000000001
 30
0.0
 10
-2.5957300000000001
 20
1.5361300000000002
 30
0.0
 10
-2.4890500000000002
 20
1.5640700000000001
 30
0.0
 10
-2.4890500000000002
 20
1.5640700000000001
 30
0.0
 10
-2.4230100000000001
 20
1.6631300000000002
 30
0.0
 10
-2.35697
 20
1.7977500000000002
 30
0.0
 10
-2.35697
 20
1.9145900000000002
 30
0.0
 10
-2.35697
 20
1.9145900000000002
 30
0.0
 10
-2.5474700000000001
 20
2.6638900000000003
 30
0.0
 10
-3.1291300000000004
 20
3.3293700000000004
 30
0.0
 10
-3.0046700000000004
 20
4.1447100000000008
 30
0.0
 10
-3.0046700000000004
 20
4.1447100000000008
 30
0.0
 10
-3.0046700000000004
 20
4.1447100000000008
 30
0.0
 10
-2.7557500000000004
 20
3.7916500000000002
 30
0.0
 10
-2.7557500000000004
 20
3.7916500000000002
 30
0.0
 10
-2.7557500000000004
 20
3.7916500000000002
 30
0.0
 10
-2.65415
 20
3.7865700000000002
 30
0.0
 10
-2.52969
 20
3.8195900000000003
 30
0.0
 10
-2.4661900000000001
 20
3.9034100000000005
 30
0.0
 10
-2.4661900000000001
 20
3.9034100000000005
 30
0.0
 10
-2.4179300000000001
 20
4.6831900000000006
 30
0.0
 10
-2.9056100000000002
 20
5.3537500000000007
 30
0.0
 10
-3.0072100000000002
 20
6.1106700000000007
 30
0.0
  0
SPLINE
  5
27
100
AcDbEntity
  8
Ebene 1
 62
     7
100
AcDbSpline
210
0.0
220
0.0
230
1.0
 70
     1
 71
     3
 72
    84
 73
    80
 74
     0
 42
0.0000000001
 43
0.0000000001
 40
0.0
 40
0.0
 40
0.0
 40
0.0
 40
0.05
 40
0.05
 40
0.05
 40
0.05
 40
0.1
 40
0.1
 40
0.1
 40
0.1
 40
0.15
 40
0.15
 40
0.15
 40
0.15
 40
0.2
 40
0.2
 40
0.2
 40
0.2
 40
0.25
 40
0.25
 40
0.25
 40
0.25
 40
0.3
 40
0.3
 40
0.3
 40
0.3
 40
0.35
 40
0.35
 40
0.35
 40
0.35
 40
0.4
 40
0.4
 40
0.4
 40
0.4
 40
0.45
 40
0.45
 40
0.45
 40
0.45
 40
0.4999999999999999
 40
0.4999999999999999
 40
0.4999999999999999
 40
0.4999999999999999
 40
0.5499999999999999
 40
0.5499999999999999
 40
0.5499999999999999
 40
0.5499999999999999
 40
0.6
 40
0.6
 40
0.6
 40
0.6
 40
0.65
 40
0.65
 40
0.65
 40
0.65
 40
0.7000000000000001
 40
0.7000000000000001
 40
0.7000000000000001
 40
0.7000000000000001
 40
0.7500000000000001
 40
0.7500000000000001
 40
0.7500000000000001
 40
0.7500000000000001
 40
0.8000000000000002
 40
0.8000000000000002
 40
0.8000000000000002
 40
0.8000000000000002
 40
0.8500000000000002
 40
0.8500000000000002
 40
0.8500000000000002
 40
0.8500000000000002
 40
0.9000000000000002
 40
0.9000000000000002
 40
0.9000000000000002
 40
0.9000000000000002
 40
0.9500000000000003
 40
0.9500000000000003
 40
0.9500000000000003
 40
0.9500000000000003
 40
1.0
 40
1.0
 40
1.0
 40
1.0
 10
-0.43165
 20
-1.5779000000000001
 30
0.0
 10
0.2617600000000001
 20
-1.54234
 30
0.0
 10
0.9043800000000001
 20
-1.0572000000000001
 30
0.0
 10
1.5952600000000001
 20
-1.2248400000000002
 30
0.0
 10
1.5952600000000001
 20
-1.2248400000000002
 30
0.0
 10
2.4131400000000003
 20
-1.6591800000000001
 30
0.0
 10
2.8144600000000004
 20
-2.6701000000000001
 30
0.0
 10
2.5477600000000002
 20
-3.5083000000000002
 30
0.0
 10
2.5477600000000002
 20
-3.5083000000000002
 30
0.0
 10
2.5782400000000001
 20
-3.9350200000000002
 30
0.0
 10
3.0354400000000004
 20
-4.1458400000000006
 30
0.0
 10
3.0456000000000003
 20
-4.5776400000000006
 30
0.0
 10
3.0456000000000003
 20
-4.5776400000000006
 30
0.0
 10
2.8322400000000001
 20
-4.9840400000000002
 30
0.0
 10
2.37758
 20
-5.2532800000000002
 30
0.0
 10
1.8822800000000002
 20
-5.1999400000000007
 30
0.0
 10
1.8822800000000002
 20
-5.1999400000000007
 30
0.0
 10
1.8086200000000001
 20
-5.3040800000000008
 30
0.0
 10
1.7883000000000002
 20
-5.4260000000000002
 30
0.0
 10
1.7629000000000001
 20
-5.53268
 30
0.0
 10
1.7629000000000001
 20
-5.53268
 30
0.0
 10
1.7603600000000001
 20
-5.5657000000000005
 30
0.0
 10
1.7933800000000002
 20
-5.5911000000000008
 30
0.0
 10
1.8264000000000002
 20
-5.5657000000000005
 30
0.0
 10
1.8264000000000002
 20
-5.5657000000000005
 30
0.0
 10
1.9127600000000002
 20
-5.3929800000000006
 30
0.0
 10
2.09056
 20
-5.9619400000000002
 30
0.0
 10
1.8518000000000001
 20
-5.9086000000000007
 30
0.0
 10
1.8518000000000001
 20
-5.9086000000000007
 30
0.0
 10
1.8822800000000002
 20
-6.0838600000000005
 30
0.0
 10
1.8314800000000002
 20
-6.2819800000000008
 30
0.0
 10
1.6155800000000002
 20
-6.1549800000000001
 30
0.0
 10
1.6155800000000002
 20
-6.1549800000000001
 30
0.0
 10
1.5978000000000001
 20
-6.3429400000000005
 30
0.0
 10
1.5774800000000002
 20
-6.3327800000000005
 30
0.0
 10
1.4631800000000001
 20
-6.1956200000000008
 30
0.0
 10
1.4631800000000001
 20
-6.1956200000000008
 30
0.0
 10
1.3920600000000001
 20
-6.2972200000000003
 30
0.0
 10
1.3819000000000001
 20
-6.4826400000000008
 30
0.0
 10
1.2879200000000002
 20
-6.2413400000000001
 30
0.0
 10
1.2879200000000002
 20
-6.2413400000000001
 30
0.0
 10
1.1787000000000001
 20
-6.3327800000000005
 30
0.0
 10
1.0567800000000001
 20
-6.2108600000000003
 30
0.0
 10
0.99582
 20
-6.0686200000000001
 30
0.0
 10
0.99582
 20
-6.0686200000000001
 30
0.0
 10
0.9755
 20
-6.0229000000000008
 30
0.0
 10
1.02376
 20
-5.9162200000000009
 30
0.0
 10
0.9399400000000001
 20
-5.9568600000000007
 30
0.0
 10
0.9399400000000001
 20
-5.9568600000000007
 30
0.0
 10
1.0059800000000001
 20
-6.3226200000000006
 30
0.0
 10
0.57164
 20
-6.0305200000000001
 30
0.0
 10
0.6326000000000001
 20
-5.7308000000000003
 30
0.0
 10
0.6326000000000001
 20
-5.7308000000000003
 30
0.0
 10
0.7596000000000001
 20
-5.7968400000000004
 30
0.0
 10
0.7545200000000001
 20
-5.9492400000000005
 30
0.0
 10
0.80786
 20
-6.0508400000000009
 30
0.0
 10
0.80786
 20
-6.0508400000000009
 30
0.0
 10
0.9247000000000001
 20
-6.0025800000000009
 30
0.0
 10
0.7138800000000001
 20
-5.6266600000000002
 30
0.0
 10
0.93232
 20
-5.8501800000000008
 30
0.0
 10
0.93232
 20
-5.8501800000000008
 30
0.0
 10
1.10504
 20
-5.9568600000000007
 30
0.0
 10
0.8104000000000001
 20
-5.5834800000000007
 30
0.0
 10
0.68086
 20
-5.5352200000000007
 30
0.0
 10
0.68086
 20
-5.5352200000000007
 30
0.0
 10
0.24144
 20
-5.6165000000000003
 30
0.0
 10
-0.17257
 20
-5.9771800000000006
 30
0.0
 10
-0.6272300000000001
 20
-5.7460400000000007
 30
0.0
 10
-0.6272300000000001
 20
-5.7460400000000007
 30
0.0
 10
-0.8126500000000001
 20
-5.3294800000000002
 30
0.0
 10
-0.88885
 20
-4.9154600000000004
 30
0.0
 10
-0.80249
 20
-4.4760400000000002
 30
0.0
 10
-0.80249
 20
-4.4760400000000002
 30
0.0
 10
-1.3866900000000002
 20
-4.0112200000000007
 30
0.0
 10
-1.6203700000000001
 20
-3.2746200000000001
 30
0.0
 10
-1.4298700000000002
 20
-2.5558000000000001
 30
0.0
 10
-1.4298700000000002
 20
-2.5558000000000001
 30
0.0
 10
-1.2342900000000001
 20
-2.13924
 30
0.0
 10
-0.8913900000000001
 20
-1.7480800000000001
 30
0.0
 10
-0.43165
 20
-1.5779000000000001
 30
0.0
  0
SPLINE
  5
28
100
AcDbEntity
  8
Ebene 1
100
AcDbSpline
210
0.0
220
0.0
230
1.0
 70
     1
 71
     3
 72
    20
 73
    16
 74
     0
 42
0.0000000001
 43
0.0000000001
 40
0.0
 40
0.0
 40
0.0
 40
0.0
 40
0.25
 40
0.25
 40
0.25
 40
0.25
 40
0.5
 40
0.5
 40
0.5
 40
0.5
 40
0.75
 40
0.75
 40
0.75
 40
0.75
 40
1.0
 40
1.0
 40
1.0
 40
1.0
 10
-0.7796300000000001
 20
-3.7191200000000002
 30
0.0
 10
-0.7796300000000001
 20
-3.7191200000000002
 30
0.0
 10
-0.71613
 20
-3.7013400000000005
 30
0.0
 10
-0.71613
 20
-3.7013400000000005
 30
0.0
 10
-0.71613
 20
-3.7013400000000005
 30
0.0
 10
-0.61707
 20
-3.8435800000000002
 30
0.0
 10
-0.43165
 20
-4.1102800000000004
 30
0.0
 10
-0.63485
 20
-4.2474400000000001
 30
0.0
 10
-0.63485
 20
-4.2474400000000001
 30
0.0
 10
-0.65517
 20
-4.2372800000000002
 30
0.0
 10
-0.6704100000000001
 20
-4.2245800000000004
 30
0.0
 10
-0.6704100000000001
 20
-4.2068000000000003
 30
0.0
 10
-0.6704100000000001
 20
-4.2068000000000003
 30
0.0
 10
-0.63485
 20
-4.0315400000000006
 30
0.0
 10
-0.67549
 20
-3.8588200000000001
 30
0.0
 10
-0.7796300000000001
 20
-3.7191200000000002
 30
0.0
  0
SPLINE
  5
29
100
AcDbEntity
  8
Ebene 1
100
AcDbSpline
210
0.0
220
0.0
230
1.0
 70
     1
 71
     3
 72
    20
 73
    16
 74
     0
 42
0.0000000001
 43
0.0000000001
 40
0.0
 40
0.0
 40
0.0
 40
0.0
 40
0.25
 40
0.25
 40
0.25
 40
0.25
 40
0.5
 40
0.5
 40
0.5
 40
0.5
 40
0.75
 40
0.75
 40
0.75
 40
0.75
 40
1.0
 40
1.0
 40
1.0
 40
1.0
 10
2.1134200000000001
 20
-2.9723600000000001
 30
0.0
 10
2.1134200000000001
 20
-2.9723600000000001
 30
0.0
 10
2.16168
 20
-2.9596600000000004
 30
0.0
 10
2.16168
 20
-2.9596600000000004
 30
0.0
 10
2.16168
 20
-2.9596600000000004
 30
0.0
 10
2.1693000000000002
 20
-3.1755600000000004
 30
0.0
 10
2.1972400000000003
 20
-3.4016200000000003
 30
0.0
 10
2.3750400000000003
 20
-3.5540200000000004
 30
0.0
 10
2.3750400000000003
 20
-3.5540200000000004
 30
0.0
 10
2.2607400000000002
 20
-3.5667200000000001
 30
0.0
 10
2.1312000000000002
 20
-3.5032200000000002
 30
0.0
 10
2.0804
 20
-3.3990800000000001
 30
0.0
 10
2.0804
 20
-3.3990800000000001
 30
0.0
 10
2.1743800000000002
 20
-3.2898600000000005
 30
0.0
 10
2.0981800000000002
 20
-3.1095200000000003
 30
0.0
 10
2.1134200000000001
 20
-2.9723600000000001
 30
0.0
  0
SPLINE
  5
2A
100
AcDbEntity
  8
Ebene 1
100
AcDbSpline
210
0.0
220
0.0
230
1.0
 70
     1
 71
     3
 72
    20
 73
    16
 74
     0
 42
0.0000000001
 43
0.0000000001
 40
0.0
 40
0.0
 40
0.0
 40
0.0
 40
0.25
 40
0.25
 40
0.25
 40
0.25
 40
0.5
 40
0.5
 40
0.5
 40
0.5
 40
0.75
 40
0.75
 40
0.75
 40
0.75
 40
1.0
 40
1.0
 40
1.0
 40
1.0
 10
-0.4367300000000001
 20
-3.9782000000000002
 30
0.0
 10
-0.4367300000000001
 20
-3.9782000000000002
 30
0.0
 10
-0.39101
 20
-3.9655000000000005
 30
0.0
 10
-0.39101
 20
-3.9655000000000005
 30
0.0
 10
-0.39101
 20
-3.9655000000000005
 30
0.0
 10
-0.29957
 20
-4.19156
 30
0.0
 10
0.03316
 20
-4.1890200000000002
 30
0.0
 10
0.23636
 20
-4.26776
 30
0.0
 10
0.23636
 20
-4.26776
 30
0.0
 10
0.22874
 20
-4.2855400000000001
 30
0.0
 10
0.2135
 20
-4.2906200000000005
 30
0.0
 10
0.19318
 20
-4.2957000000000001
 30
0.0
 10
0.19318
 20
-4.2957000000000001
 30
0.0
 10
-0.03287
 20
-4.2372800000000002
 30
0.0
 10
-0.39355
 20
-4.2499800000000008
 30
0.0
 10
-0.4367300000000001
 20
-3.9782000000000002
 30
0.0
  0
SPLINE
  5
2B
100
AcDbEntity
  8
Ebene 1
100
AcDbSpline
210
0.0
220
0.0
230
1.0
 70
     1
 71
     3
 72
    20
 73
    16
 74
     0
 42
0.0000000001
 43
0.0000000001
 40
0.0
 40
0.0
 40
0.0
 40
0.0
 40
0.25
 40
0.25
 40
0.25
 40
0.25
 40
0.5
 40
0.5
 40
0.5
 40
0.5
 40
0.75
 40
0.75
 40
0.75
 40
0.75
 40
1.0
 40
1.0
 40
1.0
 40
1.0
 10
1.9127600000000002
 20
-3.3914600000000004
 30
0.0
 10
1.9559400000000002
 20
-3.3965400000000003
 30
0.0
 10
1.9432400000000001
 20
-3.4676600000000004
 30
0.0
 10
1.9381600000000001
 20
-3.5032200000000002
 30
0.0
 10
1.9381600000000001
 20
-3.5032200000000002
 30
0.0
 10
1.9381600000000001
 20
-3.5032200000000002
 30
0.0
 10
1.8873600000000001
 20
-3.5819600000000005
 30
0.0
 10
1.8873600000000001
 20
-3.5819600000000005
 30
0.0
 10
1.8873600000000001
 20
-3.5819600000000005
 30
0.0
 10
1.6155800000000002
 20
-3.6861000000000002
 30
0.0
 10
1.3895200000000001
 20
-3.9985200000000005
 30
0.0
 10
1.1380600000000001
 20
-4.1128200000000001
 30
0.0
 10
1.1380600000000001
 20
-4.1128200000000001
 30
0.0
 10
1.2879200000000002
 20
-3.8080200000000004
 30
0.0
 10
1.7578200000000002
 20
-3.6988000000000003
 30
0.0
 10
1.9127600000000002
 20
-3.3914600000000004
 30
0.0
  0
SPLINE
  5
2C
100
AcDbEntity
  8
Ebene 1
100
AcDbSpline
210
0.0
220
0.0
230
1.0
 70
     1
 71
     3
 72
    20
 73
    16
 74
     0
 42
0.0000000001
 43
0.0000000001
 40
0.0
 40
0.0
 40
0.0
 40
0.0
 40
0.25
 40
0.25
 40
0.25
 40
0.25
 40
0.5
 40
0.5
 40
0.5
 40
0.5
 40
0.75
 40
0.75
 40
0.75
 40
0.75
 40
1.0
 40
1.0
 40
1.0
 40
1.0
 10
0.61736
 20
-4.1687000000000003
 30
0.0
 10
0.7926200000000001
 20
-4.1864800000000004
 30
0.0
 10
0.9602600000000001
 20
-4.3261799999999999
 30
0.0
 10
0.9780400000000001
 20
-4.5065200000000001
 30
0.0
 10
0.9780400000000001
 20
-4.5065200000000001
 30
0.0
 10
0.9399400000000001
 20
-4.5319200000000004
 30
0.0
 10
0.88914
 20
-4.5624000000000002
 30
0.0
 10
0.8408800000000001
 20
-4.5750999999999999
 30
0.0
 10
0.8408800000000001
 20
-4.5750999999999999
 30
0.0
 10
0.82564
 20
-4.47858
 30
0.0
 10
0.82818
 20
-4.3947600000000007
 30
0.0
 10
0.7799200000000001
 20
-4.3084000000000007
 30
0.0
 10
0.7799200000000001
 20
-4.3084000000000007
 30
0.0
 10
0.7088000000000001
 20
-4.2753800000000002
 30
0.0
 10
0.6097400000000001
 20
-4.2525200000000005
 30
0.0
 10
0.61736
 20
-4.1687000000000003
 30
0.0
  0
SPLINE
  5
2D
100
AcDbEntity
  8
Ebene 1
100
AcDbSpline
210
0.0
220
0.0
230
1.0
 70
     1
 71
     3
 72
    24
 73
    20
 74
     0
 42
0.0000000001
 43
0.0000000001
 40
0.0
 40
0.0
 40
0.0
 40
0.0
 40
0.2
 40
0.2
 40
0.2
 40
0.2
 40
0.4
 40
0.4
 40
0.4
 40
0.4
 40
0.6000000000000001
 40
0.6000000000000001
 40
0.6000000000000001
 40
0.6000000000000001
 40
0.8
 40
0.8
 40
0.8
 40
0.8
 40
1.0
 40
1.0
 40
1.0
 40
1.0
 10
2.2607400000000002
 20
-3.8004000000000002
 30
0.0
 10
2.2607400000000002
 20
-3.8004000000000002
 30
0.0
 10
2.3420200000000002
 20
-3.7800800000000003
 30
0.0
 10
2.3420200000000002
 20
-3.7800800000000003
 30
0.0
 10
2.3420200000000002
 20
-3.7800800000000003
 30
0.0
 10
2.3699600000000003
 20
-3.8232600000000003
 30
0.0
 10
2.3648800000000003
 20
-3.8562800000000004
 30
0.0
 10
2.3344
 20
-3.8816800000000002
 30
0.0
 10
2.3344
 20
-3.8816800000000002
 30
0.0
 10
2.7814400000000004
 20
-4.3973000000000004
 30
0.0
 10
1.8467200000000001
 20
-4.9764200000000001
 30
0.0
 10
1.39714
 20
-4.5776400000000006
 30
0.0
 10
1.39714
 20
-4.5776400000000006
 30
0.0
 10
1.39714
 20
-4.5776400000000006
 30
0.0
 10
1.2091800000000001
 20
-4.5446200000000001
 30
0.0
 10
1.2091800000000001
 20
-4.5446200000000001
 30
0.0
 10
1.2091800000000001
 20
-4.5446200000000001
 30
0.0
 10
1.6460600000000001
 20
-4.5293800000000006
 30
0.0
 10
1.9991200000000002
 20
-4.1204400000000003
 30
0.0
 10
2.2607400000000002
 20
-3.8004000000000002
 30
0.0
  0
SPLINE
  5
2E
100
AcDbEntity
  8
Ebene 1
100
AcDbSpline
210
0.0
220
0.0
230
1.0
 70
     1
 71
     3
 72
    28
 73
    24
 74
     0
 42
0.0000000001
 43
0.0000000001
 40
0.0
 40
0.0
 40
0.0
 40
0.0
 40
0.1666666666666667
 40
0.1666666666666667
 40
0.1666666666666667
 40
0.1666666666666667
 40
0.3333333333333333
 40
0.3333333333333333
 40
0.3333333333333333
 40
0.3333333333333333
 40
0.5
 40
0.5
 40
0.5
 40
0.5
 40
0.6666666666666666
 40
0.6666666666666666
 40
0.6666666666666666
 40
0.6666666666666666
 40
0.8333333333333333
 40
0.8333333333333333
 40
0.8333333333333333
 40
0.8333333333333333
 40
1.0
 40
1.0
 40
1.0
 40
1.0
 10
-0.50785
 20
-4.6157400000000006
 30
0.0
 10
-0.14971
 20
-4.60304
 30
0.0
 10
0.18556
 20
-4.7478200000000008
 30
0.0
 10
0.5208400000000001
 20
-4.8418000000000001
 30
0.0
 10
0.5208400000000001
 20
-4.8418000000000001
 30
0.0
 10
0.6478400000000001
 20
-4.8595800000000002
 30
0.0
 10
0.7113400000000001
 20
-4.6919400000000007
 30
0.0
 10
0.8129400000000001
 20
-4.69956
 30
0.0
 10
0.8129400000000001
 20
-4.69956
 30
0.0
 10
0.7926200000000001
 20
-4.8037000000000001
 30
0.0
 10
0.66054
 20
-4.8570400000000005
 30
0.0
 10
0.57926
 20
-4.91038
 30
0.0
 10
0.57926
 20
-4.91038
 30
0.0
 10
0.34812
 20
-5.4564800000000009
 30
0.0
 10
-0.5789700000000001
 20
-5.2685200000000005
 30
0.0
 10
-0.53579
 20
-4.7224200000000005
 30
0.0
 10
-0.53579
 20
-4.7224200000000005
 30
0.0
 10
-0.57389
 20
-4.6487600000000002
 30
0.0
 10
-0.69581
 20
-4.81386
 30
0.0
 10
-0.70089
 20
-4.69956
 30
0.0
 10
-0.70089
 20
-4.69956
 30
0.0
 10
-0.6653300000000001
 20
-4.6386000000000003
 30
0.0
 10
-0.5408700000000001
 20
-4.6716200000000008
 30
0.0
 10
-0.50785
 20
-4.6157400000000006
 30
0.0
  0
SPLINE
  5
2F
100
AcDbEntity
  8
Ebene 1
 62
     7
100
AcDbSpline
210
0.0
220
0.0
230
1.0
 70
     1
 71
     3
 72
    12
 73
     8
 74
     0
 42
0.0000000001
 43
0.0000000001
 40
0.0
 40
0.0
 40
0.0
 40
0.0
 40
0.5
 40
0.5
 40
0.5
 40
0.5
 40
1.0
 40
1.0
 40
1.0
 40
1.0
 10
-0.10653
 20
-4.7427400000000004
 30
0.0
 10
-0.10653
 20
-4.7427400000000004
 30
0.0
 10
0.15762
 20
-4.8037000000000001
 30
0.0
 10
0.15762
 20
-4.8037000000000001
 30
0.0
 10
0.15762
 20
-4.8037000000000001
 30
0.0
 10
0.0611
 20
-4.8291000000000004
 30
0.0
 10
-0.03795
 20
-4.7910000000000004
 30
0.0
 10
-0.10653
 20
-4.7427400000000004
 30
0.0
  0
SPLINE
  5
30
100
AcDbEntity
  8
Ebene 1
 62
     7
100
AcDbSpline
210
0.0
220
0.0
230
1.0
 70
     1
 71
     3
 72
    16
 73
    12
 74
     0
 42
0.0000000001
 43
0.0000000001
 40
0.0
 40
0.0
 40
0.0
 40
0.0
 40
0.3333333333333333
 40
0.3333333333333333
 40
0.3333333333333333
 40
0.3333333333333333
 40
0.6666666666666666
 40
0.6666666666666666
 40
0.6666666666666666
 40
0.6666666666666666
 40
1.0
 40
1.0
 40
1.0
 40
1.0
 10
1.9178400000000002
 20
-4.2423600000000006
 30
0.0
 10
1.9178400000000002
 20
-4.2423600000000006
 30
0.0
 10
1.9483200000000001
 20
-4.2322000000000006
 30
0.0
 10
1.9483200000000001
 20
-4.2322000000000006
 30
0.0
 10
1.9483200000000001
 20
-4.2322000000000006
 30
0.0
 10
1.9330800000000001
 20
-4.3211000000000004
 30
0.0
 10
1.8416400000000002
 20
-4.4100000000000001
 30
0.0
 10
1.7502000000000002
 20
-4.4176200000000003
 30
0.0
 10
1.7502000000000002
 20
-4.4176200000000003
 30
0.0
 10
1.7502000000000002
 20
-4.4176200000000003
 30
0.0
 10
1.9178400000000002
 20
-4.2423600000000006
 30
0.0
 10
1.9178400000000002
 20
-4.2423600000000006
 30
0.0
  0
SPLINE
  5
31
100
AcDbEntity
  8
Ebene 1
100
AcDbSpline
210
0.0
220
0.0
230
1.0
 70
     1
 71
     3
 72
    24
 73
    20
 74
     0
 42
0.0000000001
 43
0.0000000001
 40
0.0
 40
0.0
 40
0.0
 40
0.0
 40
0.2
 40
0.2
 40
0.2
 40
0.2
 40
0.4
 40
0.4
 40
0.4
 40
0.4
 40
0.6000000000000001
 40
0.6000000000000001
 40
0.6000000000000001
 40
0.6000000000000001
 40
0.8
 40
0.8
 40
0.8
 40
0.8
 40
1.0
 40
1.0
 40
1.0
 40
1.0
 10
1.0364600000000002
 20
-4.8570400000000005
 30
0.0
 10
1.0364600000000002
 20
-4.8570400000000005
 30
0.0
 10
1.1533
 20
-4.8265600000000006
 30
0.0
 10
1.1533
 20
-4.8265600000000006
 30
0.0
 10
1.1533
 20
-4.8265600000000006
 30
0.0
 10
1.3539600000000001
 20
-5.0399200000000004
 30
0.0
 10
1.4631800000000001
 20
-5.3294800000000002
 30
0.0
 10
1.4530200000000002
 20
-5.6139600000000005
 30
0.0
 10
1.4530200000000002
 20
-5.6139600000000005
 30
0.0
 10
1.3793600000000001
 20
-5.6673000000000009
 30
0.0
 10
1.3768200000000002
 20
-5.5682400000000003
 30
0.0
 10
1.3234800000000002
 20
-5.5479200000000004
 30
0.0
 10
1.3234800000000002
 20
-5.5479200000000004
 30
0.0
 10
1.2650600000000001
 20
-5.5809400000000009
 30
0.0
 10
1.3311000000000002
 20
-5.6622200000000005
 30
0.0
 10
1.27522
 20
-5.6927000000000003
 30
0.0
 10
1.27522
 20
-5.6927000000000003
 30
0.0
 10
1.0440800000000001
 20
-5.5047400000000009
 30
0.0
 10
0.9196200000000001
 20
-5.1389800000000001
 30
0.0
 10
1.0364600000000002
 20
-4.8570400000000005
 30
0.0
  0
SPLINE
  5
32
100
AcDbEntity
  8
Ebene 1
 62
     7
100
AcDbSpline
210
0.0
220
0.0
230
1.0
 70
     1
 71
     3
 72
    12
 73
     8
 74
     0
 42
0.0000000001
 43
0.0000000001
 40
0.0
 40
0.0
 40
0.0
 40
0.0
 40
0.5
 40
0.5
 40
0.5
 40
0.5
 40
1.0
 40
1.0
 40
1.0
 40
1.0
 10
1.9686400000000002
 20
-5.4793400000000005
 30
0.0
 10
2.04738
 20
-5.4895000000000005
 30
0.0
 10
2.0397600000000002
 20
-5.6088800000000001
 30
0.0
 10
1.9864200000000001
 20
-5.6571400000000001
 30
0.0
 10
1.9864200000000001
 20
-5.6571400000000001
 30
0.0
 10
1.9864200000000001
 20
-5.6571400000000001
 30
0.0
 10
1.9686400000000002
 20
-5.4793400000000005
 30
0.0
 10
1.9686400000000002
 20
-5.4793400000000005
 30
0.0
  0
SPLINE
  5
33
100
AcDbEntity
  8
Ebene 1
 62
     7
100
AcDbSpline
210
0.0
220
0.0
230
1.0
 70
     1
 71
     3
 72
    12
 73
     8
 74
     0
 42
0.0000000001
 43
0.0000000001
 40
0.0
 40
0.0
 40
0.0
 40
0.0
 40
0.5
 40
0.5
 40
0.5
 40
0.5
 40
1.0
 40
1.0
 40
1.0
 40
1.0
 10
0.63514
 20
-6.0457600000000005
 30
0.0
 10
0.6884800000000001
 20
-6.0483000000000002
 30
0.0
 10
0.7062600000000001
 20
-6.1270400000000009
 30
0.0
 10
0.68086
 20
-6.1676800000000007
 30
0.0
 10
0.68086
 20
-6.1676800000000007
 30
0.0
 10
0.6199
 20
-6.1676800000000007
 30
0.0
 10
0.63768
 20
-6.0787800000000001
 30
0.0
 10
0.63514
 20
-6.0457600000000005
 30
0.0
  0
SPLINE
  5
34
100
AcDbEntity
  8
Ebene 1
 62
     7
100
AcDbSpline
210
0.0
220
0.0
230
1.0
 70
     1
 71
     3
 72
    12
 73
     8
 74
     0
 42
0.0000000001
 43
0.0000000001
 40
0.0
 40
0.0
 40
0.0
 40
0.0
 40
0.5
 40
0.5
 40
0.5
 40
0.5
 40
1.0
 40
1.0
 40
1.0
 40
1.0
 10
2.0270600000000001
 20
-5.6952400000000001
 30
0.0
 10
2.1007200000000004
 20
-5.7282600000000006
 30
0.0
 10
2.1159600000000003
 20
-5.8578000000000001
 30
0.0
 10
2.1007200000000004
 20
-5.9263800000000009
 30
0.0
 10
2.1007200000000004
 20
-5.9263800000000009
 30
0.0
 10
2.0042
 20
-5.8857400000000002
 30
0.0
 10
2.0270600000000001
 20
-5.7790600000000003
 30
0.0
 10
2.0270600000000001
 20
-5.6952400000000001
 30
0.0
  0
SPLINE
  5
35
100
AcDbEntity
  8
Ebene 1
 62
     7
100
AcDbSpline
210
0.0
220
0.0
230
1.0
 70
     1
 71
     3
 72
    12
 73
     8
 74
     0
 42
0.0000000001
 43
0.0000000001
 40
0.0
 40
0.0
 40
0.0
 40
0.0
 40
0.5
 40
0.5
 40
0.5
 40
0.5
 40
1.0
 40
1.0
 40
1.0
 40
1.0
 10
0.7926200000000001
 20
-6.1549800000000001
 30
0.0
 10
0.8815200000000001
 20
-6.1981600000000006
 30
0.0
 10
0.9628000000000001
 20
-6.3607200000000006
 30
0.0
 10
0.8764400000000001
 20
-6.4496200000000004
 30
0.0
 10
0.8764400000000001
 20
-6.4496200000000004
 30
0.0
 10
0.82818
 20
-6.3632600000000004
 30
0.0
 10
0.7545200000000001
 20
-6.2489600000000003
 30
0.0
 10
0.7926200000000001
 20
-6.1549800000000001
 30
0.0
  0
SPLINE
  5
36
100
AcDbEntity
  8
Ebene 1
 62
     7
100
AcDbSpline
210
0.0
220
0.0
230
1.0
 70
     1
 71
     3
 72
    12
 73
     8
 74
     0
 42
0.0000000001
 43
0.0000000001
 40
0.0
 40
0.0
 40
0.0
 40
0.0
 40
0.5
 40
0.5
 40
0.5
 40
0.5
 40
1.0
 40
1.0
 40
1.0
 40
1.0
 10
1.9076800000000003
 20
-5.9441600000000001
 30
0.0
 10
2.0346800000000003
 20
-5.9441600000000001
 30
0.0
 10
2.1032600000000001
 20
-6.1270400000000009
 30
0.0
 10
2.0346800000000003
 20
-6.2108600000000003
 30
0.0
 10
2.0346800000000003
 20
-6.2108600000000003
 30
0.0
 10
1.9381600000000001
 20
-6.1702200000000005
 30
0.0
 10
1.9407000000000001
 20
-6.0356000000000005
 30
0.0
 10
1.9076800000000003
 20
-5.9441600000000001
 30
0.0
  0
SPLINE
  5
37
100
AcDbEntity
  8
Ebene 1
 62
     7
100
AcDbSpline
210
0.0
220
0.0
230
1.0
 70
     1
 71
     3
 72
    12
 73
     8
 74
     0
 42
0.0000000001
 43
0.0000000001
 40
0.0
 40
0.0
 40
0.0
 40
0.0
 40
0.5
 40
0.5
 40
0.5
 40
0.5
 40
1.0
 40
1.0
 40
1.0
 40
1.0
 10
1.0390000000000001
 20
-6.2565800000000005
 30
0.0
 10
1.1685400000000001
 20
-6.3226200000000006
 30
0.0
 10
1.1609200000000002
 20
-6.5258200000000004
 30
0.0
 10
1.10758
 20
-6.6375800000000007
 30
0.0
 10
1.10758
 20
-6.6375800000000007
 30
0.0
 10
1.0085200000000001
 20
-6.5309000000000008
 30
0.0
 10
0.9882000000000001
 20
-6.4039000000000001
 30
0.0
 10
1.0390000000000001
 20
-6.2565800000000005
 30
0.0
  0
SPLINE
  5
38
100
AcDbEntity
  8
Ebene 1
 62
     7
100
AcDbSpline
210
0.0
220
0.0
230
1.0
 70
     1
 71
     3
 72
    12
 73
     8
 74
     0
 42
0.0000000001
 43
0.0000000001
 40
0.0
 40
0.0
 40
0.0
 40
0.0
 40
0.5
 40
0.5
 40
0.5
 40
0.5
 40
1.0
 40
1.0
 40
1.0
 40
1.0
 10
1.2472800000000002
 20
-6.3505600000000006
 30
0.0
 10
1.36158
 20
-6.3886600000000007
 30
0.0
 10
1.3717400000000002
 20
-6.6020200000000004
 30
0.0
 10
1.3412600000000001
 20
-6.711240000000001
 30
0.0
 10
1.3412600000000001
 20
-6.711240000000001
 30
0.0
 10
1.1914
 20
-6.6502800000000004
 30
0.0
 10
1.2269600000000001
 20
-6.4724800000000009
 30
0.0
 10
1.2472800000000002
 20
-6.3505600000000006
 30
0.0
  0
SPLINE
  5
39
100
AcDbEntity
  8
Ebene 1
 62
     7
100
AcDbSpline
210
0.0
220
0.0
230
1.0
 70
     1
 71
     3
 72
    12
 73
     8
 74
     0
 42
0.0000000001
 43
0.0000000001
 40
0.0
 40
0.0
 40
0.0
 40
0.0
 40
0.5
 40
0.5
 40
0.5
 40
0.5
 40
1.0
 40
1.0
 40
1.0
 40
1.0
 10
1.6587600000000002
 20
-6.2438800000000008
 30
0.0
 10
1.7984600000000002
 20
-6.3048400000000004
 30
0.0
 10
1.8010000000000002
 20
-6.5055000000000005
 30
0.0
 10
1.7451200000000002
 20
-6.6198000000000006
 30
0.0
 10
1.7451200000000002
 20
-6.6198000000000006
 30
0.0
 10
1.6486000000000001
 20
-6.5283600000000002
 30
0.0
 10
1.6816200000000001
 20
-6.3708800000000005
 30
0.0
 10
1.6587600000000002
 20
-6.2438800000000008
 30
0.0
  0
SPLINE
  5
3A
100
AcDbEntity
  8
Ebene 1
 62
     7
100
AcDbSpline
210
0.0
220
0.0
230
1.0
 70
     1
 71
     3
 72
    12
 73
     8
 74
     0
 42
0.0000000001
 43
0.0000000001
 40
0.0
 40
0.0
 40
0.0
 40
0.0
 40
0.5
 40
0.5
 40
0.5
 40
0.5
 40
1.0
 40
1.0
 40
1.0
 40
1.0
 10
1.8518000000000001
 20
-6.2083200000000005
 30
0.0
 10
1.9305400000000001
 20
-6.2388000000000003
 30
0.0
 10
1.9864200000000001
 20
-6.3734200000000003
 30
0.0
 10
1.9483200000000001
 20
-6.4496200000000004
 30
0.0
 10
1.9483200000000001
 20
-6.4496200000000004
 30
0.0
 10
1.8772000000000002
 20
-6.4039000000000001
 30
0.0
 10
1.8365600000000002
 20
-6.2972200000000003
 30
0.0
 10
1.8518000000000001
 20
-6.2083200000000005
 30
0.0
  0
SPLINE
  5
3B
100
AcDbEntity
  8
Ebene 1
 62
     7
100
AcDbSpline
210
0.0
220
0.0
230
1.0
 70
     1
 71
     3
 72
    12
 73
     8
 74
     0
 42
0.0000000001
 43
0.0000000001
 40
0.0
 40
0.0
 40
0.0
 40
0.0
 40
0.5
 40
0.5
 40
0.5
 40
0.5
 40
1.0
 40
1.0
 40
1.0
 40
1.0
 10
1.4606400000000002
 20
-6.3277000000000001
 30
0.0
 10
1.5800200000000002
 20
-6.3810400000000005
 30
0.0
 10
1.5927200000000001
 20
-6.5766200000000001
 30
0.0
 10
1.5139800000000001
 20
-6.6655200000000008
 30
0.0
 10
1.5139800000000001
 20
-6.6655200000000008
 30
0.0
 10
1.4225400000000001
 20
-6.5893200000000007
 30
0.0
 10
1.4530200000000002
 20
-6.4470800000000006
 30
0.0
 10
1.4606400000000002
 20
-6.3277000000000001
 30
0.0
  0
ENDSEC
  0
SECTION
  2
OBJECTS
  0
DICTIONARY
  5
19
100
AcDbDictionary
280
     0
281
     1
  3
ACAD_GROUP
350
1A
  3
ACAD_MLINESTYLE
350
1B
  3
ACAD_LAYOUT
350
1E
  3
ACAD_PLOTSETTINGS
350
22
  3
ACAD_PLOTSTYLENAME
350
1F
  3
ACAD_WIPEOUT_VARS
350
23
  0
DICTIONARY
  5
1A
102
{ACAD_REACTORS
330
19
102
}
100
AcDbDictionary
280
     0
281
     1
  0
DICTIONARY
  5
1B
102
{ACAD_REACTORS
330
19
102
}
100
AcDbDictionary
280
     0
281
     1
  3
Standard
350
1C
  0
MLINESTYLE
  5
1C
102
{ACAD_REACTORS
330
1B
102
}
100
AcDbMlineStyle
  2
Standard
 70
     0
  3

 62
     0
 51
90.0
 52
90.0
 71
     2
 49
0.5
 62
   256
  6
BYLAYER
 49
-0.5
 62
   256
  6
BYLAYER
  0
ACDBDICTIONARYWDFLT
  5
1F
102
{ACAD_REACTORS
330
19
102
}
100
AcDbDictionary
281
     1
  3
Normal
350
1D
100
AcDbDictionaryWithDefault
340
1D
  0
ACDBPLACEHOLDER
  5
1D
102
{ACAD_REACTORS
330
1F
102
}
  0
LAYOUT
  5
20
102
{ACAD_REACTORS
330
1E
102
}
100
AcDbPlotSettings
  1

  2

  4

  6

 40
0.0
 41
0.0
 42
0.0
 43
0.0
 44
0.0
 45
0.0
 46
0.0
 47
0.0
 48
0.0
 49
0.0
140
0.0
141
0.0
142
1.0
143
1.0
 70
  1024
 72
     0
 73
     0
 74
     0
  7

 75
     0
147
1.0
148
0.0
149
0.0
100
AcDbLayout
  1
Model
 70
     0
 71
     0
 10
0.0
 20
0.0
 11
0.0
 21
0.0
 12
0.0
 22
0.0
 32
0.0
 14
0.0
 24
0.0
 34
0.0
 15
0.0
 25
0.0
 35
0.0
146
0.0
 13
0.0
 23
0.0
 33
0.0
 16
0.0
 26
0.0
 36
0.0
 17
0.0
 27
0.0
 37
0.0
 76
     0
330
A
331
0
345
0
346
0
  0
LAYOUT
  5
21
102
{ACAD_REACTORS
330
1E
102
}
100
AcDbPlotSettings
  1

  2

  4

  6

 40
0.0
 41
0.0
 42
0.0
 43
0.0
 44
0.0
 45
0.0
 46
0.0
 47
0.0
 48
0.0
 49
0.0
140
0.0
141
0.0
142
1.0
143
1.0
 70
     0
 72
     0
 73
     0
 74
     0
  7

 75
     0
147
1.0
148
0.0
149
0.0
100
AcDbLayout
  1
Layout1
 70
     0
 71
     0
 10
0.0
 20
0.0
 11
0.0
 21
0.0
 12
0.0
 22
0.0
 32
0.0
 14
0.0
 24
0.0
 34
0.0
 15
0.0
 25
0.0
 35
0.0
146
0.0
 13
0.0
 23
0.0
 33
0.0
 16
0.0
 26
0.0
 36
0.0
 17
0.0
 27
0.0
 37
0.0
 76
     0
330
B
331
0
345
0
346
0
  0
DICTIONARY
  5
1E
102
{ACAD_REACTORS
330
19
102
}
100
AcDbDictionary
280
     0
281
     1
  3
Layout1
350
21
  3
Model
350
20
  0
DICTIONARY
  5
22
102
{ACAD_REACTORS
330
19
102
}
100
AcDbDictionary
280
     0
281
     1
  0
WIPEOUTVARIABLES
  5
23
100
AcDbWipeoutVariables
 70
     1
  0
ENDSEC
  0
EOF
