  0
SECTION
  2
HEADER
  9
$ACADVER
  1
AC1015
  9
$ACADMAINTVER
 70
     6
  9
$DWGCODEPAGE
  3
DOS850
  9
$INSBASE
 10
0.0
 20
0.0
 30
0.0
  9
$EXTMIN
 10
-3.72603
 20
-6.34802
 30
1.000000E+20
  9
$EXTMAX
 10
3.73069
 20
6.34181
 30
-1.000000E+20
  9
$LIMMIN
 10
0.0
 20
0.0
  9
$LIMMAX
 10
0.0
 20
0.0
  9
$ORTHOMODE
 70
     0
  9
$REGENMODE
 70
     1
  9
$FILLMODE
 70
     1
  9
$QTEXTMODE
 70
     0
  9
$MIRRTEXT
 70
     1
  9
$LTSCALE
 40
1.0
  9
$ATTMODE
 70
     1
  9
$TEXTSIZE
 40
0.2
  9
$TRACEWID
 40
0.05
  9
$TEXTSTYLE
  7
Standard
  9
$CLAYER
  8
0
  9
$CELTYPE
  6
Continuous
  9
$CECOLOR
 62
   256
  9
$CELTSCALE
 40
1.0
  9
$DISPSILH
 70
     0
  9
$DIMSCALE
 40
1.0
  9
$DIMASZ
 40
0.18
  9
$DIMEXO
 40
0.0625
  9
$DIMDLI
 40
0.38
  9
$DIMRND
 40
0.0
  9
$DIMDLE
 40
0.0
  9
$DIMEXE
 40
0.18
  9
$DIMTP
 40
0.0
  9
$DIMTM
 40
0.0
  9
$DIMTXT
 40
0.18
  9
$DIMCEN
 40
0.09
  9
$DIMTSZ
 40
0.0
  9
$DIMTOL
 70
     0
  9
$DIMLIM
 70
     0
  9
$DIMTIH
 70
     1
  9
$DIMTOH
 70
     1
  9
$DIMSE1
 70
     0
  9
$DIMSE2
 70
     0
  9
$DIMTAD
 70
     0
  9
$DIMZIN
 70
     0
  9
$DIMBLK
  1

  9
$DIMASO
 70
     1
  9
$DIMSHO
 70
     1
  9
$DIMPOST
  1

  9
$DIMAPOST
  1

  9
$DIMALT
 70
     0
  9
$DIMALTD
 70
     2
  9
$DIMALTF
 40
25.4
  9
$DIMLFAC
 40
1.0
  9
$DIMTOFL
 70
     0
  9
$DIMTVP
 40
0.0
  9
$DIMTIX
 70
     0
  9
$DIMSOXD
 70
     0
  9
$DIMSAH
 70
     0
  9
$DIMBLK1
  1

  9
$DIMBLK2
  1

  9
$DIMSTYLE
  2
Standard
  9
$DIMCLRD
 70
     0
  9
$DIMCLRE
 70
     0
  9
$DIMCLRT
 70
     0
  9
$DIMTFAC
 40
1.0
  9
$DIMGAP
 40
0.09
  9
$DIMJUST
 70
     0
  9
$DIMSD1
 70
     0
  9
$DIMSD2
 70
     0
  9
$DIMTOLJ
 70
     1
  9
$DIMTZIN
 70
     0
  9
$DIMALTZ
 70
     0
  9
$DIMALTTZ
 70
     0
  9
$DIMUPT
 70
     0
  9
$DIMDEC
 70
     4
  9
$DIMTDEC
 70
     4
  9
$DIMALTU
 70
     2
  9
$DIMALTTD
 70
     2
  9
$DIMTXSTY
  7
Standard
  9
$DIMAUNIT
 70
     0
  9
$DIMADEC
 70
     0
  9
$DIMALTRND
 40
0.0
  9
$DIMAZIN
 70
     0
  9
$DIMDSEP
 70
     0
  9
$DIMATFIT
 70
     3
  9
$DIMFRAC
 70
     0
  9
$DIMLDRBLK
  1

  9
$DIMLUNIT
 70
     2
  9
$DIMLWD
 70
     0
  9
$DIMLWE
 70
     0
  9
$DIMTMOVE
 70
     0
  9
$LUNITS
 70
     2
  9
$LUPREC
 70
     4
  9
$SKETCHINC
 40
0.1
  9
$FILLETRAD
 40
0.0
  9
$AUNITS
 70
     0
  9
$AUPREC
 70
     0
  9
$MENU
  1
acad
  9
$ELEVATION
 40
0.0
  9
$PELEVATION
 40
0.0
  9
$THICKNESS
 40
0.0
  9
$LIMCHECK
 70
     0
  9
$CHAMFERA
 40
0.0
  9
$CHAMFERB
 40
0.0
  9
$CHAMFERC
 40
0.0
  9
$CHAMFERD
 40
0.0
  9
$SKPOLY
 70
     0
  9
$TDCREATE
 40
0.000000000
  9
$TDUCREATE
 40
0.000000000
  9
$TDUPDATE
 40
0.000000000
  9
$TDUUPDATE
 40
0.000000000
  9
$TDINDWG
 40
0.0000000000
  9
$TDUSRTIMER
 40
0.0000000000
  9
$USRTIMER
 70
     1
  9
$ANGBASE
 50
0.0
  9
$ANGDIR
 70
     0
  9
$PDMODE
 70
     0
  9
$PDSIZE
 40
0.0
  9
$PLINEWID
 40
0.0
  9
$SPLFRAME
 70
     0
  9
$SPLINETYPE
 70
     6
  9
$SPLINESEGS
 70
     8
  9
$HANDSEED
  5
46
  9
$SURFTAB1
 70
     6
  9
$SURFTAB2
 70
     6
  9
$SURFTYPE
 70
     6
  9
$SURFU
 70
     6
  9
$SURFV
 70
     6
  9
$UCSBASE
  2

  9
$UCSNAME
  2

  9
$UCSORG
 10
0.0
 20
0.0
 30
0.0
  9
$UCSXDIR
 10
1.0
 20
0.0
 30
0.0
  9
$UCSYDIR
 10
0.0
 20
1.0
 30
0.0
  9
$UCSORTHOREF
  2

  9
$UCSORTHOVIEW
 70
     0
  9
$UCSORGTOP
 10
0.0
 20
0.0
 30
0.0
  9
$UCSORGBOTTOM
 10
0.0
 20
0.0
 30
0.0
  9
$UCSORGLEFT
 10
0.0
 20
0.0
 30
0.0
  9
$UCSORGRIGHT
 10
0.0
 20
0.0
 30
0.0
  9
$UCSORGFRONT
 10
0.0
 20
0.0
 30
0.0
  9
$UCSORGBACK
 10
0.0
 20
0.0
 30
0.0
  9
$PUCSBASE
  2

  9
$PUCSNAME
  2

  9
$PUCSORG
 10
0.0
 20
0.0
 30
0.0
  9
$PUCSXDIR
 10
1.0
 20
0.0
 30
0.0
  9
$PUCSYDIR
 10
0.0
 20
1.0
 30
0.0
  9
$PUCSORTHOREF
  2

  9
$PUCSORTHOVIEW
 70
     0
  9
$PUCSORGTOP
 10
0.0
 20
0.0
 30
0.0
  9
$PUCSORGBOTTOM
 10
0.0
 20
0.0
 30
0.0
  9
$PUCSORGLEFT
 10
0.0
 20
0.0
 30
0.0
  9
$PUCSORGRIGHT
 10
0.0
 20
0.0
 30
0.0
  9
$PUCSORGFRONT
 10
0.0
 20
0.0
 30
0.0
  9
$PUCSORGBACK
 10
0.0
 20
0.0
 30
0.0
  9
$USERI1
 70
     0
  9
$USERI2
 70
     0
  9
$USERI3
 70
     0
  9
$USERI4
 70
     0
  9
$USERI5
 70
     0
  9
$USERR1
 40
0.0
  9
$USERR2
 40
0.0
  9
$USERR3
 40
0.0
  9
$USERR4
 40
0.0
  9
$USERR5
 40
0.0
  9
$WORLDVIEW
 70
     1
  9
$SHADEDGE
 70
     3
  9
$SHADEDIF
 70
    70
  9
$TILEMODE
 70
     1
  9
$MAXACTVP
 70
    16
  9
$PINSBASE
 10
0.0
 20
0.0
 30
0.0
  9
$PLIMCHECK
 70
     0
  9
$PEXTMIN
 10
1.000000E+20
 20
1.000000E+20
 30
1.000000E+20
  9
$PEXTMAX
 10
-1.000000E+20
 20
-1.000000E+20
 30
-1.000000E+20
  9
$PLIMMIN
 10
0.0
 20
0.0
  9
$PLIMMAX
 10
12.0
 20
9.0
  9
$UNITMODE
 70
     0
  9
$VISRETAIN
 70
     0
  9
$PLINEGEN
 70
     1
  9
$PSLTSCALE
 70
     0
  9
$TREEDEPTH
 70
  3020
  9
$CMLSTYLE
  2
Standard
  9
$CMLJUST
 70
     0
  9
$CMLSCALE
 40
1.0
  9
$PROXYGRAPHICS
 70
     0
  9
$MEASUREMENT
 70
     0
  9
$CELWEIGHT
370
     0
  9
$ENDCAPS
280
     0
  9
$JOINSTYLE
280
     0
  9
$LWDISPLAY
290
     0
  9
$INSUNITS
 70
     5
  9
$HYPERLINKBASE
  1

  9
$XEDIT
290
     1
  9
$CEPSNTYPE
380
     0
  9
$PSTYLEMODE
290
     1
  9
$FINGERPRINTGUID
  2

  9
$VERSIONGUID
  2

  9
$EXTNAMES
290
     1
  9
$PSVPSCALE
 40
0.0
  0
ENDSEC
  0
SECTION
  2
CLASSES
  0
CLASS
  1
LWPOLYLINE
  2
AcDbPolyline
  3
AutoCAD 2000
 90
    32768
280
     0
281
     1
  0
CLASS
  1
IMAGE
  2
AcDbRasterImage
  3
ISM
 90
    32895
280
     0
281
     1
  0
CLASS
  1
OLE2FRAME
  2
AcDbOle2Frame
  3
AutoCAD 2000
 90
    32768
280
     0
281
     1
  0
CLASS
  1
HATCH
  2
AcDbHatch
  3
AutoCAD 2000
 90
    32768
280
     0
281
     1
  0
CLASS
  1
DICTIONARYVAR
  2
AcDbDictionaryVar
  3
AutoCAD 2000
 90
    32768
280
     0
281
     0
  0
CLASS
  1
RASTERVARIABLES
  2
AcDbRasterVariables
  3
ISM
 90
    32768
280
     0
281
     0
  0
CLASS
  1
IMAGEDEF
  2
AcDbRasterImageDef
  3
ISM
 90
    32768
280
     0
281
     0
  0
CLASS
  1
IMAGEDEF_REACTOR
  2
AcDbRasterImageDefReactor
  3
ISM
 90
    32769
280
     0
281
     0
  0
CLASS
  1
IDBUFFER
  2
AcDbIdBuffer
  3
AutoCAD 2000
 90
    32768
280
     0
281
     0
  0
CLASS
  1
SPATIAL_FILTER
  2
AcDbSpatialFilter
  3
AutoCAD 2000
 90
    32768
280
     0
281
     0
  0
CLASS
  1
XRECORD
  2
AcDbXrecord
  3
AutoCAD 2000
 90
    32768
280
     0
281
     0
  0
CLASS
  1
SORTENTSTABLE
  2
AcDbSortentsTable
  3
AutoCAD 2000
 90
    32768
280
     0
281
     0
  0
CLASS
  1
LAYER_INDEX
  2
AcDbLayerIndex
  3
AutoCAD 2000
 90
    32768
280
     0
281
     0
  0
CLASS
  1
SPATIAL_INDEX
  2
AcDbSpatialIndex
  3
AutoCAD 2000
 90
    32768
280
     0
281
     0
  0
CLASS
  1
OBJECT_PTR
  2
CAseDLPNTableRecord
  3
"ASE-LPNTableRecord"
 90
    32769
280
     0
281
     0
  0
CLASS
  1
LAYOUT
  2
AcDbLayout
  3
AutoCAD 2000
 90
        0
280
     0
281
     0
  0
CLASS
  1
PLOTSETTINGS
  2
AcDbPlotSettings
  3
AutoCAD 2000
 90
    32768
280
     0
281
     0
  0
CLASS
  1
ACDBDICTIONARYWDFLT
  2
AcDbDictionaryWithDefault
  3
AutoCAD 2000
 90
        0
280
     0
281
     0
  0
CLASS
  1
ACDBPLACEHOLDER
  2
AcDbPlaceHolder
  3
AutoCAD 2000
 90
        0
280
     0
281
     0
  0
CLASS
  1
VBA_PROJECT
  2
AcDbVbaProject
  3
acadvba
 90
    32768
280
     0
281
     0
  0
CLASS
  1
WIPEOUT
  2
AcDbWipeout
  3
WipeOut|AutoCAD Express Tool|expresstools@autodesk.com
 90
    32895
280
     0
281
     1
  0
CLASS
  1
WIPEOUTVARIABLES
  2
AcDbWipeoutVariables
  3
WipeOut|AutoCAD Express Tool|expresstools@autodesk.com
 90
        0
280
     0
281
     0
  0
CLASS
  1
RTEXT
  2
RText
  3
RText|AutoCAD Express Tool|expresstools@autodesk.com
 90
    32768
280
     0
281
     1
  0
CLASS
  1
ARCALIGNEDTEXT
  2
AcDbArcAlignedText
  3
ATEXT|AutoCAD Express Tool|expresstools@autodesk.com
 90
    32768
280
     0
281
     1
  0
ENDSEC
  0
SECTION
  2
TABLES
  0
TABLE
  2
VPORT
  5
7
100
AcDbSymbolTable
 70
     1
  0
VPORT
  5
15
100
AcDbSymbolTableRecord
100
AcDbViewportTableRecord
  2
*ACTIVE
 70
     0
 10
0.0
 20
0.0
 11
1.0
 21
1.0
 12
6.591288
 22
4.579184
 13
0.0
 23
0.0
 14
1.0
 24
1.0
 15
0.0
 25
0.0
 16
0.0
 26
0.0
 36
1.0
 17
0.0
 27
0.0
 37
0.0
 40
9.158369
 41
0.688564
 42
50.0
 43
0.0
 44
0.0
 50
0.0
 51
0.0
 71
     0
 72
   100
 73
     1
 74
     1
 75
     0
 76
     0
 77
     0
 78
     0
281
     0
 65
     0
110
0.0
120
0.0
130
0.0
111
1.0
121
0.0
131
0.0
112
0.0
122
1.0
132
0.0
345
0
346
0
 79
     0
146
0.0
  0
ENDTAB
  0
TABLE
  2
LTYPE
  5
4
100
AcDbSymbolTable
 70
     3
  0
LTYPE
  5
11
100
AcDbSymbolTableRecord
100
AcDbLinetypeTableRecord
  2
ByBlock
 70
    64
  3

 72
    65
 73
     0
 40
0.0
  0
LTYPE
  5
12
100
AcDbSymbolTableRecord
100
AcDbLinetypeTableRecord
  2
ByLayer
 70
    64
  3

 72
    65
 73
     0
 40
0.0
  0
LTYPE
  5
13
100
AcDbSymbolTableRecord
100
AcDbLinetypeTableRecord
  2
Continuous
 70
    64
  3
Solid line
 72
    65
 73
     0
 40
0.0
  0
ENDTAB
  0
TABLE
  2
LAYER
  5
2
100
AcDbSymbolTable
 70
     2
  0
LAYER
  5
14
100
AcDbSymbolTableRecord
100
AcDbLayerTableRecord
  2
0
 70
     0
 62
     7
  6
Continuous
290
     1
370
    -3
390
1D
  0
LAYER
  5
24
100
AcDbSymbolTableRecord
100
AcDbLayerTableRecord
  2
Ebene 1
 70
     0
 62
     7
  6
Continuous
290
     1
370
    -3
390
1F
  0
ENDTAB
  0
TABLE
  2
STYLE
  5
3
100
AcDbSymbolTable
 70
     1
  0
STYLE
  5
17
100
AcDbSymbolTableRecord
100
AcDbTextStyleTableRecord
  2
Standard
 70
     0
 40
0.0
 41
1.0
 50
0.0
 71
     0
 42
0.0
  3
txt
  4

  0
ENDTAB
  0
TABLE
  2
VIEW
  5
5
100
AcDbSymbolTable
 70
     0
  0
ENDTAB
  0
TABLE
  2
UCS
  5
6
100
AcDbSymbolTable
 70
     0
  0
ENDTAB
  0
TABLE
  2
APPID
  5
8
100
AcDbSymbolTable
 70
     1
  0
APPID
  5
16
100
AcDbSymbolTableRecord
100
AcDbRegAppTableRecord
  2
ACAD
 70
     0
  0
ENDTAB
  0
TABLE
  2
DIMSTYLE
  5
9
100
AcDbSymbolTable
 70
     1
100
AcDbDimStyleTable
 71
     0
  0
DIMSTYLE
105
18
100
AcDbSymbolTableRecord
100
AcDbDimStyleTableRecord
  2
Standard
 70
     0
  3

  4

 40
1.0
 41
0.18
 42
0.0625
 43
0.38
 44
0.18
 45
0.0
 46
0.0
 47
0.0
 48
0.0
 71
     0
 72
     0
 73
     1
 74
     1
 75
     0
 76
     0
 77
     0
 78
     0
 79
     0
140
0.18
141
0.09
142
0.0
143
25.4
144
1.0
145
0.0
146
1.0
147
0.09
148
0.0
170
     0
171
     2
172
     0
173
     0
174
     0
175
     0
176
     0
177
     0
178
     0
179
     0
271
     4
272
     4
273
     2
274
     2
275
     0
276
     0
277
     2
278
    46
279
     0
280
     0
281
     0
282
     0
283
     1
284
     0
285
     0
286
     0
288
     0
340
17
341
0
342
0
343
0
344
0
371
    -2
372
    -2
  0
ENDTAB
  0
TABLE
  2
BLOCK_RECORD
  5
1
100
AcDbSymbolTable
 70
     0
  0
BLOCK_RECORD
  5
A
100
AcDbSymbolTableRecord
100
AcDbBlockTableRecord
  2
*MODEL_SPACE
340
20
  0
BLOCK_RECORD
  5
B
100
AcDbSymbolTableRecord
100
AcDbBlockTableRecord
  2
*PAPER_SPACE
340
21
  0
ENDTAB
  0
ENDSEC
  0
SECTION
  2
BLOCKS
  0
BLOCK
  5
D
100
AcDbEntity
  8
0
100
AcDbBlockBegin
  2
*MODEL_SPACE
 70
     0
 10
0.0
 20
0.0
 30
0.0
  3
*MODEL_SPACE
  1

  0
ENDBLK
  5
E
100
AcDbEntity
  8
0
100
AcDbBlockEnd
  0
BLOCK
  5
F
100
AcDbEntity
 67
     1
  8
0
100
AcDbBlockBegin
  2
*PAPER_SPACE
 70
     0
 10
0.0
 20
0.0
 30
0.0
  3
*PAPER_SPACE
  1

  0
ENDBLK
  5
10
100
AcDbEntity
 67
     1
  8
0
100
AcDbBlockEnd
  0
ENDSEC
  0
SECTION
  2
ENTITIES
  0
SPLINE
  5
25
100
AcDbEntity
  8
Ebene 1
100
AcDbSpline
210
0.0
220
0.0
230
1.0
 70
     1
 71
     3
 72
    68
 73
    64
 74
     0
 42
0.0000000001
 43
0.0000000001
 40
0.0
 40
0.0
 40
0.0
 40
0.0
 40
0.0625
 40
0.0625
 40
0.0625
 40
0.0625
 40
0.125
 40
0.125
 40
0.125
 40
0.125
 40
0.1875
 40
0.1875
 40
0.1875
 40
0.1875
 40
0.25
 40
0.25
 40
0.25
 40
0.25
 40
0.3125
 40
0.3125
 40
0.3125
 40
0.3125
 40
0.375
 40
0.375
 40
0.375
 40
0.375
 40
0.4375
 40
0.4375
 40
0.4375
 40
0.4375
 40
0.5
 40
0.5
 40
0.5
 40
0.5
 40
0.5625
 40
0.5625
 40
0.5625
 40
0.5625
 40
0.625
 40
0.625
 40
0.625
 40
0.625
 40
0.6875
 40
0.6875
 40
0.6875
 40
0.6875
 40
0.75
 40
0.75
 40
0.75
 40
0.75
 40
0.8125
 40
0.8125
 40
0.8125
 40
0.8125
 40
0.875
 40
0.875
 40
0.875
 40
0.875
 40
0.9375
 40
0.9375
 40
0.9375
 40
0.9375
 40
1.0
 40
1.0
 40
1.0
 40
1.0
 10
-0.9421900000000001
 20
6.3418100000000006
 30
0.0
 10
-1.2774700000000001
 20
5.5188500000000005
 30
0.0
 10
-1.7397500000000001
 20
4.3682300000000005
 30
0.0
 10
-1.24699
 20
3.0804500000000004
 30
0.0
 10
-1.24699
 20
3.0804500000000004
 30
0.0
 10
-0.24877
 20
3.7154500000000001
 30
0.0
 10
1.1025
 20
3.3395300000000003
 30
0.0
 10
2.20486
 20
2.7858100000000001
 30
0.0
 10
2.20486
 20
2.7858100000000001
 30
0.0
 10
2.38266
 20
2.6537300000000004
 30
0.0
 10
2.54522
 20
2.4810100000000004
 30
0.0
 10
2.6950800000000004
 20
2.3209900000000001
 30
0.0
 10
2.6950800000000004
 20
2.3209900000000001
 30
0.0
 10
3.3326200000000004
 20
3.0245700000000002
 30
0.0
 10
3.2284800000000002
 20
4.0659700000000001
 30
0.0
 10
3.3275400000000004
 20
4.8940100000000006
 30
0.0
 10
3.3275400000000004
 20
4.8940100000000006
 30
0.0
 10
4.55436
 20
2.9686900000000001
 30
0.0
 10
2.5122
 20
0.7919100000000001
 30
0.0
 10
3.3427800000000003
 20
-1.16134
 30
0.0
 10
3.3427800000000003
 20
-1.16134
 30
0.0
 10
3.3224600000000004
 20
-1.3010400000000002
 30
0.0
 10
3.1954600000000002
 20
-1.37978
 30
0.0
 10
3.0862400000000001
 20
-1.4534400000000001
 30
0.0
 10
3.0862400000000001
 20
-1.4534400000000001
 30
0.0
 10
2.12866
 20
-1.4915400000000001
 30
0.0
 10
2.3369400000000002
 20
-2.7920200000000004
 30
0.0
 10
2.1439000000000004
 20
-3.4905200000000001
 30
0.0
 10
2.1439000000000004
 20
-3.4905200000000001
 30
0.0
 10
1.5216000000000001
 20
-4.26776
 30
0.0
 10
1.1787000000000001
 20
-5.2329600000000003
 30
0.0
 10
0.6275200000000001
 20
-6.0076600000000004
 30
0.0
 10
0.6275200000000001
 20
-6.0076600000000004
 30
0.0
 10
0.42686
 20
-5.2075600000000009
 30
0.0
 10
-0.7491500000000001
 20
-5.6088800000000001
 30
0.0
 10
-0.9015500000000001
 20
-6.3480200000000009
 30
0.0
 10
-0.9015500000000001
 20
-6.3480200000000009
 30
0.0
 10
-1.0158500000000001
 20
-5.2659800000000008
 30
0.0
 10
-1.5670300000000001
 20
-4.2449000000000003
 30
0.0
 10
-2.18933
 20
-3.3355800000000002
 30
0.0
 10
-2.18933
 20
-3.3355800000000002
 30
0.0
 10
-2.2629900000000003
 20
-2.8377400000000002
 30
0.0
 10
-2.1385300000000003
 20
-2.3018000000000001
 30
0.0
 10
-2.22235
 20
-1.7938000000000001
 30
0.0
 10
-2.22235
 20
-1.7938000000000001
 30
0.0
 10
-2.35697
 20
-1.5906000000000002
 30
0.0
 10
-2.2985500000000001
 20
-1.1791200000000002
 30
0.0
 10
-2.5601700000000003
 20
-1.1207
 30
0.0
 10
-2.5601700000000003
 20
-1.1207
 30
0.0
 10
-2.9284700000000004
 20
-0.99116
 30
0.0
 10
-3.4364700000000004
 20
-0.97084
 30
0.0
 10
-3.7260300000000002
 20
-0.7397
 30
0.0
 10
-3.7260300000000002
 20
-0.7397
 30
0.0
 10
-3.6828500000000002
 20
-0.28504
 30
0.0
 10
-3.2180300000000002
 20
-0.0031
 30
0.0
 10
-2.8573500000000003
 20
0.18993
 30
0.0
 10
-2.8573500000000003
 20
0.18993
 30
0.0
 10
-3.0072100000000002
 20
1.0586100000000001
 30
0.0
 10
-2.2960100000000003
 20
1.6097900000000001
 30
0.0
 10
-2.1817100000000003
 20
2.4098900000000003
 30
0.0
 10
-2.1817100000000003
 20
2.4098900000000003
 30
0.0
 10
-3.0300700000000003
 20
3.7078300000000004
 30
0.0
 10
-2.3849100000000001
 20
5.4121700000000006
 30
0.0
 10
-0.9421900000000001
 20
6.3418100000000006
 30
0.0
  0
SPLINE
  5
26
100
AcDbEntity
  8
Ebene 1
100
AcDbSpline
210
0.0
220
0.0
230
1.0
 70
     1
 71
     3
 72
   136
 73
   132
 74
     0
 42
0.0000000001
 43
0.0000000001
 40
0.0
 40
0.0
 40
0.0
 40
0.0
 40
0.0303030303030303
 40
0.0303030303030303
 40
0.0303030303030303
 40
0.0303030303030303
 40
0.0606060606060606
 40
0.0606060606060606
 40
0.0606060606060606
 40
0.0606060606060606
 40
0.0909090909090909
 40
0.0909090909090909
 40
0.0909090909090909
 40
0.0909090909090909
 40
0.1212121212121212
 40
0.1212121212121212
 40
0.1212121212121212
 40
0.1212121212121212
 40
0.1515151515151515
 40
0.1515151515151515
 40
0.1515151515151515
 40
0.1515151515151515
 40
0.1818181818181818
 40
0.1818181818181818
 40
0.1818181818181818
 40
0.1818181818181818
 40
0.2121212121212121
 40
0.2121212121212121
 40
0.2121212121212121
 40
0.2121212121212121
 40
0.2424242424242424
 40
0.2424242424242424
 40
0.2424242424242424
 40
0.2424242424242424
 40
0.2727272727272727
 40
0.2727272727272727
 40
0.2727272727272727
 40
0.2727272727272727
 40
0.303030303030303
 40
0.303030303030303
 40
0.303030303030303
 40
0.303030303030303
 40
0.3333333333333333
 40
0.3333333333333333
 40
0.3333333333333333
 40
0.3333333333333333
 40
0.3636363636363635
 40
0.3636363636363635
 40
0.3636363636363635
 40
0.3636363636363635
 40
0.3939393939393938
 40
0.3939393939393938
 40
0.3939393939393938
 40
0.3939393939393938
 40
0.4242424242424241
 40
0.4242424242424241
 40
0.4242424242424241
 40
0.4242424242424241
 40
0.4545454545454544
 40
0.4545454545454544
 40
0.4545454545454544
 40
0.4545454545454544
 40
0.4848484848484846
 40
0.4848484848484846
 40
0.4848484848484846
 40
0.4848484848484846
 40
0.5151515151515149
 40
0.5151515151515149
 40
0.5151515151515149
 40
0.5151515151515149
 40
0.5454545454545452
 40
0.5454545454545452
 40
0.5454545454545452
 40
0.5454545454545452
 40
0.5757575757575755
 40
0.5757575757575755
 40
0.5757575757575755
 40
0.5757575757575755
 40
0.6060606060606057
 40
0.6060606060606057
 40
0.6060606060606057
 40
0.6060606060606057
 40
0.636363636363636
 40
0.636363636363636
 40
0.636363636363636
 40
0.636363636363636
 40
0.6666666666666663
 40
0.6666666666666663
 40
0.6666666666666663
 40
0.6666666666666663
 40
0.6969696969696966
 40
0.6969696969696966
 40
0.6969696969696966
 40
0.6969696969696966
 40
0.7272727272727269
 40
0.7272727272727269
 40
0.7272727272727269
 40
0.7272727272727269
 40
0.7575757575757571
 40
0.7575757575757571
 40
0.7575757575757571
 40
0.7575757575757571
 40
0.7878787878787874
 40
0.7878787878787874
 40
0.7878787878787874
 40
0.7878787878787874
 40
0.8181818181818177
 40
0.8181818181818177
 40
0.8181818181818177
 40
0.8181818181818177
 40
0.848484848484848
 40
0.848484848484848
 40
0.848484848484848
 40
0.848484848484848
 40
0.8787878787878782
 40
0.8787878787878782
 40
0.8787878787878782
 40
0.8787878787878782
 40
0.9090909090909085
 40
0.9090909090909085
 40
0.9090909090909085
 40
0.9090909090909085
 40
0.9393939393939388
 40
0.9393939393939388
 40
0.9393939393939388
 40
0.9393939393939388
 40
0.9696969696969691
 40
0.9696969696969691
 40
0.9696969696969691
 40
0.9696969696969691
 40
1.0
 40
1.0
 40
1.0
 40
1.0
 10
-1.2800100000000001
 20
-1.8649200000000001
 30
0.0
 10
-1.3689100000000001
 20
-1.9690600000000003
 30
0.0
 10
-1.50099
 20
-2.4211800000000001
 30
0.0
 10
-1.6000500000000002
 20
-2.2052800000000001
 30
0.0
 10
-1.6000500000000002
 20
-2.2052800000000001
 30
0.0
 10
-1.6533900000000001
 20
-2.4008600000000002
 30
0.0
 10
-1.6635500000000001
 20
-2.7285200000000001
 30
0.0
 10
-1.5213100000000002
 20
-2.4999200000000004
 30
0.0
 10
-1.5213100000000002
 20
-2.4999200000000004
 30
0.0
 10
-1.5213100000000002
 20
-2.4999200000000004
 30
0.0
 10
-1.4298700000000002
 20
-2.9698200000000003
 30
0.0
 10
-1.4298700000000002
 20
-2.9698200000000003
 30
0.0
 10
-1.4298700000000002
 20
-2.9698200000000003
 30
0.0
 10
-1.37399
 20
-2.9215600000000004
 30
0.0
 10
-1.4451100000000001
 20
-2.7361400000000002
 30
0.0
 10
-1.3257300000000001
 20
-2.7666200000000001
 30
0.0
 10
-1.3257300000000001
 20
-2.7666200000000001
 30
0.0
 10
-1.2749300000000001
 20
-3.0968200000000001
 30
0.0
 10
-1.12507
 20
-3.4041600000000001
 30
0.0
 10
-1.00061
 20
-3.7013400000000005
 30
0.0
 10
-1.00061
 20
-3.7013400000000005
 30
0.0
 10
-1.00061
 20
-3.7013400000000005
 30
0.0
 10
-0.9548900000000001
 20
-3.1298400000000002
 30
0.0
 10
-0.9548900000000001
 20
-3.1298400000000002
 30
0.0
 10
-0.9548900000000001
 20
-3.1298400000000002
 30
0.0
 10
-0.93203
 20
-2.9926800000000005
 30
0.0
 10
-0.8532900000000001
 20
-3.0434800000000002
 30
0.0
 10
-0.8583700000000001
 20
-3.1577800000000003
 30
0.0
 10
-0.8583700000000001
 20
-3.1577800000000003
 30
0.0
 10
-0.78471
 20
-3.4194000000000004
 30
0.0
 10
-0.71613
 20
-3.7292800000000002
 30
0.0
 10
-0.53579
 20
-3.9324800000000004
 30
0.0
 10
-0.53579
 20
-3.9324800000000004
 30
0.0
 10
-0.33767
 20
-3.5464000000000002
 30
0.0
 10
-0.3021100000000001
 20
-3.0739600000000005
 30
0.0
 10
-0.10907
 20
-2.6675600000000004
 30
0.0
 10
-0.10907
 20
-2.6675600000000004
 30
0.0
 10
0.0611
 20
-2.9596600000000004
 30
0.0
 10
-0.16495
 20
-3.5032200000000002
 30
0.0
 10
-0.05319
 20
-3.8715200000000003
 30
0.0
 10
-0.05319
 20
-3.8715200000000003
 30
0.0
 10
-0.05319
 20
-3.8715200000000003
 30
0.0
 10
0.1373
 20
-3.3838400000000002
 30
0.0
 10
0.1373
 20
-3.3838400000000002
 30
0.0
 10
0.1373
 20
-3.3838400000000002
 30
0.0
 10
0.34812
 20
-2.9774400000000001
 30
0.0
 10
0.29478
 20
-4.2474400000000001
 30
0.0
 10
0.4192400000000001
 20
-3.7470600000000003
 30
0.0
 10
0.4192400000000001
 20
-3.7470600000000003
 30
0.0
 10
0.4192400000000001
 20
-3.7470600000000003
 30
0.0
 10
0.4725800000000001
 20
-3.5616400000000001
 30
0.0
 10
0.4725800000000001
 20
-3.5616400000000001
 30
0.0
 10
0.4725800000000001
 20
-3.5616400000000001
 30
0.0
 10
0.4725800000000001
 20
-3.5616400000000001
 30
0.0
 10
0.50814
 20
-3.4549600000000003
 30
0.0
 10
0.50814
 20
-3.4549600000000003
 30
0.0
 10
0.50814
 20
-3.4549600000000003
 30
0.0
 10
0.51068
 20
-3.3533600000000003
 30
0.0
 10
0.59704
 20
-3.3203400000000003
 30
0.0
 10
0.57164
 20
-3.4524200000000005
 30
0.0
 10
0.57164
 20
-3.4524200000000005
 30
0.0
 10
0.57164
 20
-3.4524200000000005
 30
0.0
 10
0.6199
 20
-3.7445200000000005
 30
0.0
 10
0.6199
 20
-3.7445200000000005
 30
0.0
 10
0.6199
 20
-3.7445200000000005
 30
0.0
 10
0.9094600000000001
 20
-3.2263600000000001
 30
0.0
 10
1.06694
 20
-2.6269200000000001
 30
0.0
 10
0.9780400000000001
 20
-2.0224000000000002
 30
0.0
 10
0.9780400000000001
 20
-2.0224000000000002
 30
0.0
 10
0.80532
 20
-2.1138400000000002
 30
0.0
 10
0.89168
 20
-2.3881600000000001
 30
0.0
 10
0.7951600000000001
 20
-2.5481800000000003
 30
0.0
 10
0.7951600000000001
 20
-2.5481800000000003
 30
0.0
 10
0.76468
 20
-2.6218400000000002
 30
0.0
 10
0.7291200000000001
 20
-2.6955
 30
0.0
 10
0.7265800000000001
 20
-2.7793200000000002
 30
0.0
 10
0.7265800000000001
 20
-2.7793200000000002
 30
0.0
 10
0.55894
 20
-2.9647400000000004
 30
0.0
 10
0.6453000000000001
 20
-1.8192000000000002
 30
0.0
 10
0.4192400000000001
 20
-2.2713200000000002
 30
0.0
 10
0.4192400000000001
 20
-2.2713200000000002
 30
0.0
 10
0.4192400000000001
 20
-2.2713200000000002
 30
0.0
 10
0.33288
 20
-2.5075400000000001
 30
0.0
 10
0.33288
 20
-2.5075400000000001
 30
0.0
 10
0.33288
 20
-2.5075400000000001
 30
0.0
 10
0.27954
 20
-2.5913600000000003
 30
0.0
 10
0.23128
 20
-2.6802600000000001
 30
0.0
 10
0.20842
 20
-2.7793200000000002
 30
0.0
 10
0.20842
 20
-2.7793200000000002
 30
0.0
 10
0.18302
 20
-2.8961600000000001
 30
0.0
 10
0.13984
 20
-3.0155400000000001
 30
0.0
 10
0.08142
 20
-3.1146000000000003
 30
0.0
 10
0.08142
 20
-3.1146000000000003
 30
0.0
 10
-0.07859
 20
-2.85806
 30
0.0
 10
0.18556
 20
-2.3424400000000003
 30
0.0
 10
-0.05827
 20
-2.1189200000000001
 30
0.0
 10
-0.05827
 20
-2.1189200000000001
 30
0.0
 10
-0.11669
 20
-2.2129000000000003
 30
0.0
 10
-0.13955
 20
-2.3399000000000001
 30
0.0
 10
-0.17003
 20
-2.4542000000000002
 30
0.0
 10
-0.17003
 20
-2.4542000000000002
 30
0.0
 10
-0.17003
 20
-2.4542000000000002
 30
0.0
 10
-0.3224300000000001
 20
-2.8352000000000004
 30
0.0
 10
-0.3224300000000001
 20
-2.8352000000000004
 30
0.0
 10
-0.3224300000000001
 20
-2.8352000000000004
 30
0.0
 10
-0.39863
 20
-2.6853400000000001
 30
0.0
 10
-0.37069
 20
-2.4897600000000004
 30
0.0
 10
-0.38085
 20
-2.3145000000000002
 30
0.0
 10
-0.38085
 20
-2.3145000000000002
 30
0.0
 10
-0.38085
 20
-2.3145000000000002
 30
0.0
 10
-0.38339
 20
-2.0351000000000004
 30
0.0
 10
-0.38339
 20
-2.0351000000000004
 30
0.0
 10
-0.38339
 20
-2.0351000000000004
 30
0.0
 10
-0.65517
 20
-2.4237200000000003
 30
0.0
 10
-0.56881
 20
-3.0130000000000003
 30
0.0
 10
-0.6475500000000001
 20
-3.4803600000000001
 30
0.0
 10
-0.6475500000000001
 20
-3.4803600000000001
 30
0.0
 10
-0.72375
 20
-3.4879800000000003
 30
0.0
 10
-0.69581
 20
-3.3838400000000002
 30
0.0
 10
-0.7313700000000001
 20
-3.3406600000000002
 30
0.0
 10
-0.7313700000000001
 20
-3.3406600000000002
 30
0.0
 10
-0.8431300000000001
 20
-2.9063200000000005
 30
0.0
 10
-0.8177300000000001
 20
-2.4237200000000003
 30
0.0
 10
-0.9548900000000001
 20
-2.0046200000000001
 30
0.0
 10
-0.9548900000000001
 20
-2.0046200000000001
 30
0.0
 10
-1.11999
 20
-2.1748000000000003
 30
0.0
 10
-1.08951
 20
-2.4719800000000003
 30
0.0
 10
-1.2241300000000002
 20
-2.6370800000000001
 30
0.0
 10
-1.2241300000000002
 20
-2.6370800000000001
 30
0.0
 10
-1.3257300000000001
 20
-2.4161000000000001
 30
0.0
 10
-1.16825
 20
-2.0478000000000001
 30
0.0
 10
-1.2800100000000001
 20
-1.8649200000000001
 30
0.0
  0
SPLINE
  5
27
100
AcDbEntity
  8
Ebene 1
100
AcDbSpline
210
0.0
220
0.0
230
1.0
 70
     1
 71
     3
 72
    48
 73
    44
 74
     0
 42
0.0000000001
 43
0.0000000001
 40
0.0
 40
0.0
 40
0.0
 40
0.0
 40
0.0909090909090909
 40
0.0909090909090909
 40
0.0909090909090909
 40
0.0909090909090909
 40
0.1818181818181818
 40
0.1818181818181818
 40
0.1818181818181818
 40
0.1818181818181818
 40
0.2727272727272727
 40
0.2727272727272727
 40
0.2727272727272727
 40
0.2727272727272727
 40
0.3636363636363637
 40
0.3636363636363637
 40
0.3636363636363637
 40
0.3636363636363637
 40
0.4545454545454546
 40
0.4545454545454546
 40
0.4545454545454546
 40
0.4545454545454546
 40
0.5454545454545455
 40
0.5454545454545455
 40
0.5454545454545455
 40
0.5454545454545455
 40
0.6363636363636365
 40
0.6363636363636365
 40
0.6363636363636365
 40
0.6363636363636365
 40
0.7272727272727274
 40
0.7272727272727274
 40
0.7272727272727274
 40
0.7272727272727274
 40
0.8181818181818183
 40
0.8181818181818183
 40
0.8181818181818183
 40
0.8181818181818183
 40
0.9090909090909093
 40
0.9090909090909093
 40
0.9090909090909093
 40
0.9090909090909093
 40
1.0
 40
1.0
 40
1.0
 40
1.0
 10
0.99582
 20
-3.03078
 30
0.0
 10
1.2193400000000001
 20
-2.9139400000000002
 30
0.0
 10
0.9882000000000001
 20
-3.3482800000000004
 30
0.0
 10
1.06186
 20
-3.4346400000000004
 30
0.0
 10
1.06186
 20
-3.4346400000000004
 30
0.0
 10
1.1990200000000002
 20
-3.1476200000000003
 30
0.0
 10
1.2549000000000001
 20
-2.8250400000000004
 30
0.0
 10
1.3361800000000001
 20
-2.5151600000000003
 30
0.0
 10
1.3361800000000001
 20
-2.5151600000000003
 30
0.0
 10
1.4073000000000002
 20
-2.5202400000000003
 30
0.0
 10
1.3666600000000002
 20
-2.6497800000000002
 30
0.0
 10
1.4276200000000001
 20
-2.6751800000000001
 30
0.0
 10
1.4276200000000001
 20
-2.6751800000000001
 30
0.0
 10
1.4911200000000002
 20
-2.6193000000000004
 30
0.0
 10
1.4454
 20
-2.4313400000000001
 30
0.0
 10
1.5470000000000002
 20
-2.4516600000000004
 30
0.0
 10
1.5470000000000002
 20
-2.4516600000000004
 30
0.0
 10
1.5470000000000002
 20
-2.4516600000000004
 30
0.0
 10
1.6232000000000002
 20
-2.6751800000000001
 30
0.0
 10
1.6232000000000002
 20
-2.6751800000000001
 30
0.0
 10
1.6232000000000002
 20
-2.6751800000000001
 30
0.0
 10
1.6663800000000002
 20
-2.4313400000000001
 30
0.0
 10
1.7095600000000002
 20
-2.1646400000000003
 30
0.0
 10
1.6663800000000002
 20
-1.9081000000000001
 30
0.0
 10
1.6663800000000002
 20
-1.9081000000000001
 30
0.0
 10
1.6663800000000002
 20
-1.9081000000000001
 30
0.0
 10
1.5851000000000002
 20
-2.1468600000000002
 30
0.0
 10
1.5851000000000002
 20
-2.1468600000000002
 30
0.0
 10
1.5851000000000002
 20
-2.1468600000000002
 30
0.0
 10
1.5520800000000001
 20
-2.2383000000000002
 30
0.0
 10
1.52922
 20
-2.3653000000000004
 30
0.0
 10
1.4479400000000002
 20
-2.4084800000000004
 30
0.0
 10
1.4479400000000002
 20
-2.4084800000000004
 30
0.0
 10
1.4479400000000002
 20
-2.4084800000000004
 30
0.0
 10
1.4581000000000002
 20
-2.0757400000000001
 30
0.0
 10
1.4581000000000002
 20
-2.0757400000000001
 30
0.0
 10
1.4581000000000002
 20
-2.0757400000000001
 30
0.0
 10
1.4581000000000002
 20
-2.0757400000000001
 30
0.0
 10
1.44286
 20
-1.8115800000000002
 30
0.0
 10
1.44286
 20
-1.8115800000000002
 30
0.0
 10
1.44286
 20
-1.8115800000000002
 30
0.0
 10
1.2879200000000002
 20
-2.2002000000000002
 30
0.0
 10
1.2498200000000002
 20
-2.6624800000000004
 30
0.0
 10
0.99582
 20
-3.03078
 30
0.0
  0
SPLINE
  5
28
100
AcDbEntity
  8
Ebene 1
 62
     7
100
AcDbSpline
210
0.0
220
0.0
230
1.0
 70
     1
 71
     3
 72
   244
 73
   240
 74
     0
 42
0.0000000001
 43
0.0000000001
 40
0.0
 40
0.0
 40
0.0
 40
0.0
 40
0.0166666666666667
 40
0.0166666666666667
 40
0.0166666666666667
 40
0.0166666666666667
 40
0.0333333333333333
 40
0.0333333333333333
 40
0.0333333333333333
 40
0.0333333333333333
 40
0.05
 40
0.05
 40
0.05
 40
0.05
 40
0.0666666666666667
 40
0.0666666666666667
 40
0.0666666666666667
 40
0.0666666666666667
 40
0.0833333333333333
 40
0.0833333333333333
 40
0.0833333333333333
 40
0.0833333333333333
 40
0.1
 40
0.1
 40
0.1
 40
0.1
 40
0.1166666666666667
 40
0.1166666666666667
 40
0.1166666666666667
 40
0.1166666666666667
 40
0.1333333333333333
 40
0.1333333333333333
 40
0.1333333333333333
 40
0.1333333333333333
 40
0.15
 40
0.15
 40
0.15
 40
0.15
 40
0.1666666666666667
 40
0.1666666666666667
 40
0.1666666666666667
 40
0.1666666666666667
 40
0.1833333333333333
 40
0.1833333333333333
 40
0.1833333333333333
 40
0.1833333333333333
 40
0.2
 40
0.2
 40
0.2
 40
0.2
 40
0.2166666666666667
 40
0.2166666666666667
 40
0.2166666666666667
 40
0.2166666666666667
 40
0.2333333333333333
 40
0.2333333333333333
 40
0.2333333333333333
 40
0.2333333333333333
 40
0.25
 40
0.25
 40
0.25
 40
0.25
 40
0.2666666666666667
 40
0.2666666666666667
 40
0.2666666666666667
 40
0.2666666666666667
 40
0.2833333333333333
 40
0.2833333333333333
 40
0.2833333333333333
 40
0.2833333333333333
 40
0.3
 40
0.3
 40
0.3
 40
0.3
 40
0.3166666666666667
 40
0.3166666666666667
 40
0.3166666666666667
 40
0.3166666666666667
 40
0.3333333333333333
 40
0.3333333333333333
 40
0.3333333333333333
 40
0.3333333333333333
 40
0.35
 40
0.35
 40
0.35
 40
0.35
 40
0.3666666666666666
 40
0.3666666666666666
 40
0.3666666666666666
 40
0.3666666666666666
 40
0.3833333333333333
 40
0.3833333333333333
 40
0.3833333333333333
 40
0.3833333333333333
 40
0.4
 40
0.4
 40
0.4
 40
0.4
 40
0.4166666666666666
 40
0.4166666666666666
 40
0.4166666666666666
 40
0.4166666666666666
 40
0.4333333333333333
 40
0.4333333333333333
 40
0.4333333333333333
 40
0.4333333333333333
 40
0.45
 40
0.45
 40
0.45
 40
0.45
 40
0.4666666666666666
 40
0.4666666666666666
 40
0.4666666666666666
 40
0.4666666666666666
 40
0.4833333333333333
 40
0.4833333333333333
 40
0.4833333333333333
 40
0.4833333333333333
 40
0.4999999999999999
 40
0.4999999999999999
 40
0.4999999999999999
 40
0.4999999999999999
 40
0.5166666666666666
 40
0.5166666666666666
 40
0.5166666666666666
 40
0.5166666666666666
 40
0.5333333333333333
 40
0.5333333333333333
 40
0.5333333333333333
 40
0.5333333333333333
 40
0.55
 40
0.55
 40
0.55
 40
0.55
 40
0.5666666666666668
 40
0.5666666666666668
 40
0.5666666666666668
 40
0.5666666666666668
 40
0.5833333333333335
 40
0.5833333333333335
 40
0.5833333333333335
 40
0.5833333333333335
 40
0.6000000000000002
 40
0.6000000000000002
 40
0.6000000000000002
 40
0.6000000000000002
 40
0.6166666666666669
 40
0.6166666666666669
 40
0.6166666666666669
 40
0.6166666666666669
 40
0.6333333333333336
 40
0.6333333333333336
 40
0.6333333333333336
 40
0.6333333333333336
 40
0.6500000000000004
 40
0.6500000000000004
 40
0.6500000000000004
 40
0.6500000000000004
 40
0.6666666666666671
 40
0.6666666666666671
 40
0.6666666666666671
 40
0.6666666666666671
 40
0.6833333333333338
 40
0.6833333333333338
 40
0.6833333333333338
 40
0.6833333333333338
 40
0.7000000000000005
 40
0.7000000000000005
 40
0.7000000000000005
 40
0.7000000000000005
 40
0.7166666666666672
 40
0.7166666666666672
 40
0.7166666666666672
 40
0.7166666666666672
 40
0.733333333333334
 40
0.733333333333334
 40
0.733333333333334
 40
0.733333333333334
 40
0.7500000000000007
 40
0.7500000000000007
 40
0.7500000000000007
 40
0.7500000000000007
 40
0.7666666666666674
 40
0.7666666666666674
 40
0.7666666666666674
 40
0.7666666666666674
 40
0.7833333333333341
 40
0.7833333333333341
 40
0.7833333333333341
 40
0.7833333333333341
 40
0.8000000000000008
 40
0.8000000000000008
 40
0.8000000000000008
 40
0.8000000000000008
 40
0.8166666666666675
 40
0.8166666666666675
 40
0.8166666666666675
 40
0.8166666666666675
 40
0.8333333333333343
 40
0.8333333333333343
 40
0.8333333333333343
 40
0.8333333333333343
 40
0.850000000000001
 40
0.850000000000001
 40
0.850000000000001
 40
0.850000000000001
 40
0.8666666666666677
 40
0.8666666666666677
 40
0.8666666666666677
 40
0.8666666666666677
 40
0.8833333333333344
 40
0.8833333333333344
 40
0.8833333333333344
 40
0.8833333333333344
 40
0.9000000000000011
 40
0.9000000000000011
 40
0.9000000000000011
 40
0.9000000000000011
 40
0.9166666666666679
 40
0.9166666666666679
 40
0.9166666666666679
 40
0.9166666666666679
 40
0.9333333333333346
 40
0.9333333333333346
 40
0.9333333333333346
 40
0.9333333333333346
 40
0.9500000000000013
 40
0.9500000000000013
 40
0.9500000000000013
 40
0.9500000000000013
 40
0.966666666666668
 40
0.966666666666668
 40
0.966666666666668
 40
0.966666666666668
 40
0.9833333333333347
 40
0.9833333333333347
 40
0.9833333333333347
 40
0.9833333333333347
 40
1.0
 40
1.0
 40
1.0
 40
1.0
 10
-0.20305
 20
-1.2324600000000001
 30
0.0
 10
-0.42149
 20
-1.1410200000000001
 30
0.0
 10
-0.35799
 20
-1.8496800000000002
 30
0.0
 10
-0.50785
 20
-1.9919200000000001
 30
0.0
 10
-0.50785
 20
-1.9919200000000001
 30
0.0
 10
-0.52563
 20
-1.7684000000000002
 30
0.0
 10
-0.7872500000000001
 20
-1.5398000000000001
 30
0.0
 10
-0.54849
 20
-1.3442200000000002
 30
0.0
 10
-0.54849
 20
-1.3442200000000002
 30
0.0
 10
-0.55611
 20
-1.24516
 30
0.0
 10
-0.65771
 20
-1.3569200000000001
 30
0.0
 10
-0.6704100000000001
 20
-1.4026400000000001
 30
0.0
 10
-0.6704100000000001
 20
-1.4026400000000001
 30
0.0
 10
-0.7770900000000001
 20
-1.6998200000000001
 30
0.0
 10
-1.08189
 20
-1.8471400000000002
 30
0.0
 10
-0.9548900000000001
 20
-1.41534
 30
0.0
 10
-0.9548900000000001
 20
-1.41534
 30
0.0
 10
-0.8736100000000001
 20
-1.12578
 30
0.0
 10
-0.97267
 20
-1.2604000000000002
 30
0.0
 10
-1.0641100000000001
 20
-1.4458200000000001
 30
0.0
 10
-1.0641100000000001
 20
-1.4458200000000001
 30
0.0
 10
-1.3663700000000001
 20
-1.8700000000000001
 30
0.0
 10
-1.3511300000000002
 20
-1.1384800000000002
 30
0.0
 10
-1.1428500000000001
 20
-0.8971800000000001
 30
0.0
 10
-1.1428500000000001
 20
-0.8971800000000001
 30
0.0
 10
-1.2266700000000001
 20
-0.88702
 30
0.0
 10
-1.24953
 20
-1.0470400000000002
 30
0.0
 10
-1.3104900000000002
 20
-1.1003800000000001
 30
0.0
 10
-1.3104900000000002
 20
-1.1003800000000001
 30
0.0
 10
-1.3104900000000002
 20
-1.1003800000000001
 30
0.0
 10
-1.4095500000000001
 20
-1.2426200000000001
 30
0.0
 10
-1.4095500000000001
 20
-1.2426200000000001
 30
0.0
 10
-1.4095500000000001
 20
-1.2426200000000001
 30
0.0
 10
-1.6965700000000001
 20
-0.9175000000000001
 30
0.0
 10
-0.48753
 20
0.09849
 30
0.0
 10
-1.37907
 20
-0.44506
 30
0.0
 10
-1.37907
 20
-0.44506
 30
0.0
 10
-1.4908300000000001
 20
-0.4984000000000001
 30
0.0
 10
-1.6000500000000002
 20
-0.5492
 30
0.0
 10
-1.71435
 20
-0.4882400000000001
 30
0.0
 10
-1.71435
 20
-0.4882400000000001
 30
0.0
 10
-1.8769100000000001
 20
-0.3587
 30
0.0
 10
-1.9632700000000001
 20
-0.1555
 30
0.0
 10
-1.8870700000000002
 20
-0.4907800000000001
 30
0.0
 10
-1.8870700000000002
 20
-0.4907800000000001
 30
0.0
 10
-1.8616700000000002
 20
-0.67366
 30
0.0
 10
-1.5263900000000001
 20
-0.56698
 30
0.0
 10
-1.38161
 20
-0.5593600000000001
 30
0.0
 10
-1.38161
 20
-0.5593600000000001
 30
0.0
 10
-1.5289300000000001
 20
-0.7955800000000001
 30
0.0
 10
-1.7422900000000001
 20
-1.0318000000000001
 30
0.0
 10
-2.01153
 20
-1.1054600000000001
 30
0.0
 10
-2.01153
 20
-1.1054600000000001
 30
0.0
 10
-2.2731500000000002
 20
-1.1054600000000001
 30
0.0
 10
-2.4661900000000001
 20
-0.8971800000000001
 30
0.0
 10
-2.6566900000000002
 20
-0.7549400000000001
 30
0.0
 10
-2.6566900000000002
 20
-0.7549400000000001
 30
0.0
 10
-2.2909300000000004
 20
-1.3112000000000001
 30
0.0
 10
-3.2916900000000004
 20
-0.82352
 30
0.0
 10
-3.5812500000000003
 20
-0.76256
 30
0.0
 10
-3.5812500000000003
 20
-0.76256
 30
0.0
 10
-3.6168100000000001
 20
-0.4095
 30
0.0
 10
-3.2434300000000005
 20
-0.08692
 30
0.0
 10
-2.9284700000000004
 20
-0.00056
 30
0.0
 10
-2.9284700000000004
 20
-0.00056
 30
0.0
 10
-2.9233900000000004
 20
-0.12756
 30
0.0
 10
-3.1392900000000004
 20
-0.38918
 30
0.0
 10
-2.9843500000000001
 20
-0.4272800000000001
 30
0.0
 10
-2.9843500000000001
 20
-0.4272800000000001
 30
0.0
 10
-2.5322300000000002
 20
0.12897
 30
0.0
 10
-3.0376900000000004
 20
0.9671700000000001
 30
0.0
 10
-2.3899900000000001
 20
1.4218300000000001
 30
0.0
 10
-2.3899900000000001
 20
1.4218300000000001
 30
0.0
 10
-2.3214100000000002
 20
1.40405
 30
0.0
 10
-2.4077700000000002
 20
1.2160900000000001
 30
0.0
 10
-2.30871
 20
1.2846700000000002
 30
0.0
 10
-2.30871
 20
1.2846700000000002
 30
0.0
 10
-2.2502900000000001
 20
1.5335900000000002
 30
0.0
 10
-2.1766300000000003
 20
1.7926700000000002
 30
0.0
 10
-2.09789
 20
2.0238100000000001
 30
0.0
 10
-2.09789
 20
2.0238100000000001
 30
0.0
 10
-1.9378700000000002
 20
1.8587100000000001
 30
0.0
 10
-2.0140700000000002
 20
1.5589900000000001
 30
0.0
 10
-1.9708900000000003
 20
1.4269100000000001
 30
0.0
 10
-1.9708900000000003
 20
1.4269100000000001
 30
0.0
 10
-1.7676900000000002
 20
2.2016100000000001
 30
0.0
 10
-2.3315700000000001
 20
2.8696300000000003
 30
0.0
 10
-2.4738100000000003
 20
3.6163900000000004
 30
0.0
 10
-2.4738100000000003
 20
3.6163900000000004
 30
0.0
 10
-2.5068300000000003
 20
3.8957900000000003
 30
0.0
 10
-2.3722100000000004
 20
4.1345499999999999
 30
0.0
 10
-2.23251
 20
4.3606100000000003
 30
0.0
 10
-2.23251
 20
4.3606100000000003
 30
0.0
 10
-2.14107
 20
3.7967300000000002
 30
0.0
 10
-2.0902700000000003
 20
3.1922100000000002
 30
0.0
 10
-1.8438900000000003
 20
2.67659
 30
0.0
 10
-1.8438900000000003
 20
2.67659
 30
0.0
 10
-1.8438900000000003
 20
2.67659
 30
0.0
 10
-1.84135
 20
2.8137500000000002
 30
0.0
 10
-1.84135
 20
2.8137500000000002
 30
0.0
 10
-1.84135
 20
2.8137500000000002
 30
0.0
 10
-2.2096500000000003
 20
3.8551500000000005
 30
0.0
 10
-2.3417300000000001
 20
5.3156500000000007
 30
0.0
 10
-1.24699
 20
5.9760500000000008
 30
0.0
 10
-1.24699
 20
5.9760500000000008
 30
0.0
 10
-1.4298700000000002
 20
5.4147100000000004
 30
0.0
 10
-1.6787900000000002
 20
4.8381300000000005
 30
0.0
 10
-1.75753
 20
4.2336100000000005
 30
0.0
 10
-1.75753
 20
4.2336100000000005
 30
0.0
 10
-1.6838700000000002
 20
4.2056700000000005
 30
0.0
 10
-1.71435
 20
4.3758500000000007
 30
0.0
 10
-1.6635500000000001
 20
4.4164900000000005
 30
0.0
 10
-1.6635500000000001
 20
4.4164900000000005
 30
0.0
 10
-1.4832100000000001
 20
3.8957900000000003
 30
0.0
 10
-1.5136900000000002
 20
3.2785700000000002
 30
0.0
 10
-1.1530100000000001
 20
2.8416900000000003
 30
0.0
 10
-1.1530100000000001
 20
2.8416900000000003
 30
0.0
 10
-1.1530100000000001
 20
2.8416900000000003
 30
0.0
 10
-0.9980700000000001
 20
2.9128100000000003
 30
0.0
 10
-0.9980700000000001
 20
2.9128100000000003
 30
0.0
 10
-0.9980700000000001
 20
2.9128100000000003
 30
0.0
 10
-0.9980700000000001
 20
2.9128100000000003
 30
0.0
 10
-0.92949
 20
2.9128100000000003
 30
0.0
 10
-0.92949
 20
2.9128100000000003
 30
0.0
 10
-0.92949
 20
2.9128100000000003
 30
0.0
 10
-0.92949
 20
2.9128100000000003
 30
0.0
 10
-0.63739
 20
2.9255100000000001
 30
0.0
 10
-0.63739
 20
2.9255100000000001
 30
0.0
 10
-0.63739
 20
2.9255100000000001
 30
0.0
 10
-0.7923300000000001
 20
2.9839300000000004
 30
0.0
 10
-0.9853700000000001
 20
2.9128100000000003
 30
0.0
 10
-1.1352300000000002
 20
3.01187
 30
0.0
 10
-1.1352300000000002
 20
3.01187
 30
0.0
 10
-0.5408700000000001
 20
3.4462100000000002
 30
0.0
 10
0.3989200000000001
 20
3.4030300000000002
 30
0.0
 10
0.9247000000000001
 20
2.8696300000000003
 30
0.0
 10
0.9247000000000001
 20
2.8696300000000003
 30
0.0
 10
1.2269600000000001
 20
3.3903300000000001
 30
0.0
 10
2.71794
 20
2.6308700000000003
 30
0.0
 10
2.5274400000000004
 20
2.01111
 30
0.0
 10
2.5274400000000004
 20
2.01111
 30
0.0
 10
2.6925400000000002
 20
2.1457300000000004
 30
0.0
 10
2.9389200000000004
 20
2.5572100000000004
 30
0.0
 10
2.9897200000000002
 20
2.21685
 30
0.0
 10
2.9897200000000002
 20
2.21685
 30
0.0
 10
3.0633800000000004
 20
2.51403
 30
0.0
 10
3.2208600000000001
 20
3.7408500000000005
 30
0.0
 10
3.3250000000000002
 20
3.01187
 30
0.0
 10
3.3250000000000002
 20
3.01187
 30
0.0
 10
3.3935800000000005
 20
3.4462100000000002
 30
0.0
 10
3.3453200000000001
 20
3.9516700000000005
 30
0.0
 10
3.4520000000000004
 20
4.34537
 30
0.0
 10
3.4520000000000004
 20
4.34537
 30
0.0
 10
3.8736400000000004
 20
3.2887300000000002
 30
0.0
 10
3.5180400000000005
 20
2.37941
 30
0.0
 10
3.2157800000000001
 20
1.4396100000000001
 30
0.0
 10
3.2157800000000001
 20
1.4396100000000001
 30
0.0
 10
3.0862400000000001
 20
1.0382900000000002
 30
0.0
 10
2.7357200000000002
 20
0.8655700000000001
 30
0.0
 10
2.8957400000000004
 20
0.21787
 30
0.0
 10
2.8957400000000004
 20
0.21787
 30
0.0
 10
2.8957400000000004
 20
0.21787
 30
0.0
 10
2.9770200000000004
 20
0.59379
 30
0.0
 10
2.9770200000000004
 20
0.59379
 30
0.0
 10
2.9770200000000004
 20
0.59379
 30
0.0
 10
3.0989400000000002
 20
0.9214500000000001
 30
0.0
 10
3.1599000000000004
 20
0.65729
 30
0.0
 10
3.0913200000000001
 20
0.34233
 30
0.0
 10
3.0913200000000001
 20
0.34233
 30
0.0
 10
2.9846400000000002
 20
0.00705
 30
0.0
 10
2.9211400000000003
 20
-0.32568
 30
0.0
 10
2.9033600000000002
 20
-0.6838200000000001
 30
0.0
 10
2.9033600000000002
 20
-0.6838200000000001
 30
0.0
 10
2.8982800000000002
 20
-0.7498600000000001
 30
0.0
 10
2.8017600000000003
 20
-0.8921000000000001
 30
0.0
 10
2.9490800000000004
 20
-0.90734
 30
0.0
 10
2.9490800000000004
 20
-0.90734
 30
0.0
 10
3.0278200000000002
 20
-0.5390400000000001
 30
0.0
 10
3.2894400000000004
 20
-1.0114800000000002
 30
0.0
 10
3.1700600000000003
 20
-1.2426200000000001
 30
0.0
 10
3.1700600000000003
 20
-1.2426200000000001
 30
0.0
 10
3.1116400000000004
 20
-1.2756400000000001
 30
0.0
 10
2.8601800000000002
 20
-1.4102600000000001
 30
0.0
 10
2.7535000000000003
 20
-1.3823200000000002
 30
0.0
 10
2.7535000000000003
 20
-1.3823200000000002
 30
0.0
 10
2.5960200000000002
 20
-1.3391400000000002
 30
0.0
 10
2.5757000000000003
 20
-1.12324
 30
0.0
 10
2.4868000000000001
 20
-1.20452
 30
0.0
 10
2.4868000000000001
 20
-1.20452
 30
0.0
 10
2.0270600000000001
 20
-1.6363200000000002
 30
0.0
 10
1.7070200000000002
 20
-1.3467600000000002
 30
0.0
 10
1.5978000000000001
 20
-0.8946400000000001
 30
0.0
 10
1.5978000000000001
 20
-0.8946400000000001
 30
0.0
 10
1.40222
 20
-0.82098
 30
0.0
 10
1.5724
 20
-1.1486400000000001
 30
0.0
 10
1.5647800000000001
 20
-1.25024
 30
0.0
 10
1.5647800000000001
 20
-1.25024
 30
0.0
 10
1.5216000000000001
 20
-1.6922000000000001
 30
0.0
 10
1.2930000000000001
 20
-1.8217400000000001
 30
0.0
 10
1.2498200000000002
 20
-1.5499600000000002
 30
0.0
 10
1.2498200000000002
 20
-1.5499600000000002
 30
0.0
 10
1.23458
 20
-1.4407400000000001
 30
0.0
 10
1.0263
 20
-1.8496800000000002
 30
0.0
 10
0.9018400000000001
 20
-1.9589000000000001
 30
0.0
 10
0.9018400000000001
 20
-1.9589000000000001
 30
0.0
 10
0.9018400000000001
 20
-1.9589000000000001
 30
0.0
 10
0.86882
 20
-1.83952
 30
0.0
 10
0.86882
 20
-1.83952
 30
0.0
 10
0.86882
 20
-1.83952
 30
0.0
 10
0.86882
 20
-1.83952
 30
0.0
 10
0.9450200000000001
 20
-1.5144000000000002
 30
0.0
 10
0.9450200000000001
 20
-1.5144000000000002
 30
0.0
 10
0.9450200000000001
 20
-1.5144000000000002
 30
0.0
 10
0.9450200000000001
 20
-1.5144000000000002
 30
0.0
 10
0.8408800000000001
 20
-1.5728200000000001
 30
0.0
 10
0.8408800000000001
 20
-1.5728200000000001
 30
0.0
 10
0.8408800000000001
 20
-1.5728200000000001
 30
0.0
 10
0.8586600000000001
 20
-1.7785600000000001
 30
0.0
 10
0.6503800000000001
 20
-2.0833600000000003
 30
0.0
 10
0.64022
 20
-1.7684000000000002
 30
0.0
 10
0.64022
 20
-1.7684000000000002
 30
0.0
 10
0.4522600000000001
 20
-2.2408400000000004
 30
0.0
 10
0.44464
 20
-1.7836400000000001
 30
0.0
 10
0.4167
 20
-1.5017
 30
0.0
 10
0.4167
 20
-1.5017
 30
0.0
 10
0.28462
 20
-1.7684000000000002
 30
0.0
 10
-0.00747
 20
-1.3442200000000002
 30
0.0
 10
-0.05319
 20
-1.9436600000000002
 30
0.0
 10
-0.05319
 20
-1.9436600000000002
 30
0.0
 10
-0.09891
 20
-1.8598400000000002
 30
0.0
 10
-0.10399
 20
-1.7684000000000002
 30
0.0
 10
-0.10145
 20
-1.66934
 30
0.0
 10
-0.10145
 20
-1.66934
 30
0.0
 10
-0.32751
 20
-1.9081000000000001
 30
0.0
 10
-0.27163
 20
-1.6769600000000002
 30
0.0
 10
-0.22845
 20
-1.4686800000000002
 30
0.0
 10
-0.22845
 20
-1.4686800000000002
 30
0.0
 10
-0.20813
 20
-1.3670800000000001
 30
0.0
 10
-0.12939
 20
-1.2629400000000002
 30
0.0
 10
-0.20305
 20
-1.2324600000000001
 30
0.0
  0
SPLINE
  5
29
100
AcDbEntity
  8
Ebene 1
100
AcDbSpline
210
0.0
220
0.0
230
1.0
 70
     1
 71
     3
 72
    20
 73
    16
 74
     0
 42
0.0000000001
 43
0.0000000001
 40
0.0
 40
0.0
 40
0.0
 40
0.0
 40
0.25
 40
0.25
 40
0.25
 40
0.25
 40
0.5
 40
0.5
 40
0.5
 40
0.5
 40
0.75
 40
0.75
 40
0.75
 40
0.75
 40
1.0
 40
1.0
 40
1.0
 40
1.0
 10
0.95264
 20
2.6461100000000002
 30
0.0
 10
1.02376
 20
2.63849
 30
0.0
 10
0.9653400000000001
 20
2.5064100000000002
 30
0.0
 10
1.06186
 20
2.5165700000000002
 30
0.0
 10
1.06186
 20
2.5165700000000002
 30
0.0
 10
1.06186
 20
2.5165700000000002
 30
0.0
 10
1.0644
 20
2.4911700000000003
 30
0.0
 10
1.0644
 20
2.4911700000000003
 30
0.0
 10
1.0644
 20
2.4911700000000003
 30
0.0
 10
0.89168
 20
2.4048100000000003
 30
0.0
 10
0.9628000000000001
 20
2.1609700000000003
 30
0.0
 10
0.8866000000000001
 20
2.0161900000000004
 30
0.0
 10
0.8866000000000001
 20
2.0161900000000004
 30
0.0
 10
0.8866000000000001
 20
2.0161900000000004
 30
0.0
 10
0.95264
 20
2.6461100000000002
 30
0.0
 10
0.95264
 20
2.6461100000000002
 30
0.0
  0
SPLINE
  5
2A
100
AcDbEntity
  8
Ebene 1
100
AcDbSpline
210
0.0
220
0.0
230
1.0
 70
     1
 71
     3
 72
    20
 73
    16
 74
     0
 42
0.0000000001
 43
0.0000000001
 40
0.0
 40
0.0
 40
0.0
 40
0.0
 40
0.25
 40
0.25
 40
0.25
 40
0.25
 40
0.5
 40
0.5
 40
0.5
 40
0.5
 40
0.75
 40
0.75
 40
0.75
 40
0.75
 40
1.0
 40
1.0
 40
1.0
 40
1.0
 10
-0.6043700000000001
 20
2.3082900000000004
 30
0.0
 10
-0.19289
 20
2.0949300000000002
 30
0.0
 10
0.24652
 20
1.8282300000000002
 30
0.0
 10
0.38622
 20
1.3557900000000001
 30
0.0
 10
0.38622
 20
1.3557900000000001
 30
0.0
 10
0.38622
 20
1.3557900000000001
 30
0.0
 10
0.33796
 20
1.3557900000000001
 30
0.0
 10
0.33796
 20
1.3557900000000001
 30
0.0
 10
0.33796
 20
1.3557900000000001
 30
0.0
 10
0.14746
 20
1.7469500000000002
 30
0.0
 10
-0.22591
 20
2.0263500000000003
 30
0.0
 10
-0.5865900000000001
 20
2.2422500000000003
 30
0.0
 10
-0.5865900000000001
 20
2.2422500000000003
 30
0.0
 10
-0.61199
 20
2.25495
 30
0.0
 10
-0.6043700000000001
 20
2.2854300000000003
 30
0.0
 10
-0.6043700000000001
 20
2.3082900000000004
 30
0.0
  0
SPLINE
  5
2B
100
AcDbEntity
  8
Ebene 1
100
AcDbSpline
210
0.0
220
0.0
230
1.0
 70
     1
 71
     3
 72
    20
 73
    16
 74
     0
 42
0.0000000001
 43
0.0000000001
 40
0.0
 40
0.0
 40
0.0
 40
0.0
 40
0.25
 40
0.25
 40
0.25
 40
0.25
 40
0.5
 40
0.5
 40
0.5
 40
0.5
 40
0.75
 40
0.75
 40
0.75
 40
0.75
 40
1.0
 40
1.0
 40
1.0
 40
1.0
 10
3.1599000000000004
 20
2.2651100000000004
 30
0.0
 10
3.1903800000000002
 20
2.2752700000000003
 30
0.0
 10
3.2107000000000001
 20
2.25495
 30
0.0
 10
3.2030800000000004
 20
2.2244700000000002
 30
0.0
 10
3.2030800000000004
 20
2.2244700000000002
 30
0.0
 10
3.0481400000000001
 20
1.8714100000000002
 30
0.0
 10
2.7738200000000002
 20
1.53105
 30
0.0
 10
2.8093800000000004
 20
1.1398900000000001
 30
0.0
 10
2.8093800000000004
 20
1.1398900000000001
 30
0.0
 10
2.7433400000000003
 20
1.2262500000000001
 30
0.0
 10
2.7408000000000001
 20
1.3888100000000001
 30
0.0
 10
2.7103200000000003
 20
1.5056500000000002
 30
0.0
 10
2.7103200000000003
 20
1.5056500000000002
 30
0.0
 10
2.8652600000000001
 20
1.7571100000000002
 30
0.0
 10
3.0405200000000003
 20
1.9958700000000003
 30
0.0
 10
3.1599000000000004
 20
2.2651100000000004
 30
0.0
  0
SPLINE
  5
2C
100
AcDbEntity
  8
Ebene 1
100
AcDbSpline
210
0.0
220
0.0
230
1.0
 70
     1
 71
     3
 72
    64
 73
    60
 74
     0
 42
0.0000000001
 43
0.0000000001
 40
0.0
 40
0.0
 40
0.0
 40
0.0
 40
0.0666666666666667
 40
0.0666666666666667
 40
0.0666666666666667
 40
0.0666666666666667
 40
0.1333333333333333
 40
0.1333333333333333
 40
0.1333333333333333
 40
0.1333333333333333
 40
0.2
 40
0.2
 40
0.2
 40
0.2
 40
0.2666666666666667
 40
0.2666666666666667
 40
0.2666666666666667
 40
0.2666666666666667
 40
0.3333333333333333
 40
0.3333333333333333
 40
0.3333333333333333
 40
0.3333333333333333
 40
0.4
 40
0.4
 40
0.4
 40
0.4
 40
0.4666666666666666
 40
0.4666666666666666
 40
0.4666666666666666
 40
0.4666666666666666
 40
0.5333333333333333
 40
0.5333333333333333
 40
0.5333333333333333
 40
0.5333333333333333
 40
0.6
 40
0.6
 40
0.6
 40
0.6
 40
0.6666666666666666
 40
0.6666666666666666
 40
0.6666666666666666
 40
0.6666666666666666
 40
0.7333333333333333
 40
0.7333333333333333
 40
0.7333333333333333
 40
0.7333333333333333
 40
0.7999999999999999
 40
0.7999999999999999
 40
0.7999999999999999
 40
0.7999999999999999
 40
0.8666666666666666
 40
0.8666666666666666
 40
0.8666666666666666
 40
0.8666666666666666
 40
0.9333333333333332
 40
0.9333333333333332
 40
0.9333333333333332
 40
0.9333333333333332
 40
1.0
 40
1.0
 40
1.0
 40
1.0
 10
-1.29525
 20
2.1812900000000002
 30
0.0
 10
-1.25461
 20
2.0466700000000002
 30
0.0
 10
-1.4501900000000001
 20
1.6580500000000002
 30
0.0
 10
-1.12507
 20
1.6047100000000001
 30
0.0
 10
-1.12507
 20
1.6047100000000001
 30
0.0
 10
-1.07681
 20
1.73933
 30
0.0
 10
-1.00569
 20
1.9222100000000002
 30
0.0
 10
-0.84567
 20
1.9679300000000002
 30
0.0
 10
-0.84567
 20
1.9679300000000002
 30
0.0
 10
-1.1174500000000001
 20
1.8180700000000001
 30
0.0
 10
-0.9218700000000001
 20
1.2186300000000001
 30
0.0
 10
-0.7059700000000001
 20
1.5183500000000001
 30
0.0
 10
-0.7059700000000001
 20
1.5183500000000001
 30
0.0
 10
-0.7059700000000001
 20
1.5183500000000001
 30
0.0
 10
-0.7466100000000001
 20
1.3938900000000001
 30
0.0
 10
-0.7466100000000001
 20
1.3938900000000001
 30
0.0
 10
-0.7466100000000001
 20
1.3938900000000001
 30
0.0
 10
-0.5002300000000001
 20
1.06623
 30
0.0
 10
-0.11923
 20
0.63951
 30
0.0
 10
0.32018
 20
0.6903100000000001
 30
0.0
 10
0.32018
 20
0.6903100000000001
 30
0.0
 10
0.33796
 20
0.68269
 30
0.0
 10
0.34812
 20
0.6547500000000001
 30
0.0
 10
0.34812
 20
0.6344300000000001
 30
0.0
 10
0.34812
 20
0.6344300000000001
 30
0.0
 10
-0.27925
 20
0.53029
 30
0.0
 10
-0.8761500000000001
 20
0.21533
 30
0.0
 10
-1.3587500000000001
 20
-0.20122
 30
0.0
 10
-1.3587500000000001
 20
-0.20122
 30
0.0
 10
-1.3587500000000001
 20
-0.20122
 30
0.0
 10
-1.3155700000000001
 20
-0.03104
 30
0.0
 10
-1.3155700000000001
 20
-0.03104
 30
0.0
 10
-1.3155700000000001
 20
-0.03104
 30
0.0
 10
-1.3155700000000001
 20
-0.03104
 30
0.0
 10
-1.0590300000000001
 20
0.2737500000000001
 30
0.0
 10
-1.0590300000000001
 20
0.2737500000000001
 30
0.0
 10
-1.0590300000000001
 20
0.2737500000000001
 30
0.0
 10
-1.4959100000000001
 20
0.37789
 30
0.0
 10
-1.3435100000000002
 20
0.7817500000000001
 30
0.0
 10
-1.5771900000000001
 20
1.06877
 30
0.0
 10
-1.5771900000000001
 20
1.06877
 30
0.0
 10
-1.6330700000000002
 20
1.06877
 30
0.0
 10
-1.6889500000000002
 20
0.9646300000000001
 30
0.0
 10
-1.7448300000000001
 20
1.0154300000000001
 30
0.0
 10
-1.7448300000000001
 20
1.0154300000000001
 30
0.0
 10
-1.6152900000000001
 20
1.2110100000000001
 30
0.0
 10
-1.3054100000000002
 20
1.2897500000000002
 30
0.0
 10
-1.0996700000000001
 20
1.4269100000000001
 30
0.0
 10
-1.0996700000000001
 20
1.4269100000000001
 30
0.0
 10
-1.12761
 20
1.56915
 30
0.0
 10
-1.6432300000000002
 20
1.19069
 30
0.0
 10
-1.41717
 20
1.4192900000000002
 30
0.0
 10
-1.41717
 20
1.4192900000000002
 30
0.0
 10
-1.41717
 20
1.4192900000000002
 30
0.0
 10
-1.25461
 20
1.52597
 30
0.0
 10
-1.25461
 20
1.52597
 30
0.0
 10
-1.25461
 20
1.52597
 30
0.0
 10
-1.5136900000000002
 20
1.6428100000000001
 30
0.0
 10
-1.4527300000000001
 20
1.9958700000000003
 30
0.0
 10
-1.29525
 20
2.1812900000000002
 30
0.0
  0
SPLINE
  5
2D
100
AcDbEntity
  8
Ebene 1
100
AcDbSpline
210
0.0
220
0.0
230
1.0
 70
     1
 71
     3
 72
    56
 73
    52
 74
     0
 42
0.0000000001
 43
0.0000000001
 40
0.0
 40
0.0
 40
0.0
 40
0.0
 40
0.0769230769230769
 40
0.0769230769230769
 40
0.0769230769230769
 40
0.0769230769230769
 40
0.1538461538461539
 40
0.1538461538461539
 40
0.1538461538461539
 40
0.1538461538461539
 40
0.2307692307692308
 40
0.2307692307692308
 40
0.2307692307692308
 40
0.2307692307692308
 40
0.3076923076923077
 40
0.3076923076923077
 40
0.3076923076923077
 40
0.3076923076923077
 40
0.3846153846153846
 40
0.3846153846153846
 40
0.3846153846153846
 40
0.3846153846153846
 40
0.4615384615384616
 40
0.4615384615384616
 40
0.4615384615384616
 40
0.4615384615384616
 40
0.5384615384615386
 40
0.5384615384615386
 40
0.5384615384615386
 40
0.5384615384615386
 40
0.6153846153846154
 40
0.6153846153846154
 40
0.6153846153846154
 40
0.6153846153846154
 40
0.6923076923076923
 40
0.6923076923076923
 40
0.6923076923076923
 40
0.6923076923076923
 40
0.7692307692307692
 40
0.7692307692307692
 40
0.7692307692307692
 40
0.7692307692307692
 40
0.846153846153846
 40
0.846153846153846
 40
0.846153846153846
 40
0.846153846153846
 40
0.9230769230769229
 40
0.9230769230769229
 40
0.9230769230769229
 40
0.9230769230769229
 40
1.0
 40
1.0
 40
1.0
 40
1.0
 10
2.1464400000000001
 20
1.6199500000000002
 30
0.0
 10
2.2988400000000002
 20
1.48533
 30
0.0
 10
2.2277200000000001
 20
1.2592700000000001
 30
0.0
 10
2.13374
 20
1.11449
 30
0.0
 10
2.13374
 20
1.11449
 30
0.0
 10
2.3674200000000001
 20
1.0509900000000001
 30
0.0
 10
2.4969600000000001
 20
0.7715900000000001
 30
0.0
 10
2.5960200000000002
 20
0.5683900000000001
 30
0.0
 10
2.5960200000000002
 20
0.5683900000000001
 30
0.0
 10
2.5960200000000002
 20
0.5683900000000001
 30
0.0
 10
2.3217000000000003
 20
0.80715
 30
0.0
 10
2.3217000000000003
 20
0.80715
 30
0.0
 10
2.3217000000000003
 20
0.80715
 30
0.0
 10
2.3217000000000003
 20
0.80715
 30
0.0
 10
2.2785200000000003
 20
0.8427100000000001
 30
0.0
 10
2.2785200000000003
 20
0.8427100000000001
 30
0.0
 10
2.2785200000000003
 20
0.8427100000000001
 30
0.0
 10
2.3750400000000003
 20
0.5683900000000001
 30
0.0
 10
2.6392000000000002
 20
0.26613
 30
0.0
 10
2.4817200000000001
 20
-0.03358
 30
0.0
 10
2.4817200000000001
 20
-0.03358
 30
0.0
 10
2.2861400000000001
 20
-0.20376
 30
0.0
 10
2.0118200000000002
 20
-0.21646
 30
0.0
 10
1.8111600000000001
 20
-0.36124
 30
0.0
 10
1.8111600000000001
 20
-0.36124
 30
0.0
 10
1.8111600000000001
 20
-0.36124
 30
0.0
 10
1.8619600000000001
 20
-0.41204
 30
0.0
 10
1.8619600000000001
 20
-0.41204
 30
0.0
 10
1.8619600000000001
 20
-0.41204
 30
0.0
 10
1.8619600000000001
 20
-0.41204
 30
0.0
 10
1.8111600000000001
 20
-0.4171200000000001
 30
0.0
 10
1.8111600000000001
 20
-0.4171200000000001
 30
0.0
 10
1.8111600000000001
 20
-0.4171200000000001
 30
0.0
 10
1.4530200000000002
 20
-0.15804
 30
0.0
 10
1.3488800000000001
 20
0.4007500000000001
 30
0.0
 10
0.8866000000000001
 20
0.5404500000000001
 30
0.0
 10
0.8866000000000001
 20
0.5404500000000001
 30
0.0
 10
0.8535800000000001
 20
0.58109
 30
0.0
 10
0.7951600000000001
 20
0.62173
 30
0.0
 10
0.8027800000000001
 20
0.6750700000000001
 30
0.0
 10
0.8027800000000001
 20
0.6750700000000001
 30
0.0
 10
1.11012
 20
0.46933
 30
0.0
 10
1.4809600000000001
 20
0.7538100000000001
 30
0.0
 10
1.5470000000000002
 20
1.0814700000000002
 30
0.0
 10
1.5470000000000002
 20
1.0814700000000002
 30
0.0
 10
1.6384400000000001
 20
1.0865500000000001
 30
0.0
 10
1.56732
 20
0.9392300000000001
 30
0.0
 10
1.6181200000000002
 20
0.89351
 30
0.0
 10
1.6181200000000002
 20
0.89351
 30
0.0
 10
1.8924400000000001
 20
1.0332100000000002
 30
0.0
 10
2.2277200000000001
 20
1.2618100000000001
 30
0.0
 10
2.1464400000000001
 20
1.6199500000000002
 30
0.0
  0
SPLINE
  5
2E
100
AcDbEntity
  8
Ebene 1
100
AcDbSpline
210
0.0
220
0.0
230
1.0
 70
     1
 71
     3
 72
    28
 73
    24
 74
     0
 42
0.0000000001
 43
0.0000000001
 40
0.0
 40
0.0
 40
0.0
 40
0.0
 40
0.1666666666666667
 40
0.1666666666666667
 40
0.1666666666666667
 40
0.1666666666666667
 40
0.3333333333333333
 40
0.3333333333333333
 40
0.3333333333333333
 40
0.3333333333333333
 40
0.5
 40
0.5
 40
0.5
 40
0.5
 40
0.6666666666666666
 40
0.6666666666666666
 40
0.6666666666666666
 40
0.6666666666666666
 40
0.8333333333333333
 40
0.8333333333333333
 40
0.8333333333333333
 40
0.8333333333333333
 40
1.0
 40
1.0
 40
1.0
 40
1.0
 10
1.5571600000000001
 20
1.4370700000000001
 30
0.0
 10
1.5571600000000001
 20
1.4370700000000001
 30
0.0
 10
1.69432
 20
1.4345300000000001
 30
0.0
 10
1.69432
 20
1.4345300000000001
 30
0.0
 10
1.69432
 20
1.4345300000000001
 30
0.0
 10
1.5343000000000002
 20
1.3024500000000001
 30
0.0
 10
1.2803000000000002
 20
1.2922900000000002
 30
0.0
 10
1.0923400000000001
 20
1.1703700000000001
 30
0.0
 10
1.0923400000000001
 20
1.1703700000000001
 30
0.0
 10
1.0923400000000001
 20
1.1703700000000001
 30
0.0
 10
0.9983600000000001
 20
1.18815
 30
0.0
 10
0.9983600000000001
 20
1.18815
 30
0.0
 10
0.9983600000000001
 20
1.18815
 30
0.0
 10
0.9983600000000001
 20
1.18815
 30
0.0
 10
1.10504
 20
1.2440300000000002
 30
0.0
 10
1.10504
 20
1.2440300000000002
 30
0.0
 10
1.10504
 20
1.2440300000000002
 30
0.0
 10
1.10504
 20
1.2440300000000002
 30
0.0
 10
1.27522
 20
1.3253100000000002
 30
0.0
 10
1.27522
 20
1.3253100000000002
 30
0.0
 10
1.27522
 20
1.3253100000000002
 30
0.0
 10
1.27522
 20
1.3253100000000002
 30
0.0
 10
1.5571600000000001
 20
1.4370700000000001
 30
0.0
 10
1.5571600000000001
 20
1.4370700000000001
 30
0.0
  0
SPLINE
  5
2F
100
AcDbEntity
  8
Ebene 1
100
AcDbSpline
210
0.0
220
0.0
230
1.0
 70
     1
 71
     3
 72
    12
 73
     8
 74
     0
 42
0.0000000001
 43
0.0000000001
 40
0.0
 40
0.0
 40
0.0
 40
0.0
 40
0.5
 40
0.5
 40
0.5
 40
0.5
 40
1.0
 40
1.0
 40
1.0
 40
1.0
 10
0.4192400000000001
 20
1.23895
 30
0.0
 10
0.4725800000000001
 20
1.2160900000000001
 30
0.0
 10
0.57164
 20
1.2110100000000001
 30
0.0
 10
0.5843400000000001
 20
1.14497
 30
0.0
 10
0.5843400000000001
 20
1.14497
 30
0.0
 10
0.51068
 20
1.1221100000000002
 30
0.0
 10
0.42686
 20
1.1652900000000002
 30
0.0
 10
0.4192400000000001
 20
1.23895
 30
0.0
  0
SPLINE
  5
30
100
AcDbEntity
  8
Ebene 1
100
AcDbSpline
210
0.0
220
0.0
230
1.0
 70
     1
 71
     3
 72
    24
 73
    20
 74
     0
 42
0.0000000001
 43
0.0000000001
 40
0.0
 40
0.0
 40
0.0
 40
0.0
 40
0.2
 40
0.2
 40
0.2
 40
0.2
 40
0.4
 40
0.4
 40
0.4
 40
0.4
 40
0.6000000000000001
 40
0.6000000000000001
 40
0.6000000000000001
 40
0.6000000000000001
 40
0.8
 40
0.8
 40
0.8
 40
0.8
 40
1.0
 40
1.0
 40
1.0
 40
1.0
 10
0.6707000000000001
 20
1.02813
 30
0.0
 10
0.71896
 20
0.9392300000000001
 30
0.0
 10
0.6732400000000001
 20
0.78429
 30
0.0
 10
0.64022
 20
0.68015
 30
0.0
 10
0.64022
 20
0.68015
 30
0.0
 10
0.6097400000000001
 20
0.65983
 30
0.0
 10
0.6046600000000001
 20
0.6953900000000001
 30
0.0
 10
0.5868800000000001
 20
0.70555
 30
0.0
 10
0.5868800000000001
 20
0.70555
 30
0.0
 10
0.5868800000000001
 20
0.70555
 30
0.0
 10
0.5056000000000001
 20
0.7106300000000001
 30
0.0
 10
0.5056000000000001
 20
0.7106300000000001
 30
0.0
 10
0.5056000000000001
 20
0.7106300000000001
 30
0.0
 10
0.5056000000000001
 20
0.7106300000000001
 30
0.0
 10
0.5056000000000001
 20
0.74619
 30
0.0
 10
0.5056000000000001
 20
0.74619
 30
0.0
 10
0.5056000000000001
 20
0.74619
 30
0.0
 10
0.6097400000000001
 20
0.8147700000000001
 30
0.0
 10
0.6249800000000001
 20
0.9265300000000001
 30
0.0
 10
0.6707000000000001
 20
1.02813
 30
0.0
  0
SPLINE
  5
31
100
AcDbEntity
  8
Ebene 1
100
AcDbSpline
210
0.0
220
0.0
230
1.0
 70
     1
 71
     3
 72
    24
 73
    20
 74
     0
 42
0.0000000001
 43
0.0000000001
 40
0.0
 40
0.0
 40
0.0
 40
0.0
 40
0.2
 40
0.2
 40
0.2
 40
0.2
 40
0.4
 40
0.4
 40
0.4
 40
0.4
 40
0.6000000000000001
 40
0.6000000000000001
 40
0.6000000000000001
 40
0.6000000000000001
 40
0.8
 40
0.8
 40
0.8
 40
0.8
 40
1.0
 40
1.0
 40
1.0
 40
1.0
 10
-2.2782300000000002
 20
0.9290700000000001
 30
0.0
 10
-2.2350500000000002
 20
0.9443100000000001
 30
0.0
 10
-2.2096500000000003
 20
0.9189100000000001
 30
0.0
 10
-2.22235
 20
0.87319
 30
0.0
 10
-2.22235
 20
0.87319
 30
0.0
 10
-2.2680700000000003
 20
0.76397
 30
0.0
 10
-2.3442700000000003
 20
0.65983
 30
0.0
 10
-2.3468100000000001
 20
0.53537
 30
0.0
 10
-2.3468100000000001
 20
0.53537
 30
0.0
 10
-2.2833100000000002
 20
0.35503
 30
0.0
 10
-2.10297
 20
0.22041
 30
0.0
 10
-2.0572500000000002
 20
0.03499
 30
0.0
 10
-2.0572500000000002
 20
0.03499
 30
0.0
 10
-2.2172700000000001
 20
0.24835
 30
0.0
 10
-2.5703300000000002
 20
0.53029
 30
0.0
 10
-2.3214100000000002
 20
0.80715
 30
0.0
 10
-2.3214100000000002
 20
0.80715
 30
0.0
 10
-2.3214100000000002
 20
0.80715
 30
0.0
 10
-2.2782300000000002
 20
0.9290700000000001
 30
0.0
 10
-2.2782300000000002
 20
0.9290700000000001
 30
0.0
  0
SPLINE
  5
32
100
AcDbEntity
  8
Ebene 1
100
AcDbSpline
210
0.0
220
0.0
230
1.0
 70
     1
 71
     3
 72
    80
 73
    76
 74
     0
 42
0.0000000001
 43
0.0000000001
 40
0.0
 40
0.0
 40
0.0
 40
0.0
 40
0.0526315789473684
 40
0.0526315789473684
 40
0.0526315789473684
 40
0.0526315789473684
 40
0.1052631578947368
 40
0.1052631578947368
 40
0.1052631578947368
 40
0.1052631578947368
 40
0.1578947368421053
 40
0.1578947368421053
 40
0.1578947368421053
 40
0.1578947368421053
 40
0.2105263157894737
 40
0.2105263157894737
 40
0.2105263157894737
 40
0.2105263157894737
 40
0.2631578947368421
 40
0.2631578947368421
 40
0.2631578947368421
 40
0.2631578947368421
 40
0.3157894736842105
 40
0.3157894736842105
 40
0.3157894736842105
 40
0.3157894736842105
 40
0.3684210526315789
 40
0.3684210526315789
 40
0.3684210526315789
 40
0.3684210526315789
 40
0.4210526315789474
 40
0.4210526315789474
 40
0.4210526315789474
 40
0.4210526315789474
 40
0.4736842105263158
 40
0.4736842105263158
 40
0.4736842105263158
 40
0.4736842105263158
 40
0.5263157894736842
 40
0.5263157894736842
 40
0.5263157894736842
 40
0.5263157894736842
 40
0.5789473684210527
 40
0.5789473684210527
 40
0.5789473684210527
 40
0.5789473684210527
 40
0.631578947368421
 40
0.631578947368421
 40
0.631578947368421
 40
0.631578947368421
 40
0.6842105263157894
 40
0.6842105263157894
 40
0.6842105263157894
 40
0.6842105263157894
 40
0.7368421052631577
 40
0.7368421052631577
 40
0.7368421052631577
 40
0.7368421052631577
 40
0.7894736842105261
 40
0.7894736842105261
 40
0.7894736842105261
 40
0.7894736842105261
 40
0.8421052631578945
 40
0.8421052631578945
 40
0.8421052631578945
 40
0.8421052631578945
 40
0.8947368421052628
 40
0.8947368421052628
 40
0.8947368421052628
 40
0.8947368421052628
 40
0.9473684210526312
 40
0.9473684210526312
 40
0.9473684210526312
 40
0.9473684210526312
 40
1.0
 40
1.0
 40
1.0
 40
1.0
 10
0.24906
 20
0.3270900000000001
 30
0.0
 10
0.33288
 20
0.3169300000000001
 30
0.0
 10
0.42178
 20
0.28645
 30
0.0
 10
0.45988
 20
0.21279
 30
0.0
 10
0.45988
 20
0.21279
 30
0.0
 10
0.55386
 20
0.22549
 30
0.0
 10
0.64276
 20
0.25851
 30
0.0
 10
0.7392800000000001
 20
0.22549
 30
0.0
 10
0.7392800000000001
 20
0.22549
 30
0.0
 10
0.9729600000000001
 20
-0.1555
 30
0.0
 10
1.0110600000000001
 20
-0.6254000000000001
 30
0.0
 10
0.9805800000000001
 20
-1.0622800000000001
 30
0.0
 10
0.9805800000000001
 20
-1.0622800000000001
 30
0.0
 10
0.912
 20
-1.04196
 30
0.0
 10
0.9831200000000001
 20
-0.9175000000000001
 30
0.0
 10
0.9424800000000001
 20
-0.8616200000000001
 30
0.0
 10
0.9424800000000001
 20
-0.8616200000000001
 30
0.0
 10
0.9272400000000001
 20
-0.7676400000000001
 30
0.0
 10
0.8358000000000001
 20
-0.65842
 30
0.0
 10
0.7265800000000001
 20
-0.6838200000000001
 30
0.0
 10
0.7265800000000001
 20
-0.6838200000000001
 30
0.0
 10
0.70372
 20
-0.6863600000000001
 30
0.0
 10
0.6757800000000001
 20
-0.6762
 30
0.0
 10
0.66054
 20
-0.7016000000000001
 30
0.0
 10
0.66054
 20
-0.7016000000000001
 30
0.0
 10
0.74436
 20
-1.0927600000000002
 30
0.0
 10
0.4522600000000001
 20
-0.3637800000000001
 30
0.0
 10
0.4167
 20
-0.69398
 30
0.0
 10
0.4167
 20
-0.69398
 30
0.0
 10
0.39638
 20
-0.9200400000000001
 30
0.0
 10
0.37606
 20
-0.8362200000000001
 30
0.0
 10
0.3913
 20
-0.65588
 30
0.0
 10
0.3913
 20
-0.65588
 30
0.0
 10
0.4090800000000001
 20
-0.36632
 30
0.0
 10
0.3532
 20
-0.09454
 30
0.0
 10
0.51322
 20
0.13913
 30
0.0
 10
0.51322
 20
0.13913
 30
0.0
 10
0.4802
 20
0.14167
 30
0.0
 10
0.4319400000000001
 20
0.15691
 30
0.0
 10
0.4090800000000001
 20
0.12643
 30
0.0
 10
0.4090800000000001
 20
0.12643
 30
0.0
 10
0.33796
 20
-0.219
 30
0.0
 10
0.12968
 20
-0.5111
 30
0.0
 10
-0.05827
 20
-0.8108200000000001
 30
0.0
 10
-0.05827
 20
-0.8108200000000001
 30
0.0
 10
-0.20305
 20
-1.12324
 30
0.0
 10
-0.14463
 20
-0.8413000000000001
 30
0.0
 10
-0.02779
 20
-0.6838200000000001
 30
0.0
 10
-0.02779
 20
-0.6838200000000001
 30
0.0
 10
-0.02779
 20
-0.6838200000000001
 30
0.0
 10
0.05094
 20
-0.5390400000000001
 30
0.0
 10
0.05094
 20
-0.5390400000000001
 30
0.0
 10
0.05094
 20
-0.5390400000000001
 30
0.0
 10
0.0484
 20
-0.4247400000000001
 30
0.0
 10
-0.36815
 20
-0.9149600000000001
 30
0.0
 10
-0.26401
 20
-0.6431800000000001
 30
0.0
 10
-0.26401
 20
-0.6431800000000001
 30
0.0
 10
-0.23607
 20
-0.6050800000000001
 30
0.0
 10
-0.05319
 20
-0.45268
 30
0.0
 10
-0.17003
 20
-0.4882400000000001
 30
0.0
 10
-0.17003
 20
-0.4882400000000001
 30
0.0
 10
-0.30465
 20
-0.5415800000000001
 30
0.0
 10
-0.37831
 20
-0.7143000000000001
 30
0.0
 10
-0.5180100000000001
 20
-0.73716
 30
0.0
 10
-0.5180100000000001
 20
-0.73716
 30
0.0
 10
-0.5180100000000001
 20
-0.73716
 30
0.0
 10
-0.36815
 20
-0.50348
 30
0.0
 10
-0.36815
 20
-0.50348
 30
0.0
 10
-0.36815
 20
-0.50348
 30
0.0
 10
-0.5637300000000001
 20
-0.4857
 30
0.0
 10
-0.71867
 20
-0.6254000000000001
 30
0.0
 10
-0.8126500000000001
 20
-0.7498600000000001
 30
0.0
 10
-0.8126500000000001
 20
-0.7498600000000001
 30
0.0
 10
-0.6627900000000001
 20
-0.24948
 30
0.0
 10
-0.22337
 20
0.13405
 30
0.0
 10
0.24906
 20
0.3270900000000001
 30
0.0
  0
SPLINE
  5
33
100
AcDbEntity
  8
Ebene 1
100
AcDbSpline
210
0.0
220
0.0
230
1.0
 70
     1
 71
     3
 72
    20
 73
    16
 74
     0
 42
0.0000000001
 43
0.0000000001
 40
0.0
 40
0.0
 40
0.0
 40
0.0
 40
0.25
 40
0.25
 40
0.25
 40
0.25
 40
0.5
 40
0.5
 40
0.5
 40
0.5
 40
0.75
 40
0.75
 40
0.75
 40
0.75
 40
1.0
 40
1.0
 40
1.0
 40
1.0
 10
2.8652600000000001
 20
-0.10724
 30
0.0
 10
2.8652600000000001
 20
-0.10724
 30
0.0
 10
2.8906600000000005
 20
-0.10978
 30
0.0
 10
2.8906600000000005
 20
-0.10978
 30
0.0
 10
2.8906600000000005
 20
-0.10978
 30
0.0
 10
2.9186000000000001
 20
-0.37648
 30
0.0
 10
2.7484200000000003
 20
-0.6406400000000001
 30
0.0
 10
2.50204
 20
-0.72192
 30
0.0
 10
2.50204
 20
-0.72192
 30
0.0
 10
2.50204
 20
-0.72192
 30
0.0
 10
2.50204
 20
-0.6711200000000001
 30
0.0
 10
2.50204
 20
-0.6711200000000001
 30
0.0
 10
2.50204
 20
-0.6711200000000001
 30
0.0
 10
2.6849200000000004
 20
-0.5212600000000001
 30
0.0
 10
2.7941400000000001
 20
-0.31806
 30
0.0
 10
2.8652600000000001
 20
-0.10724
 30
0.0
  0
SPLINE
  5
34
100
AcDbEntity
  8
Ebene 1
 62
     7
100
AcDbSpline
210
0.0
220
0.0
230
1.0
 70
     1
 71
     3
 72
   216
 73
   212
 74
     0
 42
0.0000000001
 43
0.0000000001
 40
0.0
 40
0.0
 40
0.0
 40
0.0
 40
0.0188679245283019
 40
0.0188679245283019
 40
0.0188679245283019
 40
0.0188679245283019
 40
0.0377358490566038
 40
0.0377358490566038
 40
0.0377358490566038
 40
0.0377358490566038
 40
0.0566037735849057
 40
0.0566037735849057
 40
0.0566037735849057
 40
0.0566037735849057
 40
0.0754716981132075
 40
0.0754716981132075
 40
0.0754716981132075
 40
0.0754716981132075
 40
0.0943396226415094
 40
0.0943396226415094
 40
0.0943396226415094
 40
0.0943396226415094
 40
0.1132075471698113
 40
0.1132075471698113
 40
0.1132075471698113
 40
0.1132075471698113
 40
0.1320754716981132
 40
0.1320754716981132
 40
0.1320754716981132
 40
0.1320754716981132
 40
0.1509433962264151
 40
0.1509433962264151
 40
0.1509433962264151
 40
0.1509433962264151
 40
0.169811320754717
 40
0.169811320754717
 40
0.169811320754717
 40
0.169811320754717
 40
0.1886792452830189
 40
0.1886792452830189
 40
0.1886792452830189
 40
0.1886792452830189
 40
0.2075471698113207
 40
0.2075471698113207
 40
0.2075471698113207
 40
0.2075471698113207
 40
0.2264150943396226
 40
0.2264150943396226
 40
0.2264150943396226
 40
0.2264150943396226
 40
0.2452830188679245
 40
0.2452830188679245
 40
0.2452830188679245
 40
0.2452830188679245
 40
0.2641509433962264
 40
0.2641509433962264
 40
0.2641509433962264
 40
0.2641509433962264
 40
0.2830188679245283
 40
0.2830188679245283
 40
0.2830188679245283
 40
0.2830188679245283
 40
0.3018867924528302
 40
0.3018867924528302
 40
0.3018867924528302
 40
0.3018867924528302
 40
0.3207547169811321
 40
0.3207547169811321
 40
0.3207547169811321
 40
0.3207547169811321
 40
0.3396226415094339
 40
0.3396226415094339
 40
0.3396226415094339
 40
0.3396226415094339
 40
0.3584905660377358
 40
0.3584905660377358
 40
0.3584905660377358
 40
0.3584905660377358
 40
0.3773584905660377
 40
0.3773584905660377
 40
0.3773584905660377
 40
0.3773584905660377
 40
0.3962264150943396
 40
0.3962264150943396
 40
0.3962264150943396
 40
0.3962264150943396
 40
0.4150943396226415
 40
0.4150943396226415
 40
0.4150943396226415
 40
0.4150943396226415
 40
0.4339622641509434
 40
0.4339622641509434
 40
0.4339622641509434
 40
0.4339622641509434
 40
0.4528301886792452
 40
0.4528301886792452
 40
0.4528301886792452
 40
0.4528301886792452
 40
0.4716981132075471
 40
0.4716981132075471
 40
0.4716981132075471
 40
0.4716981132075471
 40
0.490566037735849
 40
0.490566037735849
 40
0.490566037735849
 40
0.490566037735849
 40
0.5094339622641509
 40
0.5094339622641509
 40
0.5094339622641509
 40
0.5094339622641509
 40
0.5283018867924528
 40
0.5283018867924528
 40
0.5283018867924528
 40
0.5283018867924528
 40
0.5471698113207547
 40
0.5471698113207547
 40
0.5471698113207547
 40
0.5471698113207547
 40
0.5660377358490566
 40
0.5660377358490566
 40
0.5660377358490566
 40
0.5660377358490566
 40
0.5849056603773585
 40
0.5849056603773585
 40
0.5849056603773585
 40
0.5849056603773585
 40
0.6037735849056604
 40
0.6037735849056604
 40
0.6037735849056604
 40
0.6037735849056604
 40
0.6226415094339622
 40
0.6226415094339622
 40
0.6226415094339622
 40
0.6226415094339622
 40
0.6415094339622641
 40
0.6415094339622641
 40
0.6415094339622641
 40
0.6415094339622641
 40
0.660377358490566
 40
0.660377358490566
 40
0.660377358490566
 40
0.660377358490566
 40
0.6792452830188679
 40
0.6792452830188679
 40
0.6792452830188679
 40
0.6792452830188679
 40
0.6981132075471698
 40
0.6981132075471698
 40
0.6981132075471698
 40
0.6981132075471698
 40
0.7169811320754717
 40
0.7169811320754717
 40
0.7169811320754717
 40
0.7169811320754717
 40
0.7358490566037735
 40
0.7358490566037735
 40
0.7358490566037735
 40
0.7358490566037735
 40
0.7547169811320754
 40
0.7547169811320754
 40
0.7547169811320754
 40
0.7547169811320754
 40
0.7735849056603773
 40
0.7735849056603773
 40
0.7735849056603773
 40
0.7735849056603773
 40
0.7924528301886792
 40
0.7924528301886792
 40
0.7924528301886792
 40
0.7924528301886792
 40
0.8113207547169811
 40
0.8113207547169811
 40
0.8113207547169811
 40
0.8113207547169811
 40
0.830188679245283
 40
0.830188679245283
 40
0.830188679245283
 40
0.830188679245283
 40
0.8490566037735848
 40
0.8490566037735848
 40
0.8490566037735848
 40
0.8490566037735848
 40
0.8679245283018867
 40
0.8679245283018867
 40
0.8679245283018867
 40
0.8679245283018867
 40
0.8867924528301886
 40
0.8867924528301886
 40
0.8867924528301886
 40
0.8867924528301886
 40
0.9056603773584905
 40
0.9056603773584905
 40
0.9056603773584905
 40
0.9056603773584905
 40
0.9245283018867924
 40
0.9245283018867924
 40
0.9245283018867924
 40
0.9245283018867924
 40
0.9433962264150942
 40
0.9433962264150942
 40
0.9433962264150942
 40
0.9433962264150942
 40
0.9622641509433961
 40
0.9622641509433961
 40
0.9622641509433961
 40
0.9622641509433961
 40
0.981132075471698
 40
0.981132075471698
 40
0.981132075471698
 40
0.981132075471698
 40
1.0
 40
1.0
 40
1.0
 40
1.0
 10
0.34304
 20
-4.3490400000000005
 30
0.0
 10
0.3557400000000001
 20
-4.2449000000000003
 30
0.0
 10
0.3684400000000001
 20
-4.1382200000000005
 30
0.0
 10
0.48528
 20
-4.1102800000000004
 30
0.0
 10
0.48528
 20
-4.1102800000000004
 30
0.0
 10
0.42686
 20
-3.9959800000000003
 30
0.0
 10
0.44464
 20
-3.8867600000000002
 30
0.0
 10
0.47512
 20
-3.7623000000000002
 30
0.0
 10
0.47512
 20
-3.7623000000000002
 30
0.0
 10
0.47512
 20
-3.7623000000000002
 30
0.0
 10
0.5208400000000001
 20
-3.5540200000000004
 30
0.0
 10
0.5208400000000001
 20
-3.5540200000000004
 30
0.0
 10
0.5208400000000001
 20
-3.5540200000000004
 30
0.0
 10
0.57164
 20
-3.6835600000000004
 30
0.0
 10
0.6021200000000001
 20
-3.8639000000000001
 30
0.0
 10
0.531
 20
-4.0010600000000007
 30
0.0
 10
0.531
 20
-4.0010600000000007
 30
0.0
 10
0.6224400000000001
 20
-4.3592000000000004
 30
0.0
 10
0.42178
 20
-4.7529000000000003
 30
0.0
 10
0.4090800000000001
 20
-5.1212000000000009
 30
0.0
 10
0.4090800000000001
 20
-5.1212000000000009
 30
0.0
 10
0.4675
 20
-5.0043600000000001
 30
0.0
 10
0.5259200000000001
 20
-4.8545000000000007
 30
0.0
 10
0.5564
 20
-4.7198800000000007
 30
0.0
 10
0.5564
 20
-4.7198800000000007
 30
0.0
 10
0.5564
 20
-4.7198800000000007
 30
0.0
 10
0.6122800000000001
 20
-4.2068000000000003
 30
0.0
 10
0.6122800000000001
 20
-4.2068000000000003
 30
0.0
 10
0.6122800000000001
 20
-4.2068000000000003
 30
0.0
 10
0.6122800000000001
 20
-4.2068000000000003
 30
0.0
 10
0.6478400000000001
 20
-3.9756600000000004
 30
0.0
 10
0.6478400000000001
 20
-3.9756600000000004
 30
0.0
 10
0.6478400000000001
 20
-3.9756600000000004
 30
0.0
 10
0.70118
 20
-4.0823400000000003
 30
0.0
 10
0.8358000000000001
 20
-4.0315400000000006
 30
0.0
 10
0.8815200000000001
 20
-3.9451800000000001
 30
0.0
 10
0.8815200000000001
 20
-3.9451800000000001
 30
0.0
 10
0.8815200000000001
 20
-3.9451800000000001
 30
0.0
 10
0.8408800000000001
 20
-4.1407600000000002
 30
0.0
 10
0.8408800000000001
 20
-4.1407600000000002
 30
0.0
 10
0.8408800000000001
 20
-4.1407600000000002
 30
0.0
 10
0.8815200000000001
 20
-4.4862000000000002
 30
0.0
 10
1.0313800000000002
 20
-3.0739600000000005
 30
0.0
 10
1.0796400000000002
 20
-3.6734000000000004
 30
0.0
 10
1.0796400000000002
 20
-3.6734000000000004
 30
0.0
 10
1.10504
 20
-4.1102800000000004
 30
0.0
 10
1.1634600000000002
 20
-3.5565600000000002
 30
0.0
 10
1.1787000000000001
 20
-3.4803600000000001
 30
0.0
 10
1.1787000000000001
 20
-3.4803600000000001
 30
0.0
 10
1.2980800000000001
 20
-3.3482800000000004
 30
0.0
 10
1.3412600000000001
 20
-3.4422600000000001
 30
0.0
 10
1.27522
 20
-3.5794200000000003
 30
0.0
 10
1.27522
 20
-3.5794200000000003
 30
0.0
 10
1.27522
 20
-3.5794200000000003
 30
0.0
 10
1.2472800000000002
 20
-3.7902400000000003
 30
0.0
 10
1.2472800000000002
 20
-3.7902400000000003
 30
0.0
 10
1.2472800000000002
 20
-3.7902400000000003
 30
0.0
 10
1.2803000000000002
 20
-3.9629600000000003
 30
0.0
 10
1.5368400000000002
 20
-2.7691600000000003
 30
0.0
 10
1.4911200000000002
 20
-3.4422600000000001
 30
0.0
 10
1.4911200000000002
 20
-3.4422600000000001
 30
0.0
 10
1.48604
 20
-3.4778200000000004
 30
0.0
 10
1.4708000000000001
 20
-3.6378400000000002
 30
0.0
 10
1.5190600000000001
 20
-3.5692600000000003
 30
0.0
 10
1.5190600000000001
 20
-3.5692600000000003
 30
0.0
 10
1.6282800000000002
 20
-2.86314
 30
0.0
 10
1.8264000000000002
 20
-2.1722600000000001
 30
0.0
 10
1.8010000000000002
 20
-1.4305800000000002
 30
0.0
 10
1.8010000000000002
 20
-1.4305800000000002
 30
0.0
 10
1.9965800000000002
 20
-1.5296400000000001
 30
0.0
 10
1.9051400000000001
 20
-1.7836400000000001
 30
0.0
 10
1.9381600000000001
 20
-1.9639800000000001
 30
0.0
 10
1.9381600000000001
 20
-1.9639800000000001
 30
0.0
 10
2.04738
 20
-2.7310600000000003
 30
0.0
 10
2.1058000000000003
 20
-1.1994400000000001
 30
0.0
 10
2.5376000000000003
 20
-1.4737600000000002
 30
0.0
 10
2.5376000000000003
 20
-1.4737600000000002
 30
0.0
 10
2.5376000000000003
 20
-1.4737600000000002
 30
0.0
 10
2.0499200000000002
 20
-2.5532600000000003
 30
0.0
 10
2.0499200000000002
 20
-2.5532600000000003
 30
0.0
 10
2.0499200000000002
 20
-2.5532600000000003
 30
0.0
 10
2.1007200000000004
 20
-2.7437600000000004
 30
0.0
 10
2.1464400000000001
 20
-2.3881600000000001
 30
0.0
 10
2.21502
 20
-2.3322800000000004
 30
0.0
 10
2.21502
 20
-2.3322800000000004
 30
0.0
 10
2.3318600000000003
 20
-3.2593800000000002
 30
0.0
 10
1.7476600000000002
 20
-3.9655000000000005
 30
0.0
 10
1.0974200000000001
 20
-4.56494
 30
0.0
 10
1.0974200000000001
 20
-4.56494
 30
0.0
 10
1.1304400000000001
 20
-4.7122600000000006
 30
0.0
 10
1.2447400000000002
 20
-4.4582600000000001
 30
0.0
 10
1.3285600000000002
 20
-4.44048
 30
0.0
 10
1.3285600000000002
 20
-4.44048
 30
0.0
 10
1.2117200000000001
 20
-4.7630600000000003
 30
0.0
 10
1.02122
 20
-5.3625000000000007
 30
0.0
 10
0.71896
 20
-5.3675800000000002
 30
0.0
 10
0.71896
 20
-5.3675800000000002
 30
0.0
 10
0.8027800000000001
 20
-5.5377600000000005
 30
0.0
 10
0.7519800000000001
 20
-5.7282600000000006
 30
0.0
 10
0.6275200000000001
 20
-5.8654200000000003
 30
0.0
 10
0.6275200000000001
 20
-5.8654200000000003
 30
0.0
 10
0.5818000000000001
 20
-5.7485800000000005
 30
0.0
 10
0.51576
 20
-5.5530000000000008
 30
0.0
 10
0.6122800000000001
 20
-5.4234600000000004
 30
0.0
 10
0.6122800000000001
 20
-5.4234600000000004
 30
0.0
 10
0.37098
 20
-5.5225200000000001
 30
0.0
 10
0.22874
 20
-5.4844200000000001
 30
0.0
 10
0.44464
 20
-5.3117000000000001
 30
0.0
 10
0.44464
 20
-5.3117000000000001
 30
0.0
 10
0.06618
 20
-5.3675800000000002
 30
0.0
 10
-0.33767
 20
-5.4717200000000004
 30
0.0
 10
-0.6297700000000001
 20
-5.6850800000000001
 30
0.0
 10
-0.6297700000000001
 20
-5.6850800000000001
 30
0.0
 10
-0.7262900000000001
 20
-5.5707800000000001
 30
0.0
 10
-0.8202700000000001
 20
-5.4895000000000005
 30
0.0
 10
-0.7491500000000001
 20
-5.3396400000000002
 30
0.0
 10
-0.7491500000000001
 20
-5.3396400000000002
 30
0.0
 10
-0.8431300000000001
 20
-5.3599600000000001
 30
0.0
 10
-0.8710700000000001
 20
-5.5352200000000007
 30
0.0
 10
-0.9802900000000001
 20
-5.5580800000000004
 30
0.0
 10
-0.9802900000000001
 20
-5.5580800000000004
 30
0.0
 10
-0.9802900000000001
 20
-5.5580800000000004
 30
0.0
 10
-1.2749300000000001
 20
-4.6919400000000007
 30
0.0
 10
-1.2749300000000001
 20
-4.6919400000000007
 30
0.0
 10
-1.2749300000000001
 20
-4.6919400000000007
 30
0.0
 10
-1.1784100000000002
 20
-4.7452800000000002
 30
0.0
 10
-1.1403100000000002
 20
-5.0043600000000001
 30
0.0
 10
-1.04125
 20
-4.9434000000000005
 30
0.0
 10
-1.04125
 20
-4.9434000000000005
 30
0.0
 10
-1.2825500000000001
 20
-4.5243000000000002
 30
0.0
 10
-1.5263900000000001
 20
-4.09504
 30
0.0
 10
-1.8565900000000002
 20
-3.7343600000000001
 30
0.0
 10
-1.8565900000000002
 20
-3.7343600000000001
 30
0.0
 10
-2.1385300000000003
 20
-3.4270200000000002
 30
0.0
 10
-2.2299700000000002
 20
-2.9672800000000001
 30
0.0
 10
-2.0521700000000003
 20
-2.60914
 30
0.0
 10
-2.0521700000000003
 20
-2.60914
 30
0.0
 10
-1.9683500000000003
 20
-2.6726400000000003
 30
0.0
 10
-2.0293100000000002
 20
-2.8352000000000004
 30
0.0
 10
-1.9708900000000003
 20
-2.8860000000000001
 30
0.0
 10
-1.9708900000000003
 20
-2.8860000000000001
 30
0.0
 10
-1.9581900000000001
 20
-2.5456400000000001
 30
0.0
 10
-2.0445500000000001
 20
-2.2256
 30
0.0
 10
-2.1055100000000002
 20
-1.9030200000000002
 30
0.0
 10
-2.1055100000000002
 20
-1.9030200000000002
 30
0.0
 10
-2.2147300000000003
 20
-1.6287
 30
0.0
 10
-2.4484100000000004
 20
-0.80574
 30
0.0
 10
-2.0420100000000003
 20
-1.33406
 30
0.0
 10
-2.0420100000000003
 20
-1.33406
 30
0.0
 10
-2.0420100000000003
 20
-1.33406
 30
0.0
 10
-1.9861300000000002
 20
-1.5144000000000002
 30
0.0
 10
-1.9861300000000002
 20
-1.5144000000000002
 30
0.0
 10
-1.9861300000000002
 20
-1.5144000000000002
 30
0.0
 10
-1.9861300000000002
 20
-1.5144000000000002
 30
0.0
 10
-1.8972300000000002
 20
-1.7099800000000001
 30
0.0
 10
-1.8972300000000002
 20
-1.7099800000000001
 30
0.0
 10
-1.8972300000000002
 20
-1.7099800000000001
 30
0.0
 10
-1.8235700000000001
 20
-1.7303000000000002
 30
0.0
 10
-1.8337300000000001
 20
-1.12324
 30
0.0
 10
-1.5771900000000001
 20
-0.9962400000000001
 30
0.0
 10
-1.5771900000000001
 20
-0.9962400000000001
 30
0.0
 10
-1.9988300000000001
 20
-1.9665200000000003
 30
0.0
 10
-1.9124700000000001
 20
-2.8910800000000001
 30
0.0
 10
-1.3943100000000002
 20
-3.8994600000000004
 30
0.0
 10
-1.3943100000000002
 20
-3.8994600000000004
 30
0.0
 10
-1.3943100000000002
 20
-3.8994600000000004
 30
0.0
 10
-1.4247900000000002
 20
-3.6657800000000003
 30
0.0
 10
-1.4247900000000002
 20
-3.6657800000000003
 30
0.0
 10
-1.4247900000000002
 20
-3.6657800000000003
 30
0.0
 10
-1.4095500000000001
 20
-3.5540200000000004
 30
0.0
 10
-1.3079500000000002
 20
-3.7673800000000002
 30
0.0
 10
-1.2825500000000001
 20
-3.8207200000000001
 30
0.0
 10
-1.2825500000000001
 20
-3.8207200000000001
 30
0.0
 10
-1.1504700000000001
 20
-4.1661600000000005
 30
0.0
 10
-1.00569
 20
-4.5319200000000004
 30
0.0
 10
-1.0691900000000001
 20
-4.0289999999999999
 30
0.0
 10
-1.0691900000000001
 20
-4.0289999999999999
 30
0.0
 10
-0.7923300000000001
 20
-3.8766000000000003
 30
0.0
 10
-0.80503
 20
-4.6259000000000006
 30
0.0
 10
-0.7466100000000001
 20
-4.5217600000000004
 30
0.0
 10
-0.7466100000000001
 20
-4.5217600000000004
 30
0.0
 10
-0.7466100000000001
 20
-4.5217600000000004
 30
0.0
 10
-0.75931
 20
-4.2550600000000003
 30
0.0
 10
-0.75931
 20
-4.2550600000000003
 30
0.0
 10
-0.75931
 20
-4.2550600000000003
 30
0.0
 10
-0.8355100000000001
 20
-4.0721800000000004
 30
0.0
 10
-0.6272300000000001
 20
-4.26776
 30
0.0
 10
-0.6196100000000001
 20
-4.1560000000000006
 30
0.0
 10
-0.6196100000000001
 20
-4.1560000000000006
 30
0.0
 10
-0.56881
 20
-3.9070800000000001
 30
0.0
 10
-0.39863
 20
-4.1890200000000002
 30
0.0
 10
-0.30973
 20
-4.3515800000000002
 30
0.0
 10
-0.30973
 20
-4.3515800000000002
 30
0.0
 10
-0.26147
 20
-4.2093400000000001
 30
0.0
 10
-0.04811
 20
-3.7597600000000004
 30
0.0
 10
0.02554
 20
-4.1839400000000007
 30
0.0
 10
0.02554
 20
-4.1839400000000007
 30
0.0
 10
0.08396
 20
-4.4379400000000002
 30
0.0
 10
0.05856
 20
-5.1085000000000003
 30
0.0
 10
0.13476
 20
-4.5039800000000003
 30
0.0
 10
0.13476
 20
-4.5039800000000003
 30
0.0
 10
0.13476
 20
-4.2906200000000005
 30
0.0
 10
0.16778
 20
-4.1001200000000004
 30
0.0
 10
0.33288
 20
-4.0315400000000006
 30
0.0
 10
0.33288
 20
-4.0315400000000006
 30
0.0
 10
0.36336
 20
-4.1585400000000003
 30
0.0
 10
0.27192
 20
-4.2728400000000004
 30
0.0
 10
0.25668
 20
-4.40238
 30
0.0
 10
0.25668
 20
-4.40238
 30
0.0
 10
0.22366
 20
-4.7173400000000001
 30
0.0
 10
0.31764
 20
-4.5497000000000005
 30
0.0
 10
0.34304
 20
-4.3490400000000005
 30
0.0
  0
SPLINE
  5
35
100
AcDbEntity
  8
Ebene 1
 62
     7
100
AcDbSpline
210
0.0
220
0.0
230
1.0
 70
     1
 71
     3
 72
    12
 73
     8
 74
     0
 42
0.0000000001
 43
0.0000000001
 40
0.0
 40
0.0
 40
0.0
 40
0.0
 40
0.5
 40
0.5
 40
0.5
 40
0.5
 40
1.0
 40
1.0
 40
1.0
 40
1.0
 10
-1.5238500000000001
 20
-1.2324600000000001
 30
0.0
 10
-1.4298700000000002
 20
-1.4102600000000001
 30
0.0
 10
-1.5797300000000001
 20
-1.5652000000000001
 30
0.0
 10
-1.6940300000000001
 20
-1.6820400000000002
 30
0.0
 10
-1.6940300000000001
 20
-1.6820400000000002
 30
0.0
 10
-1.6686300000000001
 20
-1.5271000000000001
 30
0.0
 10
-1.6203700000000001
 20
-1.3645400000000001
 30
0.0
 10
-1.5238500000000001
 20
-1.2324600000000001
 30
0.0
  0
SPLINE
  5
36
100
AcDbEntity
  8
Ebene 1
 62
     7
100
AcDbSpline
210
0.0
220
0.0
230
1.0
 70
     1
 71
     3
 72
    16
 73
    12
 74
     0
 42
0.0000000001
 43
0.0000000001
 40
0.0
 40
0.0
 40
0.0
 40
0.0
 40
0.3333333333333333
 40
0.3333333333333333
 40
0.3333333333333333
 40
0.3333333333333333
 40
0.6666666666666666
 40
0.6666666666666666
 40
0.6666666666666666
 40
0.6666666666666666
 40
1.0
 40
1.0
 40
1.0
 40
1.0
 10
-1.4578100000000001
 20
-1.54234
 30
0.0
 10
-1.4070100000000001
 20
-1.54488
 30
0.0
 10
-1.3536700000000002
 20
-1.54488
 30
0.0
 10
-1.3181100000000001
 20
-1.58806
 30
0.0
 10
-1.3181100000000001
 20
-1.58806
 30
0.0
 10
-1.33335
 20
-1.7785600000000001
 30
0.0
 10
-1.4679700000000002
 20
-1.9512800000000001
 30
0.0
 10
-1.5797300000000001
 20
-2.0986000000000002
 30
0.0
 10
-1.5797300000000001
 20
-2.0986000000000002
 30
0.0
 10
-1.6076700000000002
 20
-1.9208000000000001
 30
0.0
 10
-1.5644900000000002
 20
-1.6845800000000002
 30
0.0
 10
-1.4578100000000001
 20
-1.54234
 30
0.0
  0
SPLINE
  5
37
100
AcDbEntity
  8
Ebene 1
 62
     7
100
AcDbSpline
210
0.0
220
0.0
230
1.0
 70
     1
 71
     3
 72
    16
 73
    12
 74
     0
 42
0.0000000001
 43
0.0000000001
 40
0.0
 40
0.0
 40
0.0
 40
0.0
 40
0.3333333333333333
 40
0.3333333333333333
 40
0.3333333333333333
 40
0.3333333333333333
 40
0.6666666666666666
 40
0.6666666666666666
 40
0.6666666666666666
 40
0.6666666666666666
 40
1.0
 40
1.0
 40
1.0
 40
1.0
 10
-1.1072900000000001
 20
-1.6668000000000001
 30
0.0
 10
-1.1072900000000001
 20
-1.6668000000000001
 30
0.0
 10
-1.0691900000000001
 20
-1.66934
 30
0.0
 10
-1.0691900000000001
 20
-1.66934
 30
0.0
 10
-1.0691900000000001
 20
-1.66934
 30
0.0
 10
-0.9625100000000001
 20
-1.9436600000000002
 30
0.0
 10
-1.1326900000000002
 20
-2.2129000000000003
 30
0.0
 10
-1.20889
 20
-2.4618200000000003
 30
0.0
 10
-1.20889
 20
-2.4618200000000003
 30
0.0
 10
-1.2266700000000001
 20
-2.2002000000000002
 30
0.0
 10
-1.1911100000000001
 20
-1.9157200000000001
 30
0.0
 10
-1.1072900000000001
 20
-1.6668000000000001
 30
0.0
  0
SPLINE
  5
38
100
AcDbEntity
  8
Ebene 1
 62
     7
100
AcDbSpline
210
0.0
220
0.0
230
1.0
 70
     1
 71
     3
 72
    12
 73
     8
 74
     0
 42
0.0000000001
 43
0.0000000001
 40
0.0
 40
0.0
 40
0.0
 40
0.0
 40
0.5
 40
0.5
 40
0.5
 40
0.5
 40
1.0
 40
1.0
 40
1.0
 40
1.0
 10
0.22112
 20
-1.6947400000000001
 30
0.0
 10
0.51322
 20
-2.0122400000000003
 30
0.0
 10
0.20334
 20
-2.4694400000000001
 30
0.0
 10
0.0992
 20
-2.8021800000000003
 30
0.0
 10
0.0992
 20
-2.8021800000000003
 30
0.0
 10
0.1373
 20
-2.4440400000000002
 30
0.0
 10
-0.02779
 20
-2.0020800000000003
 30
0.0
 10
0.22112
 20
-1.6947400000000001
 30
0.0
  0
SPLINE
  5
39
100
AcDbEntity
  8
Ebene 1
 62
     7
100
AcDbSpline
210
0.0
220
0.0
230
1.0
 70
     1
 71
     3
 72
    24
 73
    20
 74
     0
 42
0.0000000001
 43
0.0000000001
 40
0.0
 40
0.0
 40
0.0
 40
0.0
 40
0.2
 40
0.2
 40
0.2
 40
0.2
 40
0.4
 40
0.4
 40
0.4
 40
0.4
 40
0.6000000000000001
 40
0.6000000000000001
 40
0.6000000000000001
 40
0.6000000000000001
 40
0.8
 40
0.8
 40
0.8
 40
0.8
 40
1.0
 40
1.0
 40
1.0
 40
1.0
 10
-0.7034300000000001
 20
-1.7252200000000002
 30
0.0
 10
-0.43165
 20
-2.1087600000000002
 30
0.0
 10
-0.69581
 20
-2.6828000000000003
 30
0.0
 10
-0.6856500000000001
 20
-3.1247600000000002
 30
0.0
 10
-0.6856500000000001
 20
-3.1247600000000002
 30
0.0
 10
-0.6856500000000001
 20
-3.1247600000000002
 30
0.0
 10
-0.7466100000000001
 20
-2.8352000000000004
 30
0.0
 10
-0.7466100000000001
 20
-2.8352000000000004
 30
0.0
 10
-0.7466100000000001
 20
-2.8352000000000004
 30
0.0
 10
-0.7466100000000001
 20
-2.8352000000000004
 30
0.0
 10
-0.7466100000000001
 20
-2.7082000000000002
 30
0.0
 10
-0.7466100000000001
 20
-2.7082000000000002
 30
0.0
 10
-0.7466100000000001
 20
-2.7082000000000002
 30
0.0
 10
-0.7466100000000001
 20
-2.7082000000000002
 30
0.0
 10
-0.6907300000000001
 20
-2.6650200000000002
 30
0.0
 10
-0.6907300000000001
 20
-2.6650200000000002
 30
0.0
 10
-0.6907300000000001
 20
-2.6650200000000002
 30
0.0
 10
-0.74407
 20
-2.3526000000000002
 30
0.0
 10
-0.9548900000000001
 20
-2.0071600000000003
 30
0.0
 10
-0.7034300000000001
 20
-1.7252200000000002
 30
0.0
  0
SPLINE
  5
3A
100
AcDbEntity
  8
Ebene 1
 62
     7
100
AcDbSpline
210
0.0
220
0.0
230
1.0
 70
     1
 71
     3
 72
    16
 73
    12
 74
     0
 42
0.0000000001
 43
0.0000000001
 40
0.0
 40
0.0
 40
0.0
 40
0.0
 40
0.3333333333333333
 40
0.3333333333333333
 40
0.3333333333333333
 40
0.3333333333333333
 40
0.6666666666666666
 40
0.6666666666666666
 40
0.6666666666666666
 40
0.6666666666666666
 40
1.0
 40
1.0
 40
1.0
 40
1.0
 10
1.5851000000000002
 20
-1.7252200000000002
 30
0.0
 10
1.6028800000000001
 20
-1.7201400000000002
 30
0.0
 10
1.6155800000000002
 20
-1.7303000000000002
 30
0.0
 10
1.6232000000000002
 20
-1.7404600000000001
 30
0.0
 10
1.6232000000000002
 20
-1.7404600000000001
 30
0.0
 10
1.5978000000000001
 20
-1.8547600000000002
 30
0.0
 10
1.5825600000000002
 20
-1.9868400000000002
 30
0.0
 10
1.5343000000000002
 20
-2.0859000000000001
 30
0.0
 10
1.5343000000000002
 20
-2.0859000000000001
 30
0.0
 10
1.5038200000000002
 20
-1.9690600000000003
 30
0.0
 10
1.5216000000000001
 20
-1.8268200000000001
 30
0.0
 10
1.5851000000000002
 20
-1.7252200000000002
 30
0.0
  0
SPLINE
  5
3B
100
AcDbEntity
  8
Ebene 1
 62
     7
100
AcDbSpline
210
0.0
220
0.0
230
1.0
 70
     1
 71
     3
 72
    16
 73
    12
 74
     0
 42
0.0000000001
 43
0.0000000001
 40
0.0
 40
0.0
 40
0.0
 40
0.0
 40
0.3333333333333333
 40
0.3333333333333333
 40
0.3333333333333333
 40
0.3333333333333333
 40
0.6666666666666666
 40
0.6666666666666666
 40
0.6666666666666666
 40
0.6666666666666666
 40
1.0
 40
1.0
 40
1.0
 40
1.0
 10
1.1914
 20
-1.7811000000000001
 30
0.0
 10
1.1914
 20
-1.7811000000000001
 30
0.0
 10
1.2599800000000001
 20
-1.8115800000000002
 30
0.0
 10
1.2599800000000001
 20
-1.8115800000000002
 30
0.0
 10
1.2599800000000001
 20
-1.8115800000000002
 30
0.0
 10
1.2904600000000002
 20
-2.1570200000000002
 30
0.0
 10
1.23712
 20
-2.5075400000000001
 30
0.0
 10
1.0415400000000001
 20
-2.7742400000000003
 30
0.0
 10
1.0415400000000001
 20
-2.7742400000000003
 30
0.0
 10
1.1025
 20
-2.4516600000000004
 30
0.0
 10
1.0034400000000001
 20
-2.06304
 30
0.0
 10
1.1914
 20
-1.7811000000000001
 30
0.0
  0
SPLINE
  5
3C
100
AcDbEntity
  8
Ebene 1
 62
     7
100
AcDbSpline
210
0.0
220
0.0
230
1.0
 70
     1
 71
     3
 72
    12
 73
     8
 74
     0
 42
0.0000000001
 43
0.0000000001
 40
0.0
 40
0.0
 40
0.0
 40
0.0
 40
0.5
 40
0.5
 40
0.5
 40
0.5
 40
1.0
 40
1.0
 40
1.0
 40
1.0
 10
-0.21067
 20
-1.8496800000000002
 30
0.0
 10
-0.07351
 20
-1.9944600000000001
 30
0.0
 10
-0.23099
 20
-2.2433800000000002
 30
0.0
 10
-0.29195
 20
-2.39324
 30
0.0
 10
-0.29195
 20
-2.39324
 30
0.0
 10
-0.3325900000000001
 20
-2.2129000000000003
 30
0.0
 10
-0.3224300000000001
 20
-1.9970000000000001
 30
0.0
 10
-0.21067
 20
-1.8496800000000002
 30
0.0
  0
SPLINE
  5
3D
100
AcDbEntity
  8
Ebene 1
 62
     7
100
AcDbSpline
210
0.0
220
0.0
230
1.0
 70
     1
 71
     3
 72
    16
 73
    12
 74
     0
 42
0.0000000001
 43
0.0000000001
 40
0.0
 40
0.0
 40
0.0
 40
0.0
 40
0.3333333333333333
 40
0.3333333333333333
 40
0.3333333333333333
 40
0.3333333333333333
 40
0.6666666666666666
 40
0.6666666666666666
 40
0.6666666666666666
 40
0.6666666666666666
 40
1.0
 40
1.0
 40
1.0
 40
1.0
 10
0.6859400000000001
 20
-1.9639800000000001
 30
0.0
 10
0.6859400000000001
 20
-1.9639800000000001
 30
0.0
 10
0.76722
 20
-1.9665200000000003
 30
0.0
 10
0.76722
 20
-1.9665200000000003
 30
0.0
 10
0.76722
 20
-1.9665200000000003
 30
0.0
 10
0.93232
 20
-2.1595600000000004
 30
0.0
 10
0.7316600000000001
 20
-2.4313400000000001
 30
0.0
 10
0.6961000000000001
 20
-2.64724
 30
0.0
 10
0.6961000000000001
 20
-2.64724
 30
0.0
 10
0.6656200000000001
 20
-2.4389600000000002
 30
0.0
 10
0.5411600000000001
 20
-2.1646400000000003
 30
0.0
 10
0.6859400000000001
 20
-1.9639800000000001
 30
0.0
  0
SPLINE
  5
3E
100
AcDbEntity
  8
Ebene 1
 62
     7
100
AcDbSpline
210
0.0
220
0.0
230
1.0
 70
     1
 71
     3
 72
    12
 73
     8
 74
     0
 42
0.0000000001
 43
0.0000000001
 40
0.0
 40
0.0
 40
0.0
 40
0.0
 40
0.5
 40
0.5
 40
0.5
 40
0.5
 40
1.0
 40
1.0
 40
1.0
 40
1.0
 10
1.3311000000000002
 20
-2.7793200000000002
 30
0.0
 10
1.4377800000000001
 20
-2.94442
 30
0.0
 10
1.4098400000000002
 20
-3.2949400000000004
 30
0.0
 10
1.2091800000000001
 20
-3.3787600000000002
 30
0.0
 10
1.2091800000000001
 20
-3.3787600000000002
 30
0.0
 10
1.2091800000000001
 20
-3.3787600000000002
 30
0.0
 10
1.3311000000000002
 20
-2.7793200000000002
 30
0.0
 10
1.3311000000000002
 20
-2.7793200000000002
 30
0.0
  0
SPLINE
  5
3F
100
AcDbEntity
  8
Ebene 1
 62
     7
100
AcDbSpline
210
0.0
220
0.0
230
1.0
 70
     1
 71
     3
 72
    12
 73
     8
 74
     0
 42
0.0000000001
 43
0.0000000001
 40
0.0
 40
0.0
 40
0.0
 40
0.0
 40
0.5
 40
0.5
 40
0.5
 40
0.5
 40
1.0
 40
1.0
 40
1.0
 40
1.0
 10
-1.5187700000000002
 20
-2.9063200000000005
 30
0.0
 10
-1.4324100000000002
 20
-3.0688800000000001
 30
0.0
 10
-1.3968500000000001
 20
-3.2898600000000005
 30
0.0
 10
-1.4247900000000002
 20
-3.4778200000000004
 30
0.0
 10
-1.4247900000000002
 20
-3.4778200000000004
 30
0.0
 10
-1.50099
 20
-3.3101800000000003
 30
0.0
 10
-1.5619500000000002
 20
-3.0993600000000003
 30
0.0
 10
-1.5187700000000002
 20
-2.9063200000000005
 30
0.0
  0
SPLINE
  5
40
100
AcDbEntity
  8
Ebene 1
 62
     7
100
AcDbSpline
210
0.0
220
0.0
230
1.0
 70
     1
 71
     3
 72
    20
 73
    16
 74
     0
 42
0.0000000001
 43
0.0000000001
 40
0.0
 40
0.0
 40
0.0
 40
0.0
 40
0.25
 40
0.25
 40
0.25
 40
0.25
 40
0.5
 40
0.5
 40
0.5
 40
0.5
 40
0.75
 40
0.75
 40
0.75
 40
0.75
 40
1.0
 40
1.0
 40
1.0
 40
1.0
 10
-1.33589
 20
-3.03078
 30
0.0
 10
-1.20635
 20
-3.2974800000000002
 30
0.0
 10
-1.1174500000000001
 20
-3.5921200000000004
 30
0.0
 10
-1.0133100000000002
 20
-3.8740600000000005
 30
0.0
 10
-1.0133100000000002
 20
-3.8740600000000005
 30
0.0
 10
-1.00569
 20
-3.9045400000000003
 30
0.0
 10
-1.0234700000000001
 20
-3.9248600000000002
 30
0.0
 10
-1.04379
 20
-3.9401000000000002
 30
0.0
 10
-1.04379
 20
-3.9401000000000002
 30
0.0
 10
-1.04379
 20
-3.9401000000000002
 30
0.0
 10
-1.1072900000000001
 20
-3.9274000000000004
 30
0.0
 10
-1.1072900000000001
 20
-3.9274000000000004
 30
0.0
 10
-1.1072900000000001
 20
-3.9274000000000004
 30
0.0
 10
-1.29779
 20
-3.6734000000000004
 30
0.0
 10
-1.3638300000000001
 20
-3.3457400000000002
 30
0.0
 10
-1.33589
 20
-3.03078
 30
0.0
  0
SPLINE
  5
41
100
AcDbEntity
  8
Ebene 1
 62
     7
100
AcDbSpline
210
0.0
220
0.0
230
1.0
 70
     1
 71
     3
 72
    12
 73
     8
 74
     0
 42
0.0000000001
 43
0.0000000001
 40
0.0
 40
0.0
 40
0.0
 40
0.0
 40
0.5
 40
0.5
 40
0.5
 40
0.5
 40
1.0
 40
1.0
 40
1.0
 40
1.0
 10
-0.17003
 20
-3.1857200000000003
 30
0.0
 10
-0.06843
 20
-3.4956000000000005
 30
0.0
 10
-0.08113
 20
-3.9502600000000001
 30
0.0
 10
-0.3224300000000001
 20
-4.1839400000000007
 30
0.0
 10
-0.3224300000000001
 20
-4.1839400000000007
 30
0.0
 10
-0.46721
 20
-3.8613600000000003
 30
0.0
 10
-0.3122700000000001
 20
-3.4854400000000001
 30
0.0
 10
-0.17003
 20
-3.1857200000000003
 30
0.0
  0
SPLINE
  5
42
100
AcDbEntity
  8
Ebene 1
 62
     7
100
AcDbSpline
210
0.0
220
0.0
230
1.0
 70
     1
 71
     3
 72
    20
 73
    16
 74
     0
 42
0.0000000001
 43
0.0000000001
 40
0.0
 40
0.0
 40
0.0
 40
0.0
 40
0.25
 40
0.25
 40
0.25
 40
0.25
 40
0.5
 40
0.5
 40
0.5
 40
0.5
 40
0.75
 40
0.75
 40
0.75
 40
0.75
 40
1.0
 40
1.0
 40
1.0
 40
1.0
 10
0.99582
 20
-3.19842
 30
0.0
 10
1.0059800000000001
 20
-3.2035000000000005
 30
0.0
 10
1.02122
 20
-3.2136600000000004
 30
0.0
 10
1.02122
 20
-3.2238200000000004
 30
0.0
 10
1.02122
 20
-3.2238200000000004
 30
0.0
 10
0.95264
 20
-3.4727400000000004
 30
0.0
 10
0.9297800000000001
 20
-3.7800800000000003
 30
0.0
 10
0.7570600000000001
 20
-3.9731200000000002
 30
0.0
 10
0.7570600000000001
 20
-3.9731200000000002
 30
0.0
 10
0.7570600000000001
 20
-3.9731200000000002
 30
0.0
 10
0.69864
 20
-3.8740600000000005
 30
0.0
 10
0.69864
 20
-3.8740600000000005
 30
0.0
 10
0.69864
 20
-3.8740600000000005
 30
0.0
 10
0.7697600000000001
 20
-3.6403800000000004
 30
0.0
 10
0.8789800000000001
 20
-3.4194000000000004
 30
0.0
 10
0.99582
 20
-3.19842
 30
0.0
  0
SPLINE
  5
43
100
AcDbEntity
  8
Ebene 1
 62
     7
100
AcDbSpline
210
0.0
220
0.0
230
1.0
 70
     1
 71
     3
 72
    20
 73
    16
 74
     0
 42
0.0000000001
 43
0.0000000001
 40
0.0
 40
0.0
 40
0.0
 40
0.0
 40
0.25
 40
0.25
 40
0.25
 40
0.25
 40
0.5
 40
0.5
 40
0.5
 40
0.5
 40
0.75
 40
0.75
 40
0.75
 40
0.75
 40
1.0
 40
1.0
 40
1.0
 40
1.0
 10
-0.9015500000000001
 20
-3.3406600000000002
 30
0.0
 10
-0.9015500000000001
 20
-3.3406600000000002
 30
0.0
 10
-0.72121
 20
-4.0670999999999999
 30
0.0
 10
-0.72121
 20
-4.0670999999999999
 30
0.0
 10
-0.72121
 20
-4.0670999999999999
 30
0.0
 10
-0.8101100000000001
 20
-4.0721800000000004
 30
0.0
 10
-0.8431300000000001
 20
-3.9096200000000003
 30
0.0
 10
-0.8177300000000001
 20
-3.8359600000000005
 30
0.0
 10
-0.8177300000000001
 20
-3.8359600000000005
 30
0.0
 10
-0.8177300000000001
 20
-3.8359600000000005
 30
0.0
 10
-0.8812300000000001
 20
-3.8715200000000003
 30
0.0
 10
-0.8812300000000001
 20
-3.8715200000000003
 30
0.0
 10
-0.8812300000000001
 20
-3.8715200000000003
 30
0.0
 10
-0.9345700000000001
 20
-3.7115000000000005
 30
0.0
 10
-0.9193300000000001
 20
-3.5083000000000002
 30
0.0
 10
-0.9015500000000001
 20
-3.3406600000000002
 30
0.0
  0
SPLINE
  5
44
100
AcDbEntity
  8
Ebene 1
 62
     7
100
AcDbSpline
210
0.0
220
0.0
230
1.0
 70
     1
 71
     3
 72
    24
 73
    20
 74
     0
 42
0.0000000001
 43
0.0000000001
 40
0.0
 40
0.0
 40
0.0
 40
0.0
 40
0.2
 40
0.2
 40
0.2
 40
0.2
 40
0.4
 40
0.4
 40
0.4
 40
0.4
 40
0.6000000000000001
 40
0.6000000000000001
 40
0.6000000000000001
 40
0.6000000000000001
 40
0.8
 40
0.8
 40
0.8
 40
0.8
 40
1.0
 40
1.0
 40
1.0
 40
1.0
 10
0.19318
 20
-3.4117800000000003
 30
0.0
 10
0.26684
 20
-3.5921200000000004
 30
0.0
 10
0.33796
 20
-3.8283400000000003
 30
0.0
 10
0.2617600000000001
 20
-4.0264600000000002
 30
0.0
 10
0.2617600000000001
 20
-4.0264600000000002
 30
0.0
 10
0.2617600000000001
 20
-4.0264600000000002
 30
0.0
 10
0.16524
 20
-4.0442400000000003
 30
0.0
 10
0.16524
 20
-4.0442400000000003
 30
0.0
 10
0.16524
 20
-4.0442400000000003
 30
0.0
 10
0.16524
 20
-4.0442400000000003
 30
0.0
 10
0.10936
 20
-3.9858200000000004
 30
0.0
 10
0.10936
 20
-3.9858200000000004
 30
0.0
 10
0.10936
 20
-3.9858200000000004
 30
0.0
 10
0.10936
 20
-3.9858200000000004
 30
0.0
 10
0.0865
 20
-4.0264600000000002
 30
0.0
 10
0.0865
 20
-4.0264600000000002
 30
0.0
 10
0.0865
 20
-4.0264600000000002
 30
0.0
 10
0.06364
 20
-3.8207200000000001
 30
0.0
 10
0.15254
 20
-3.6124400000000003
 30
0.0
 10
0.19318
 20
-3.4117800000000003
 30
0.0
  0
SPLINE
  5
45
100
AcDbEntity
  8
Ebene 1
 62
     7
100
AcDbSpline
210
0.0
220
0.0
230
1.0
 70
     1
 71
     3
 72
    20
 73
    16
 74
     0
 42
0.0000000001
 43
0.0000000001
 40
0.0
 40
0.0
 40
0.0
 40
0.0
 40
0.25
 40
0.25
 40
0.25
 40
0.25
 40
0.5
 40
0.5
 40
0.5
 40
0.5
 40
0.75
 40
0.75
 40
0.75
 40
0.75
 40
1.0
 40
1.0
 40
1.0
 40
1.0
 10
-0.8609100000000001
 20
-5.5530000000000008
 30
0.0
 10
-0.8609100000000001
 20
-5.5530000000000008
 30
0.0
 10
-0.6907300000000001
 20
-5.7155600000000009
 30
0.0
 10
-0.6907300000000001
 20
-5.7155600000000009
 30
0.0
 10
-0.6907300000000001
 20
-5.7155600000000009
 30
0.0
 10
-0.6907300000000001
 20
-5.7155600000000009
 30
0.0
 10
-0.8710700000000001
 20
-6.0559200000000004
 30
0.0
 10
-0.8710700000000001
 20
-6.0559200000000004
 30
0.0
 10
-0.8710700000000001
 20
-6.0559200000000004
 30
0.0
 10
-0.9244100000000001
 20
-5.8730400000000005
 30
0.0
 10
-0.9345700000000001
 20
-5.7079400000000007
 30
0.0
 10
-0.95235
 20
-5.6063400000000003
 30
0.0
 10
-0.95235
 20
-5.6063400000000003
 30
0.0
 10
-0.95235
 20
-5.6063400000000003
 30
0.0
 10
-0.8609100000000001
 20
-5.5530000000000008
 30
0.0
 10
-0.8609100000000001
 20
-5.5530000000000008
 30
0.0
  0
ENDSEC
  0
SECTION
  2
OBJECTS
  0
DICTIONARY
  5
19
100
AcDbDictionary
280
     0
281
     1
  3
ACAD_GROUP
350
1A
  3
ACAD_MLINESTYLE
350
1B
  3
ACAD_LAYOUT
350
1E
  3
ACAD_PLOTSETTINGS
350
22
  3
ACAD_PLOTSTYLENAME
350
1F
  3
ACAD_WIPEOUT_VARS
350
23
  0
DICTIONARY
  5
1A
102
{ACAD_REACTORS
330
19
102
}
100
AcDbDictionary
280
     0
281
     1
  0
DICTIONARY
  5
1B
102
{ACAD_REACTORS
330
19
102
}
100
AcDbDictionary
280
     0
281
     1
  3
Standard
350
1C
  0
MLINESTYLE
  5
1C
102
{ACAD_REACTORS
330
1B
102
}
100
AcDbMlineStyle
  2
Standard
 70
     0
  3

 62
     0
 51
90.0
 52
90.0
 71
     2
 49
0.5
 62
   256
  6
BYLAYER
 49
-0.5
 62
   256
  6
BYLAYER
  0
ACDBDICTIONARYWDFLT
  5
1F
102
{ACAD_REACTORS
330
19
102
}
100
AcDbDictionary
281
     1
  3
Normal
350
1D
100
AcDbDictionaryWithDefault
340
1D
  0
ACDBPLACEHOLDER
  5
1D
102
{ACAD_REACTORS
330
1F
102
}
  0
LAYOUT
  5
20
102
{ACAD_REACTORS
330
1E
102
}
100
AcDbPlotSettings
  1

  2

  4

  6

 40
0.0
 41
0.0
 42
0.0
 43
0.0
 44
0.0
 45
0.0
 46
0.0
 47
0.0
 48
0.0
 49
0.0
140
0.0
141
0.0
142
1.0
143
1.0
 70
  1024
 72
     0
 73
     0
 74
     0
  7

 75
     0
147
1.0
148
0.0
149
0.0
100
AcDbLayout
  1
Model
 70
     0
 71
     0
 10
0.0
 20
0.0
 11
0.0
 21
0.0
 12
0.0
 22
0.0
 32
0.0
 14
0.0
 24
0.0
 34
0.0
 15
0.0
 25
0.0
 35
0.0
146
0.0
 13
0.0
 23
0.0
 33
0.0
 16
0.0
 26
0.0
 36
0.0
 17
0.0
 27
0.0
 37
0.0
 76
     0
330
A
331
0
345
0
346
0
  0
LAYOUT
  5
21
102
{ACAD_REACTORS
330
1E
102
}
100
AcDbPlotSettings
  1

  2

  4

  6

 40
0.0
 41
0.0
 42
0.0
 43
0.0
 44
0.0
 45
0.0
 46
0.0
 47
0.0
 48
0.0
 49
0.0
140
0.0
141
0.0
142
1.0
143
1.0
 70
     0
 72
     0
 73
     0
 74
     0
  7

 75
     0
147
1.0
148
0.0
149
0.0
100
AcDbLayout
  1
Layout1
 70
     0
 71
     0
 10
0.0
 20
0.0
 11
0.0
 21
0.0
 12
0.0
 22
0.0
 32
0.0
 14
0.0
 24
0.0
 34
0.0
 15
0.0
 25
0.0
 35
0.0
146
0.0
 13
0.0
 23
0.0
 33
0.0
 16
0.0
 26
0.0
 36
0.0
 17
0.0
 27
0.0
 37
0.0
 76
     0
330
B
331
0
345
0
346
0
  0
DICTIONARY
  5
1E
102
{ACAD_REACTORS
330
19
102
}
100
AcDbDictionary
280
     0
281
     1
  3
Layout1
350
21
  3
Model
350
20
  0
DICTIONARY
  5
22
102
{ACAD_REACTORS
330
19
102
}
100
AcDbDictionary
280
     0
281
     1
  0
WIPEOUTVARIABLES
  5
23
100
AcDbWipeoutVariables
 70
     1
  0
ENDSEC
  0
EOF
