  0
SECTION
  2
HEADER
  9
$ACADVER
  1
AC1015
  9
$ACADMAINTVER
 70
     6
  9
$DWGCODEPAGE
  3
DOS850
  9
$INSBASE
 10
0.0
 20
0.0
 30
0.0
  9
$EXTMIN
 10
-3.64474
 20
-6.28452
 30
1.000000E+20
  9
$EXTMAX
 10
3.65012
 20
6.27831
 30
-1.000000E+20
  9
$LIMMIN
 10
0.0
 20
0.0
  9
$LIMMAX
 10
0.0
 20
0.0
  9
$ORTHOMODE
 70
     0
  9
$REGENMODE
 70
     1
  9
$FILLMODE
 70
     1
  9
$QTEXTMODE
 70
     0
  9
$MIRRTEXT
 70
     1
  9
$LTSCALE
 40
1.0
  9
$ATTMODE
 70
     1
  9
$TEXTSIZE
 40
0.2
  9
$TRACEWID
 40
0.05
  9
$TEXTSTYLE
  7
Standard
  9
$CLAYER
  8
0
  9
$CELTYPE
  6
Continuous
  9
$CECOLOR
 62
   256
  9
$CELTSCALE
 40
1.0
  9
$DISPSILH
 70
     0
  9
$DIMSCALE
 40
1.0
  9
$DIMASZ
 40
0.18
  9
$DIMEXO
 40
0.0625
  9
$DIMDLI
 40
0.38
  9
$DIMRND
 40
0.0
  9
$DIMDLE
 40
0.0
  9
$DIMEXE
 40
0.18
  9
$DIMTP
 40
0.0
  9
$DIMTM
 40
0.0
  9
$DIMTXT
 40
0.18
  9
$DIMCEN
 40
0.09
  9
$DIMTSZ
 40
0.0
  9
$DIMTOL
 70
     0
  9
$DIMLIM
 70
     0
  9
$DIMTIH
 70
     1
  9
$DIMTOH
 70
     1
  9
$DIMSE1
 70
     0
  9
$DIMSE2
 70
     0
  9
$DIMTAD
 70
     0
  9
$DIMZIN
 70
     0
  9
$DIMBLK
  1

  9
$DIMASO
 70
     1
  9
$DIMSHO
 70
     1
  9
$DIMPOST
  1

  9
$DIMAPOST
  1

  9
$DIMALT
 70
     0
  9
$DIMALTD
 70
     2
  9
$DIMALTF
 40
25.4
  9
$DIMLFAC
 40
1.0
  9
$DIMTOFL
 70
     0
  9
$DIMTVP
 40
0.0
  9
$DIMTIX
 70
     0
  9
$DIMSOXD
 70
     0
  9
$DIMSAH
 70
     0
  9
$DIMBLK1
  1

  9
$DIMBLK2
  1

  9
$DIMSTYLE
  2
Standard
  9
$DIMCLRD
 70
     0
  9
$DIMCLRE
 70
     0
  9
$DIMCLRT
 70
     0
  9
$DIMTFAC
 40
1.0
  9
$DIMGAP
 40
0.09
  9
$DIMJUST
 70
     0
  9
$DIMSD1
 70
     0
  9
$DIMSD2
 70
     0
  9
$DIMTOLJ
 70
     1
  9
$DIMTZIN
 70
     0
  9
$DIMALTZ
 70
     0
  9
$DIMALTTZ
 70
     0
  9
$DIMUPT
 70
     0
  9
$DIMDEC
 70
     4
  9
$DIMTDEC
 70
     4
  9
$DIMALTU
 70
     2
  9
$DIMALTTD
 70
     2
  9
$DIMTXSTY
  7
Standard
  9
$DIMAUNIT
 70
     0
  9
$DIMADEC
 70
     0
  9
$DIMALTRND
 40
0.0
  9
$DIMAZIN
 70
     0
  9
$DIMDSEP
 70
     0
  9
$DIMATFIT
 70
     3
  9
$DIMFRAC
 70
     0
  9
$DIMLDRBLK
  1

  9
$DIMLUNIT
 70
     2
  9
$DIMLWD
 70
     0
  9
$DIMLWE
 70
     0
  9
$DIMTMOVE
 70
     0
  9
$LUNITS
 70
     2
  9
$LUPREC
 70
     4
  9
$SKETCHINC
 40
0.1
  9
$FILLETRAD
 40
0.0
  9
$AUNITS
 70
     0
  9
$AUPREC
 70
     0
  9
$MENU
  1
acad
  9
$ELEVATION
 40
0.0
  9
$PELEVATION
 40
0.0
  9
$THICKNESS
 40
0.0
  9
$LIMCHECK
 70
     0
  9
$CHAMFERA
 40
0.0
  9
$CHAMFERB
 40
0.0
  9
$CHAMFERC
 40
0.0
  9
$CHAMFERD
 40
0.0
  9
$SKPOLY
 70
     0
  9
$TDCREATE
 40
0.000000000
  9
$TDUCREATE
 40
0.000000000
  9
$TDUPDATE
 40
0.000000000
  9
$TDUUPDATE
 40
0.000000000
  9
$TDINDWG
 40
0.0000000000
  9
$TDUSRTIMER
 40
0.0000000000
  9
$USRTIMER
 70
     1
  9
$ANGBASE
 50
0.0
  9
$ANGDIR
 70
     0
  9
$PDMODE
 70
     0
  9
$PDSIZE
 40
0.0
  9
$PLINEWID
 40
0.0
  9
$SPLFRAME
 70
     0
  9
$SPLINETYPE
 70
     6
  9
$SPLINESEGS
 70
     8
  9
$HANDSEED
  5
4D
  9
$SURFTAB1
 70
     6
  9
$SURFTAB2
 70
     6
  9
$SURFTYPE
 70
     6
  9
$SURFU
 70
     6
  9
$SURFV
 70
     6
  9
$UCSBASE
  2

  9
$UCSNAME
  2

  9
$UCSORG
 10
0.0
 20
0.0
 30
0.0
  9
$UCSXDIR
 10
1.0
 20
0.0
 30
0.0
  9
$UCSYDIR
 10
0.0
 20
1.0
 30
0.0
  9
$UCSORTHOREF
  2

  9
$UCSORTHOVIEW
 70
     0
  9
$UCSORGTOP
 10
0.0
 20
0.0
 30
0.0
  9
$UCSORGBOTTOM
 10
0.0
 20
0.0
 30
0.0
  9
$UCSORGLEFT
 10
0.0
 20
0.0
 30
0.0
  9
$UCSORGRIGHT
 10
0.0
 20
0.0
 30
0.0
  9
$UCSORGFRONT
 10
0.0
 20
0.0
 30
0.0
  9
$UCSORGBACK
 10
0.0
 20
0.0
 30
0.0
  9
$PUCSBASE
  2

  9
$PUCSNAME
  2

  9
$PUCSORG
 10
0.0
 20
0.0
 30
0.0
  9
$PUCSXDIR
 10
1.0
 20
0.0
 30
0.0
  9
$PUCSYDIR
 10
0.0
 20
1.0
 30
0.0
  9
$PUCSORTHOREF
  2

  9
$PUCSORTHOVIEW
 70
     0
  9
$PUCSORGTOP
 10
0.0
 20
0.0
 30
0.0
  9
$PUCSORGBOTTOM
 10
0.0
 20
0.0
 30
0.0
  9
$PUCSORGLEFT
 10
0.0
 20
0.0
 30
0.0
  9
$PUCSORGRIGHT
 10
0.0
 20
0.0
 30
0.0
  9
$PUCSORGFRONT
 10
0.0
 20
0.0
 30
0.0
  9
$PUCSORGBACK
 10
0.0
 20
0.0
 30
0.0
  9
$USERI1
 70
     0
  9
$USERI2
 70
     0
  9
$USERI3
 70
     0
  9
$USERI4
 70
     0
  9
$USERI5
 70
     0
  9
$USERR1
 40
0.0
  9
$USERR2
 40
0.0
  9
$USERR3
 40
0.0
  9
$USERR4
 40
0.0
  9
$USERR5
 40
0.0
  9
$WORLDVIEW
 70
     1
  9
$SHADEDGE
 70
     3
  9
$SHADEDIF
 70
    70
  9
$TILEMODE
 70
     1
  9
$MAXACTVP
 70
    16
  9
$PINSBASE
 10
0.0
 20
0.0
 30
0.0
  9
$PLIMCHECK
 70
     0
  9
$PEXTMIN
 10
1.000000E+20
 20
1.000000E+20
 30
1.000000E+20
  9
$PEXTMAX
 10
-1.000000E+20
 20
-1.000000E+20
 30
-1.000000E+20
  9
$PLIMMIN
 10
0.0
 20
0.0
  9
$PLIMMAX
 10
12.0
 20
9.0
  9
$UNITMODE
 70
     0
  9
$VISRETAIN
 70
     0
  9
$PLINEGEN
 70
     1
  9
$PSLTSCALE
 70
     0
  9
$TREEDEPTH
 70
  3020
  9
$CMLSTYLE
  2
Standard
  9
$CMLJUST
 70
     0
  9
$CMLSCALE
 40
1.0
  9
$PROXYGRAPHICS
 70
     0
  9
$MEASUREMENT
 70
     0
  9
$CELWEIGHT
370
     0
  9
$ENDCAPS
280
     0
  9
$JOINSTYLE
280
     0
  9
$LWDISPLAY
290
     0
  9
$INSUNITS
 70
     5
  9
$HYPERLINKBASE
  1

  9
$XEDIT
290
     1
  9
$CEPSNTYPE
380
     0
  9
$PSTYLEMODE
290
     1
  9
$FINGERPRINTGUID
  2

  9
$VERSIONGUID
  2

  9
$EXTNAMES
290
     1
  9
$PSVPSCALE
 40
0.0
  0
ENDSEC
  0
SECTION
  2
CLASSES
  0
CLASS
  1
LWPOLYLINE
  2
AcDbPolyline
  3
AutoCAD 2000
 90
    32768
280
     0
281
     1
  0
CLASS
  1
IMAGE
  2
AcDbRasterImage
  3
ISM
 90
    32895
280
     0
281
     1
  0
CLASS
  1
OLE2FRAME
  2
AcDbOle2Frame
  3
AutoCAD 2000
 90
    32768
280
     0
281
     1
  0
CLASS
  1
HATCH
  2
AcDbHatch
  3
AutoCAD 2000
 90
    32768
280
     0
281
     1
  0
CLASS
  1
DICTIONARYVAR
  2
AcDbDictionaryVar
  3
AutoCAD 2000
 90
    32768
280
     0
281
     0
  0
CLASS
  1
RASTERVARIABLES
  2
AcDbRasterVariables
  3
ISM
 90
    32768
280
     0
281
     0
  0
CLASS
  1
IMAGEDEF
  2
AcDbRasterImageDef
  3
ISM
 90
    32768
280
     0
281
     0
  0
CLASS
  1
IMAGEDEF_REACTOR
  2
AcDbRasterImageDefReactor
  3
ISM
 90
    32769
280
     0
281
     0
  0
CLASS
  1
IDBUFFER
  2
AcDbIdBuffer
  3
AutoCAD 2000
 90
    32768
280
     0
281
     0
  0
CLASS
  1
SPATIAL_FILTER
  2
AcDbSpatialFilter
  3
AutoCAD 2000
 90
    32768
280
     0
281
     0
  0
CLASS
  1
XRECORD
  2
AcDbXrecord
  3
AutoCAD 2000
 90
    32768
280
     0
281
     0
  0
CLASS
  1
SORTENTSTABLE
  2
AcDbSortentsTable
  3
AutoCAD 2000
 90
    32768
280
     0
281
     0
  0
CLASS
  1
LAYER_INDEX
  2
AcDbLayerIndex
  3
AutoCAD 2000
 90
    32768
280
     0
281
     0
  0
CLASS
  1
SPATIAL_INDEX
  2
AcDbSpatialIndex
  3
AutoCAD 2000
 90
    32768
280
     0
281
     0
  0
CLASS
  1
OBJECT_PTR
  2
CAseDLPNTableRecord
  3
"ASE-LPNTableRecord"
 90
    32769
280
     0
281
     0
  0
CLASS
  1
LAYOUT
  2
AcDbLayout
  3
AutoCAD 2000
 90
        0
280
     0
281
     0
  0
CLASS
  1
PLOTSETTINGS
  2
AcDbPlotSettings
  3
AutoCAD 2000
 90
    32768
280
     0
281
     0
  0
CLASS
  1
ACDBDICTIONARYWDFLT
  2
AcDbDictionaryWithDefault
  3
AutoCAD 2000
 90
        0
280
     0
281
     0
  0
CLASS
  1
ACDBPLACEHOLDER
  2
AcDbPlaceHolder
  3
AutoCAD 2000
 90
        0
280
     0
281
     0
  0
CLASS
  1
VBA_PROJECT
  2
AcDbVbaProject
  3
acadvba
 90
    32768
280
     0
281
     0
  0
CLASS
  1
WIPEOUT
  2
AcDbWipeout
  3
WipeOut|AutoCAD Express Tool|expresstools@autodesk.com
 90
    32895
280
     0
281
     1
  0
CLASS
  1
WIPEOUTVARIABLES
  2
AcDbWipeoutVariables
  3
WipeOut|AutoCAD Express Tool|expresstools@autodesk.com
 90
        0
280
     0
281
     0
  0
CLASS
  1
RTEXT
  2
RText
  3
RText|AutoCAD Express Tool|expresstools@autodesk.com
 90
    32768
280
     0
281
     1
  0
CLASS
  1
ARCALIGNEDTEXT
  2
AcDbArcAlignedText
  3
ATEXT|AutoCAD Express Tool|expresstools@autodesk.com
 90
    32768
280
     0
281
     1
  0
ENDSEC
  0
SECTION
  2
TABLES
  0
TABLE
  2
VPORT
  5
7
100
AcDbSymbolTable
 70
     1
  0
VPORT
  5
15
100
AcDbSymbolTableRecord
100
AcDbViewportTableRecord
  2
*ACTIVE
 70
     0
 10
0.0
 20
0.0
 11
1.0
 21
1.0
 12
6.591288
 22
4.579184
 13
0.0
 23
0.0
 14
1.0
 24
1.0
 15
0.0
 25
0.0
 16
0.0
 26
0.0
 36
1.0
 17
0.0
 27
0.0
 37
0.0
 40
9.158369
 41
0.688564
 42
50.0
 43
0.0
 44
0.0
 50
0.0
 51
0.0
 71
     0
 72
   100
 73
     1
 74
     1
 75
     0
 76
     0
 77
     0
 78
     0
281
     0
 65
     0
110
0.0
120
0.0
130
0.0
111
1.0
121
0.0
131
0.0
112
0.0
122
1.0
132
0.0
345
0
346
0
 79
     0
146
0.0
  0
ENDTAB
  0
TABLE
  2
LTYPE
  5
4
100
AcDbSymbolTable
 70
     3
  0
LTYPE
  5
11
100
AcDbSymbolTableRecord
100
AcDbLinetypeTableRecord
  2
ByBlock
 70
    64
  3

 72
    65
 73
     0
 40
0.0
  0
LTYPE
  5
12
100
AcDbSymbolTableRecord
100
AcDbLinetypeTableRecord
  2
ByLayer
 70
    64
  3

 72
    65
 73
     0
 40
0.0
  0
LTYPE
  5
13
100
AcDbSymbolTableRecord
100
AcDbLinetypeTableRecord
  2
Continuous
 70
    64
  3
Solid line
 72
    65
 73
     0
 40
0.0
  0
ENDTAB
  0
TABLE
  2
LAYER
  5
2
100
AcDbSymbolTable
 70
     2
  0
LAYER
  5
14
100
AcDbSymbolTableRecord
100
AcDbLayerTableRecord
  2
0
 70
     0
 62
     7
  6
Continuous
290
     1
370
    -3
390
1D
  0
LAYER
  5
24
100
AcDbSymbolTableRecord
100
AcDbLayerTableRecord
  2
Ebene 1
 70
     0
 62
     7
  6
Continuous
290
     1
370
    -3
390
1F
  0
ENDTAB
  0
TABLE
  2
STYLE
  5
3
100
AcDbSymbolTable
 70
     1
  0
STYLE
  5
17
100
AcDbSymbolTableRecord
100
AcDbTextStyleTableRecord
  2
Standard
 70
     0
 40
0.0
 41
1.0
 50
0.0
 71
     0
 42
0.0
  3
txt
  4

  0
ENDTAB
  0
TABLE
  2
VIEW
  5
5
100
AcDbSymbolTable
 70
     0
  0
ENDTAB
  0
TABLE
  2
UCS
  5
6
100
AcDbSymbolTable
 70
     0
  0
ENDTAB
  0
TABLE
  2
APPID
  5
8
100
AcDbSymbolTable
 70
     1
  0
APPID
  5
16
100
AcDbSymbolTableRecord
100
AcDbRegAppTableRecord
  2
ACAD
 70
     0
  0
ENDTAB
  0
TABLE
  2
DIMSTYLE
  5
9
100
AcDbSymbolTable
 70
     1
100
AcDbDimStyleTable
 71
     0
  0
DIMSTYLE
105
18
100
AcDbSymbolTableRecord
100
AcDbDimStyleTableRecord
  2
Standard
 70
     0
  3

  4

 40
1.0
 41
0.18
 42
0.0625
 43
0.38
 44
0.18
 45
0.0
 46
0.0
 47
0.0
 48
0.0
 71
     0
 72
     0
 73
     1
 74
     1
 75
     0
 76
     0
 77
     0
 78
     0
 79
     0
140
0.18
141
0.09
142
0.0
143
25.4
144
1.0
145
0.0
146
1.0
147
0.09
148
0.0
170
     0
171
     2
172
     0
173
     0
174
     0
175
     0
176
     0
177
     0
178
     0
179
     0
271
     4
272
     4
273
     2
274
     2
275
     0
276
     0
277
     2
278
    46
279
     0
280
     0
281
     0
282
     0
283
     1
284
     0
285
     0
286
     0
288
     0
340
17
341
0
342
0
343
0
344
0
371
    -2
372
    -2
  0
ENDTAB
  0
TABLE
  2
BLOCK_RECORD
  5
1
100
AcDbSymbolTable
 70
     0
  0
BLOCK_RECORD
  5
A
100
AcDbSymbolTableRecord
100
AcDbBlockTableRecord
  2
*MODEL_SPACE
340
20
  0
BLOCK_RECORD
  5
B
100
AcDbSymbolTableRecord
100
AcDbBlockTableRecord
  2
*PAPER_SPACE
340
21
  0
ENDTAB
  0
ENDSEC
  0
SECTION
  2
BLOCKS
  0
BLOCK
  5
D
100
AcDbEntity
  8
0
100
AcDbBlockBegin
  2
*MODEL_SPACE
 70
     0
 10
0.0
 20
0.0
 30
0.0
  3
*MODEL_SPACE
  1

  0
ENDBLK
  5
E
100
AcDbEntity
  8
0
100
AcDbBlockEnd
  0
BLOCK
  5
F
100
AcDbEntity
 67
     1
  8
0
100
AcDbBlockBegin
  2
*PAPER_SPACE
 70
     0
 10
0.0
 20
0.0
 30
0.0
  3
*PAPER_SPACE
  1

  0
ENDBLK
  5
10
100
AcDbEntity
 67
     1
  8
0
100
AcDbBlockEnd
  0
ENDSEC
  0
SECTION
  2
ENTITIES
  0
SPLINE
  5
25
100
AcDbEntity
  8
Ebene 1
100
AcDbSpline
210
0.0
220
0.0
230
1.0
 70
     1
 71
     3
 72
    56
 73
    52
 74
     0
 42
0.0000000001
 43
0.0000000001
 40
0.0
 40
0.0
 40
0.0
 40
0.0
 40
0.0769230769230769
 40
0.0769230769230769
 40
0.0769230769230769
 40
0.0769230769230769
 40
0.1538461538461539
 40
0.1538461538461539
 40
0.1538461538461539
 40
0.1538461538461539
 40
0.2307692307692308
 40
0.2307692307692308
 40
0.2307692307692308
 40
0.2307692307692308
 40
0.3076923076923077
 40
0.3076923076923077
 40
0.3076923076923077
 40
0.3076923076923077
 40
0.3846153846153846
 40
0.3846153846153846
 40
0.3846153846153846
 40
0.3846153846153846
 40
0.4615384615384616
 40
0.4615384615384616
 40
0.4615384615384616
 40
0.4615384615384616
 40
0.5384615384615386
 40
0.5384615384615386
 40
0.5384615384615386
 40
0.5384615384615386
 40
0.6153846153846154
 40
0.6153846153846154
 40
0.6153846153846154
 40
0.6153846153846154
 40
0.6923076923076923
 40
0.6923076923076923
 40
0.6923076923076923
 40
0.6923076923076923
 40
0.7692307692307692
 40
0.7692307692307692
 40
0.7692307692307692
 40
0.7692307692307692
 40
0.846153846153846
 40
0.846153846153846
 40
0.846153846153846
 40
0.846153846153846
 40
0.9230769230769229
 40
0.9230769230769229
 40
0.9230769230769229
 40
0.9230769230769229
 40
1.0
 40
1.0
 40
1.0
 40
1.0
 10
-0.11415
 20
6.2783100000000003
 30
0.0
 10
2.03722
 20
6.2376700000000005
 30
0.0
 10
4.1149400000000007
 20
4.1116900000000003
 30
0.0
 10
3.5256600000000002
 20
1.9222100000000002
 30
0.0
 10
3.5256600000000002
 20
1.9222100000000002
 30
0.0
 10
3.5256600000000002
 20
1.9222100000000002
 30
0.0
 10
3.3986600000000005
 20
0.91129
 30
0.0
 10
3.3986600000000005
 20
0.91129
 30
0.0
 10
3.3986600000000005
 20
0.91129
 30
0.0
 10
3.3250000000000002
 20
0.30169
 30
0.0
 10
3.5891600000000001
 20
-0.22408
 30
0.0
 10
3.6501200000000003
 20
-0.7905000000000001
 30
0.0
 10
3.6501200000000003
 20
-0.7905000000000001
 30
0.0
 10
3.4240600000000003
 20
-1.4001000000000001
 30
0.0
 10
3.0405200000000003
 20
-1.9284200000000002
 30
0.0
 10
2.6900000000000004
 20
-2.4745200000000001
 30
0.0
 10
2.6900000000000004
 20
-2.4745200000000001
 30
0.0
 10
2.7662000000000004
 20
-3.9477200000000003
 30
0.0
 10
1.27776
 20
-4.8164000000000007
 30
0.0
 10
0.88914
 20
-6.1626000000000003
 30
0.0
 10
0.88914
 20
-6.1626000000000003
 30
0.0
 10
0.55386
 20
-6.3124600000000006
 30
0.0
 10
0.16524
 20
-6.0533800000000006
 30
0.0
 10
-0.15733
 20
-6.2845200000000006
 30
0.0
 10
-0.15733
 20
-6.2845200000000006
 30
0.0
 10
-0.15733
 20
-6.2845200000000006
 30
0.0
 10
-0.44435
 20
-6.1803800000000004
 30
0.0
 10
-0.44435
 20
-6.1803800000000004
 30
0.0
 10
-0.44435
 20
-6.1803800000000004
 30
0.0
 10
-0.8329700000000001
 20
-5.1694600000000008
 30
0.0
 10
-1.5543300000000002
 20
-4.3693600000000004
 30
0.0
 10
-2.3823700000000003
 20
-3.6734000000000004
 30
0.0
 10
-2.3823700000000003
 20
-3.6734000000000004
 30
0.0
 10
-2.3290300000000004
 20
-3.1476200000000003
 30
0.0
 10
-2.4103100000000004
 20
-2.6447000000000003
 30
0.0
 10
-2.5144500000000001
 20
-2.1595600000000004
 30
0.0
 10
-2.5144500000000001
 20
-2.1595600000000004
 30
0.0
 10
-2.7938500000000004
 20
-1.7379200000000001
 30
0.0
 10
-3.0986500000000001
 20
-1.3391400000000002
 30
0.0
 10
-3.4339300000000001
 20
-0.9606800000000001
 30
0.0
 10
-3.4339300000000001
 20
-0.9606800000000001
 30
0.0
 10
-3.4923500000000001
 20
-0.49586
 30
0.0
 10
-3.2586700000000004
 20
-0.07422
 30
0.0
 10
-3.2942300000000002
 20
0.40583
 30
0.0
 10
-3.2942300000000002
 20
0.40583
 30
0.0
 10
-3.6574500000000003
 20
1.4167500000000002
 30
0.0
 10
-3.6879300000000002
 20
2.5114900000000002
 30
0.0
 10
-3.6091900000000003
 20
3.5630500000000005
 30
0.0
 10
-3.6091900000000003
 20
3.5630500000000005
 30
0.0
 10
-3.0376900000000004
 20
5.01593
 30
0.0
 10
-1.7219700000000002
 20
6.2783100000000003
 30
0.0
 10
-0.11415
 20
6.2783100000000003
 30
0.0
  0
SPLINE
  5
26
100
AcDbEntity
  8
Ebene 1
 62
     7
100
AcDbSpline
210
0.0
220
0.0
230
1.0
 70
     1
 71
     3
 72
    84
 73
    80
 74
     0
 42
0.0000000001
 43
0.0000000001
 40
0.0
 40
0.0
 40
0.0
 40
0.0
 40
0.05
 40
0.05
 40
0.05
 40
0.05
 40
0.1
 40
0.1
 40
0.1
 40
0.1
 40
0.15
 40
0.15
 40
0.15
 40
0.15
 40
0.2
 40
0.2
 40
0.2
 40
0.2
 40
0.25
 40
0.25
 40
0.25
 40
0.25
 40
0.3
 40
0.3
 40
0.3
 40
0.3
 40
0.35
 40
0.35
 40
0.35
 40
0.35
 40
0.4
 40
0.4
 40
0.4
 40
0.4
 40
0.45
 40
0.45
 40
0.45
 40
0.45
 40
0.4999999999999999
 40
0.4999999999999999
 40
0.4999999999999999
 40
0.4999999999999999
 40
0.5499999999999999
 40
0.5499999999999999
 40
0.5499999999999999
 40
0.5499999999999999
 40
0.6
 40
0.6
 40
0.6
 40
0.6
 40
0.65
 40
0.65
 40
0.65
 40
0.65
 40
0.7000000000000001
 40
0.7000000000000001
 40
0.7000000000000001
 40
0.7000000000000001
 40
0.7500000000000001
 40
0.7500000000000001
 40
0.7500000000000001
 40
0.7500000000000001
 40
0.8000000000000002
 40
0.8000000000000002
 40
0.8000000000000002
 40
0.8000000000000002
 40
0.8500000000000002
 40
0.8500000000000002
 40
0.8500000000000002
 40
0.8500000000000002
 40
0.9000000000000002
 40
0.9000000000000002
 40
0.9000000000000002
 40
0.9000000000000002
 40
0.9500000000000003
 40
0.9500000000000003
 40
0.9500000000000003
 40
0.9500000000000003
 40
1.0
 40
1.0
 40
1.0
 40
1.0
 10
-0.05065
 20
6.2148100000000008
 30
0.0
 10
1.2396600000000002
 20
6.0700300000000009
 30
0.0
 10
2.4918800000000001
 20
5.4172500000000001
 30
0.0
 10
3.1192600000000001
 20
4.2158300000000004
 30
0.0
 10
3.1192600000000001
 20
4.2158300000000004
 30
0.0
 10
3.3681800000000002
 20
3.2912700000000004
 30
0.0
 10
3.0049600000000001
 20
2.3209900000000001
 30
0.0
 10
2.4080600000000003
 20
1.6275700000000002
 30
0.0
 10
2.4080600000000003
 20
1.6275700000000002
 30
0.0
 10
2.2886800000000003
 20
1.9298300000000002
 30
0.0
 10
2.1007200000000004
 20
2.2651100000000004
 30
0.0
 10
1.8899000000000001
 20
2.2371700000000003
 30
0.0
 10
1.8899000000000001
 20
2.2371700000000003
 30
0.0
 10
2.3648800000000003
 20
1.7113900000000002
 30
0.0
 10
2.1972400000000003
 20
1.01797
 30
0.0
 10
1.6079600000000001
 20
0.61665
 30
0.0
 10
1.6079600000000001
 20
0.61665
 30
0.0
 10
1.5216000000000001
 20
0.63951
 30
0.0
 10
1.5343000000000002
 20
0.78429
 30
0.0
 10
1.4479400000000002
 20
0.76397
 30
0.0
 10
1.4479400000000002
 20
0.76397
 30
0.0
 10
1.5368400000000002
 20
0.28137
 30
0.0
 10
0.9856600000000001
 20
0.13405
 30
0.0
 10
0.6199
 20
0.17469
 30
0.0
 10
0.6199
 20
0.17469
 30
0.0
 10
0.3532
 20
0.32201
 30
0.0
 10
0.40654
 20
0.89097
 30
0.0
 10
-0.06589
 20
0.82747
 30
0.0
 10
-0.06589
 20
0.82747
 30
0.0
 10
-0.14463
 20
1.53105
 30
0.0
 10
0.09412
 20
2.3235300000000003
 30
0.0
 10
-0.26147
 20
2.63849
 30
0.0
 10
-0.26147
 20
2.63849
 30
0.0
 10
-0.11161
 20
1.8383900000000002
 30
0.0
 10
-0.29449
 20
1.0840100000000001
 30
0.0
 10
-0.47483
 20
0.2635900000000001
 30
0.0
 10
-0.47483
 20
0.2635900000000001
 30
0.0
 10
-0.78217
 20
0.15691
 30
0.0
 10
-1.41971
 20
0.06547
 30
0.0
 10
-1.4374900000000002
 20
0.42361
 30
0.0
 10
-1.4374900000000002
 20
0.42361
 30
0.0
 10
-1.8108700000000002
 20
0.22295
 30
0.0
 10
-2.6846300000000003
 20
0.82747
 30
0.0
 10
-2.4560300000000002
 20
1.3761100000000002
 30
0.0
 10
-2.4560300000000002
 20
1.3761100000000002
 30
0.0
 10
-2.57287
 20
1.4167500000000002
 30
0.0
 10
-2.5449300000000004
 20
1.2491100000000002
 30
0.0
 10
-2.6135100000000002
 20
1.2059300000000002
 30
0.0
 10
-2.6135100000000002
 20
1.2059300000000002
 30
0.0
 10
-3.3526500000000001
 20
2.0695300000000003
 30
0.0
 10
-2.7100300000000002
 20
3.2684100000000003
 30
0.0
 10
-1.8870700000000002
 20
3.7738700000000005
 30
0.0
 10
-1.8870700000000002
 20
3.7738700000000005
 30
0.0
 10
-1.8565900000000002
 20
3.8373700000000004
 30
0.0
 10
-1.7067300000000001
 20
3.7941900000000004
 30
0.0
 10
-1.7397500000000001
 20
3.9008700000000003
 30
0.0
 10
-1.7397500000000001
 20
3.9008700000000003
 30
0.0
 10
-2.4585700000000004
 20
3.6697300000000004
 30
0.0
 10
-2.9487900000000002
 20
2.8696300000000003
 30
0.0
 10
-3.1621500000000005
 20
2.1965300000000001
 30
0.0
 10
-3.1621500000000005
 20
2.1965300000000001
 30
0.0
 10
-3.4059900000000001
 20
2.5318100000000001
 30
0.0
 10
-3.3501100000000004
 20
2.9763100000000002
 30
0.0
 10
-3.2104100000000004
 20
3.3319100000000001
 30
0.0
 10
-3.2104100000000004
 20
3.3319100000000001
 30
0.0
 10
-3.2662900000000001
 20
3.5020900000000004
 30
0.0
 10
-3.3805900000000002
 20
3.1642700000000001
 30
0.0
 10
-3.4339300000000001
 20
3.1007700000000002
 30
0.0
 10
-3.4339300000000001
 20
3.1007700000000002
 30
0.0
 10
-3.6091900000000003
 20
4.0050100000000004
 30
0.0
 10
-2.7633700000000001
 20
5.2064300000000001
 30
0.0
 10
-1.8032500000000002
 20
5.2673900000000007
 30
0.0
 10
-1.8032500000000002
 20
5.2673900000000007
 30
0.0
 10
-1.7041900000000001
 20
5.5010700000000003
 30
0.0
 10
-2.1867900000000002
 20
5.2064300000000001
 30
0.0
 10
-2.31887
 20
5.3105700000000002
 30
0.0
 10
-2.31887
 20
5.3105700000000002
 30
0.0
 10
-1.6965700000000001
 20
5.8795300000000008
 30
0.0
 10
-1.07935
 20
6.2046500000000009
 30
0.0
 10
-0.05065
 20
6.2148100000000008
 30
0.0
  0
SPLINE
  5
27
100
AcDbEntity
  8
Ebene 1
 62
     7
100
AcDbSpline
210
0.0
220
0.0
230
1.0
 70
     1
 71
     3
 72
   148
 73
   144
 74
     0
 42
0.0000000001
 43
0.0000000001
 40
0.0
 40
0.0
 40
0.0
 40
0.0
 40
0.0277777777777778
 40
0.0277777777777778
 40
0.0277777777777778
 40
0.0277777777777778
 40
0.0555555555555556
 40
0.0555555555555556
 40
0.0555555555555556
 40
0.0555555555555556
 40
0.0833333333333333
 40
0.0833333333333333
 40
0.0833333333333333
 40
0.0833333333333333
 40
0.1111111111111111
 40
0.1111111111111111
 40
0.1111111111111111
 40
0.1111111111111111
 40
0.1388888888888889
 40
0.1388888888888889
 40
0.1388888888888889
 40
0.1388888888888889
 40
0.1666666666666667
 40
0.1666666666666667
 40
0.1666666666666667
 40
0.1666666666666667
 40
0.1944444444444445
 40
0.1944444444444445
 40
0.1944444444444445
 40
0.1944444444444445
 40
0.2222222222222223
 40
0.2222222222222223
 40
0.2222222222222223
 40
0.2222222222222223
 40
0.2500000000000001
 40
0.2500000000000001
 40
0.2500000000000001
 40
0.2500000000000001
 40
0.2777777777777779
 40
0.2777777777777779
 40
0.2777777777777779
 40
0.2777777777777779
 40
0.3055555555555556
 40
0.3055555555555556
 40
0.3055555555555556
 40
0.3055555555555556
 40
0.3333333333333334
 40
0.3333333333333334
 40
0.3333333333333334
 40
0.3333333333333334
 40
0.3611111111111112
 40
0.3611111111111112
 40
0.3611111111111112
 40
0.3611111111111112
 40
0.388888888888889
 40
0.388888888888889
 40
0.388888888888889
 40
0.388888888888889
 40
0.4166666666666668
 40
0.4166666666666668
 40
0.4166666666666668
 40
0.4166666666666668
 40
0.4444444444444446
 40
0.4444444444444446
 40
0.4444444444444446
 40
0.4444444444444446
 40
0.4722222222222224
 40
0.4722222222222224
 40
0.4722222222222224
 40
0.4722222222222224
 40
0.5000000000000001
 40
0.5000000000000001
 40
0.5000000000000001
 40
0.5000000000000001
 40
0.5277777777777779
 40
0.5277777777777779
 40
0.5277777777777779
 40
0.5277777777777779
 40
0.5555555555555557
 40
0.5555555555555557
 40
0.5555555555555557
 40
0.5555555555555557
 40
0.5833333333333335
 40
0.5833333333333335
 40
0.5833333333333335
 40
0.5833333333333335
 40
0.6111111111111113
 40
0.6111111111111113
 40
0.6111111111111113
 40
0.6111111111111113
 40
0.6388888888888891
 40
0.6388888888888891
 40
0.6388888888888891
 40
0.6388888888888891
 40
0.6666666666666669
 40
0.6666666666666669
 40
0.6666666666666669
 40
0.6666666666666669
 40
0.6944444444444446
 40
0.6944444444444446
 40
0.6944444444444446
 40
0.6944444444444446
 40
0.7222222222222224
 40
0.7222222222222224
 40
0.7222222222222224
 40
0.7222222222222224
 40
0.7500000000000002
 40
0.7500000000000002
 40
0.7500000000000002
 40
0.7500000000000002
 40
0.777777777777778
 40
0.777777777777778
 40
0.777777777777778
 40
0.777777777777778
 40
0.8055555555555558
 40
0.8055555555555558
 40
0.8055555555555558
 40
0.8055555555555558
 40
0.8333333333333336
 40
0.8333333333333336
 40
0.8333333333333336
 40
0.8333333333333336
 40
0.8611111111111114
 40
0.8611111111111114
 40
0.8611111111111114
 40
0.8611111111111114
 40
0.8888888888888892
 40
0.8888888888888892
 40
0.8888888888888892
 40
0.8888888888888892
 40
0.916666666666667
 40
0.916666666666667
 40
0.916666666666667
 40
0.916666666666667
 40
0.9444444444444448
 40
0.9444444444444448
 40
0.9444444444444448
 40
0.9444444444444448
 40
0.9722222222222225
 40
0.9722222222222225
 40
0.9722222222222225
 40
0.9722222222222225
 40
1.0
 40
1.0
 40
1.0
 40
1.0
 10
3.3148400000000002
 20
3.6265500000000004
 30
0.0
 10
3.4012000000000002
 20
3.5046300000000001
 30
0.0
 10
3.4697800000000001
 20
3.2760300000000004
 30
0.0
 10
3.5358200000000002
 20
3.0753700000000004
 30
0.0
 10
3.5358200000000002
 20
3.0753700000000004
 30
0.0
 10
3.5434400000000004
 20
1.7494900000000002
 30
0.0
 10
2.9236800000000001
 20
0.44901
 30
0.0
 10
3.5256600000000002
 20
-0.8311400000000001
 30
0.0
 10
3.5256600000000002
 20
-0.8311400000000001
 30
0.0
 10
3.4545400000000002
 20
-0.9606800000000001
 30
0.0
 10
3.4748600000000005
 20
-0.7066800000000001
 30
0.0
 10
3.3834200000000001
 20
-0.7498600000000001
 30
0.0
 10
3.3834200000000001
 20
-0.7498600000000001
 30
0.0
 10
3.4545400000000002
 20
-1.6972800000000001
 30
0.0
 10
2.5249000000000001
 20
-2.3907000000000003
 30
0.0
 10
1.8822800000000002
 20
-2.7894800000000002
 30
0.0
 10
1.8822800000000002
 20
-2.7894800000000002
 30
0.0
 10
1.6409800000000001
 20
-2.8326600000000002
 30
0.0
 10
1.4962000000000002
 20
-2.6218400000000002
 30
0.0
 10
1.3006200000000001
 20
-2.5583400000000003
 30
0.0
 10
1.3006200000000001
 20
-2.5583400000000003
 30
0.0
 10
1.3768200000000002
 20
-2.8326600000000002
 30
0.0
 10
1.4682600000000001
 20
-3.1273000000000004
 30
0.0
 10
1.4581000000000002
 20
-3.4448000000000003
 30
0.0
 10
1.4581000000000002
 20
-3.4448000000000003
 30
0.0
 10
1.35904
 20
-3.2949400000000004
 30
0.0
 10
1.3946000000000001
 20
-2.9596600000000004
 30
0.0
 10
1.2142600000000001
 20
-2.8961600000000001
 30
0.0
 10
1.2142600000000001
 20
-2.8961600000000001
 30
0.0
 10
1.2193400000000001
 20
-3.0638000000000001
 30
0.0
 10
1.4504800000000002
 20
-3.4016200000000003
 30
0.0
 10
1.23712
 20
-3.4854400000000001
 30
0.0
 10
1.23712
 20
-3.4854400000000001
 30
0.0
 10
1.2015600000000002
 20
-3.2949400000000004
 30
0.0
 10
1.2117200000000001
 20
-2.8961600000000001
 30
0.0
 10
1.06186
 20
-2.8758400000000002
 30
0.0
 10
1.06186
 20
-2.8758400000000002
 30
0.0
 10
1.06186
 20
-2.8758400000000002
 30
0.0
 10
1.1634600000000002
 20
-3.7597600000000004
 30
0.0
 10
1.1634600000000002
 20
-3.7597600000000004
 30
0.0
 10
1.1634600000000002
 20
-3.7597600000000004
 30
0.0
 10
0.9170800000000001
 20
-3.7165800000000004
 30
0.0
 10
0.9094600000000001
 20
-3.9274000000000004
 30
0.0
 10
0.8358000000000001
 20
-3.4448000000000003
 30
0.0
 10
0.8358000000000001
 20
-3.4448000000000003
 30
0.0
 10
0.7951600000000001
 20
-3.7165800000000004
 30
0.0
 10
0.5030600000000001
 20
-4.30586
 30
0.0
 10
0.42432
 20
-3.8842200000000005
 30
0.0
 10
0.42432
 20
-3.8842200000000005
 30
0.0
 10
0.36336
 20
-4.2017200000000008
 30
0.0
 10
0.34812
 20
-4.0315400000000006
 30
0.0
 10
0.17794
 20
-3.8639000000000001
 30
0.0
 10
0.17794
 20
-3.8639000000000001
 30
0.0
 10
0.13984
 20
-4.0747200000000001
 30
0.0
 10
-0.13447
 20
-4.13314
 30
0.0
 10
-0.12431
 20
-4.0061400000000003
 30
0.0
 10
-0.12431
 20
-4.0061400000000003
 30
0.0
 10
-0.11161
 20
-3.8004000000000002
 30
0.0
 10
-0.16495
 20
-3.6657800000000003
 30
0.0
 10
-0.22337
 20
-3.7496000000000005
 30
0.0
 10
-0.22337
 20
-3.7496000000000005
 30
0.0
 10
-0.27671
 20
-4.0442400000000003
 30
0.0
 10
-0.6881900000000001
 20
-3.8232600000000003
 30
0.0
 10
-0.5383300000000001
 20
-3.4625800000000004
 30
0.0
 10
-0.5383300000000001
 20
-3.4625800000000004
 30
0.0
 10
-0.65517
 20
-3.1577800000000003
 30
0.0
 10
-0.7288300000000001
 20
-3.6911800000000001
 30
0.0
 10
-0.8126500000000001
 20
-3.6327600000000002
 30
0.0
 10
-0.8126500000000001
 20
-3.6327600000000002
 30
0.0
 10
-0.99553
 20
-3.5057600000000004
 30
0.0
 10
-1.11999
 20
-2.9215600000000004
 30
0.0
 10
-0.9193300000000001
 20
-2.5151600000000003
 30
0.0
 10
-0.9193300000000001
 20
-2.5151600000000003
 30
0.0
 10
-1.1326900000000002
 20
-2.6650200000000002
 30
0.0
 10
-1.3155700000000001
 20
-2.9596600000000004
 30
0.0
 10
-1.63053
 20
-2.9164800000000004
 30
0.0
 10
-1.63053
 20
-2.9164800000000004
 30
0.0
 10
-2.1817100000000003
 20
-2.3475200000000003
 30
0.0
 10
-3.0681700000000003
 20
-1.6744200000000002
 30
0.0
 10
-3.0199100000000003
 20
-0.7701800000000001
 30
0.0
 10
-3.0199100000000003
 20
-0.7701800000000001
 30
0.0
 10
-3.5355300000000005
 20
-1.37978
 30
0.0
 10
-3.2586700000000004
 20
0.07055
 30
0.0
 10
-3.0199100000000003
 20
0.42869
 30
0.0
 10
-3.0199100000000003
 20
0.42869
 30
0.0
 10
-3.1265900000000002
 20
0.51251
 30
0.0
 10
-3.1367500000000001
 20
0.23819
 30
0.0
 10
-3.2231100000000001
 20
0.23819
 30
0.0
 10
-3.2231100000000001
 20
0.23819
 30
0.0
 10
-3.2180300000000002
 20
1.0992500000000001
 30
0.0
 10
-3.6549100000000001
 20
1.9272900000000002
 30
0.0
 10
-3.4821900000000001
 20
2.8899500000000002
 30
0.0
 10
-3.4821900000000001
 20
2.8899500000000002
 30
0.0
 10
-3.3043900000000002
 20
2.4911700000000003
 30
0.0
 10
-3.3907500000000002
 20
2.0466700000000002
 30
0.0
 10
-3.2866100000000005
 20
1.6275700000000002
 30
0.0
 10
-3.2866100000000005
 20
1.6275700000000002
 30
0.0
 10
-3.1723100000000004
 20
1.7317100000000001
 30
0.0
 10
-3.3424900000000002
 20
1.9857100000000001
 30
0.0
 10
-3.2104100000000004
 20
2.1127100000000003
 30
0.0
 10
-3.2104100000000004
 20
2.1127100000000003
 30
0.0
 10
-2.8700500000000004
 20
1.6504300000000001
 30
0.0
 10
-2.8548100000000001
 20
1.10179
 30
0.0
 10
-2.8878300000000001
 20
0.51251
 30
0.0
 10
-2.8878300000000001
 20
0.51251
 30
0.0
 10
-2.8878300000000001
 20
0.51251
 30
0.0
 10
-2.7252700000000001
 20
1.1856100000000001
 30
0.0
 10
-2.7252700000000001
 20
1.1856100000000001
 30
0.0
 10
-2.7252700000000001
 20
1.1856100000000001
 30
0.0
 10
-2.36205
 20
0.49219
 30
0.0
 10
-1.54925
 20
0.04769
 30
0.0
 10
-0.7491500000000001
 20
0.00705
 30
0.0
 10
-0.7491500000000001
 20
0.00705
 30
0.0
 10
-0.65771
 20
-0.1809
 30
0.0
 10
-0.71867
 20
-0.41204
 30
0.0
 10
-0.61453
 20
-0.6025400000000001
 30
0.0
 10
-0.61453
 20
-0.6025400000000001
 30
0.0
 10
-0.5434100000000001
 20
-0.43236
 30
0.0
 10
-0.6678700000000001
 20
-0.0539
 30
0.0
 10
-0.41387
 20
0.02737
 30
0.0
 10
-0.41387
 20
0.02737
 30
0.0
 10
-0.48753
 20
-0.38918
 30
0.0
 10
-0.17511
 20
-0.5415800000000001
 30
0.0
 10
0.06618
 20
-0.6889000000000001
 30
0.0
 10
0.06618
 20
-0.6889000000000001
 30
0.0
 10
0.1754
 20
-0.75748
 30
0.0
 10
0.21096
 20
-1.12578
 30
0.0
 10
0.3252600000000001
 20
-0.9175000000000001
 30
0.0
 10
0.3252600000000001
 20
-0.9175000000000001
 30
0.0
 10
0.17794
 20
-0.32822
 30
0.0
 10
0.66054
 20
-0.5161800000000001
 30
0.0
 10
0.47766
 20
0.07055
 30
0.0
 10
0.47766
 20
0.07055
 30
0.0
 10
1.6765400000000001
 20
0.02737
 30
0.0
 10
2.2683600000000004
 20
1.2897500000000002
 30
0.0
 10
2.9135200000000001
 20
2.1330300000000002
 30
0.0
 10
2.9135200000000001
 20
2.1330300000000002
 30
0.0
 10
2.9770200000000004
 20
1.6021700000000001
 30
0.0
 10
2.9338400000000004
 20
1.3075300000000001
 30
0.0
 10
3.0989400000000002
 20
1.5437500000000002
 30
0.0
 10
3.0989400000000002
 20
1.5437500000000002
 30
0.0
 10
2.92876
 20
2.2803500000000003
 30
0.0
 10
3.2157800000000001
 20
2.9128100000000003
 30
0.0
 10
3.3148400000000002
 20
3.6265500000000004
 30
0.0
  0
SPLINE
  5
28
100
AcDbEntity
  8
Ebene 1
 62
     7
100
AcDbSpline
210
0.0
220
0.0
230
1.0
 70
     1
 71
     3
 72
    16
 73
    12
 74
     0
 42
0.0000000001
 43
0.0000000001
 40
0.0
 40
0.0
 40
0.0
 40
0.0
 40
0.3333333333333333
 40
0.3333333333333333
 40
0.3333333333333333
 40
0.3333333333333333
 40
0.6666666666666666
 40
0.6666666666666666
 40
0.6666666666666666
 40
0.6666666666666666
 40
1.0
 40
1.0
 40
1.0
 40
1.0
 10
-0.03033
 20
0.72079
 30
0.0
 10
0.5843400000000001
 20
0.74365
 30
0.0
 10
0.5437000000000001
 20
-0.39172
 30
0.0
 10
0.03062
 20
-0.5161800000000001
 30
0.0
 10
0.03062
 20
-0.5161800000000001
 30
0.0
 10
-0.30465
 20
-0.49586
 30
0.0
 10
-0.30973
 20
-0.13772
 30
0.0
 10
-0.26147
 20
0.11119
 30
0.0
 10
-0.26147
 20
0.11119
 30
0.0
 10
-0.34021
 20
0.34233
 30
0.0
 10
-0.30465
 20
0.68015
 30
0.0
 10
-0.03033
 20
0.72079
 30
0.0
  0
SPLINE
  5
29
100
AcDbEntity
  8
Ebene 1
100
AcDbSpline
210
0.0
220
0.0
230
1.0
 70
     1
 71
     3
 72
    12
 73
     8
 74
     0
 42
0.0000000001
 43
0.0000000001
 40
0.0
 40
0.0
 40
0.0
 40
0.0
 40
0.5
 40
0.5
 40
0.5
 40
0.5
 40
1.0
 40
1.0
 40
1.0
 40
1.0
 10
-0.03033
 20
0.65983
 30
0.0
 10
0.23382
 20
0.70301
 30
0.0
 10
0.32018
 20
0.28137
 30
0.0
 10
0.07126
 20
0.19501
 30
0.0
 10
0.07126
 20
0.19501
 30
0.0
 10
-0.25639
 20
0.11119
 30
0.0
 10
-0.3122700000000001
 20
0.57347
 30
0.0
 10
-0.03033
 20
0.65983
 30
0.0
  0
SPLINE
  5
2A
100
AcDbEntity
  8
Ebene 1
 62
     7
100
AcDbSpline
210
0.0
220
0.0
230
1.0
 70
     1
 71
     3
 72
    12
 73
     8
 74
     0
 42
0.0000000001
 43
0.0000000001
 40
0.0
 40
0.0
 40
0.0
 40
0.0
 40
0.5
 40
0.5
 40
0.5
 40
0.5
 40
1.0
 40
1.0
 40
1.0
 40
1.0
 10
-0.03033
 20
0.57347
 30
0.0
 10
0.14238
 20
0.59633
 30
0.0
 10
-0.22337
 20
0.25851
 30
0.0
 10
-0.11415
 20
0.46933
 30
0.0
 10
-0.11415
 20
0.46933
 30
0.0
 10
-0.11415
 20
0.46933
 30
0.0
 10
-0.03033
 20
0.57347
 30
0.0
 10
-0.03033
 20
0.57347
 30
0.0
  0
SPLINE
  5
2B
100
AcDbEntity
  8
Ebene 1
 62
     7
100
AcDbSpline
210
0.0
220
0.0
230
1.0
 70
     1
 71
     3
 72
    12
 73
     8
 74
     0
 42
0.0000000001
 43
0.0000000001
 40
0.0
 40
0.0
 40
0.0
 40
0.0
 40
0.5
 40
0.5
 40
0.5
 40
0.5
 40
1.0
 40
1.0
 40
1.0
 40
1.0
 10
0.11444
 20
0.44901
 30
0.0
 10
0.18302
 20
0.38551
 30
0.0
 10
0.06364
 20
0.23819
 30
0.0
 10
-0.02525
 20
0.28137
 30
0.0
 10
-0.02525
 20
0.28137
 30
0.0
 10
-0.02525
 20
0.28137
 30
0.0
 10
0.11444
 20
0.44901
 30
0.0
 10
0.11444
 20
0.44901
 30
0.0
  0
SPLINE
  5
2C
100
AcDbEntity
  8
Ebene 1
100
AcDbSpline
210
0.0
220
0.0
230
1.0
 70
     1
 71
     3
 72
    24
 73
    20
 74
     0
 42
0.0000000001
 43
0.0000000001
 40
0.0
 40
0.0
 40
0.0
 40
0.0
 40
0.2
 40
0.2
 40
0.2
 40
0.2
 40
0.4
 40
0.4
 40
0.4
 40
0.4
 40
0.6000000000000001
 40
0.6000000000000001
 40
0.6000000000000001
 40
0.6000000000000001
 40
0.8
 40
0.8
 40
0.8
 40
0.8
 40
1.0
 40
1.0
 40
1.0
 40
1.0
 10
-1.7346700000000002
 20
0.15437
 30
0.0
 10
-1.7346700000000002
 20
0.15437
 30
0.0
 10
-1.6762500000000002
 20
0.15437
 30
0.0
 10
-1.6762500000000002
 20
0.15437
 30
0.0
 10
-1.6762500000000002
 20
0.15437
 30
0.0
 10
-1.5314700000000001
 20
-0.20122
 30
0.0
 10
-1.00315
 20
-0.20122
 30
0.0
 10
-0.8990100000000001
 20
-0.5390400000000001
 30
0.0
 10
-0.8990100000000001
 20
-0.5390400000000001
 30
0.0
 10
-0.8990100000000001
 20
-0.5390400000000001
 30
0.0
 10
-1.0133100000000002
 20
-0.5390400000000001
 30
0.0
 10
-1.0133100000000002
 20
-0.5390400000000001
 30
0.0
 10
-1.0133100000000002
 20
-0.5390400000000001
 30
0.0
 10
-1.2342900000000001
 20
-0.28504
 30
0.0
 10
-1.5568700000000002
 20
-0.20122
 30
0.0
 10
-1.75753
 20
0.07055
 30
0.0
 10
-1.75753
 20
0.07055
 30
0.0
 10
-1.7626100000000002
 20
0.11119
 30
0.0
 10
-1.7499100000000001
 20
0.13405
 30
0.0
 10
-1.7346700000000002
 20
0.15437
 30
0.0
  0
SPLINE
  5
2D
100
AcDbEntity
  8
Ebene 1
100
AcDbSpline
210
0.0
220
0.0
230
1.0
 70
     1
 71
     3
 72
    12
 73
     8
 74
     0
 42
0.0000000001
 43
0.0000000001
 40
0.0
 40
0.0
 40
0.0
 40
0.0
 40
0.5
 40
0.5
 40
0.5
 40
0.5
 40
1.0
 40
1.0
 40
1.0
 40
1.0
 10
-0.05065
 20
0.00705
 30
0.0
 10
0.23382
 20
0.11119
 30
0.0
 10
0.3405
 20
-0.24186
 30
0.0
 10
0.10936
 20
-0.3714
 30
0.0
 10
0.10936
 20
-0.3714
 30
0.0
 10
-0.15987
 20
-0.49586
 30
0.0
 10
-0.29449
 20
-0.07422
 30
0.0
 10
-0.05065
 20
0.00705
 30
0.0
  0
SPLINE
  5
2E
100
AcDbEntity
  8
Ebene 1
100
AcDbSpline
210
0.0
220
0.0
230
1.0
 70
     1
 71
     3
 72
    64
 73
    60
 74
     0
 42
0.0000000001
 43
0.0000000001
 40
0.0
 40
0.0
 40
0.0
 40
0.0
 40
0.0666666666666667
 40
0.0666666666666667
 40
0.0666666666666667
 40
0.0666666666666667
 40
0.1333333333333333
 40
0.1333333333333333
 40
0.1333333333333333
 40
0.1333333333333333
 40
0.2
 40
0.2
 40
0.2
 40
0.2
 40
0.2666666666666667
 40
0.2666666666666667
 40
0.2666666666666667
 40
0.2666666666666667
 40
0.3333333333333333
 40
0.3333333333333333
 40
0.3333333333333333
 40
0.3333333333333333
 40
0.4
 40
0.4
 40
0.4
 40
0.4
 40
0.4666666666666666
 40
0.4666666666666666
 40
0.4666666666666666
 40
0.4666666666666666
 40
0.5333333333333333
 40
0.5333333333333333
 40
0.5333333333333333
 40
0.5333333333333333
 40
0.6
 40
0.6
 40
0.6
 40
0.6
 40
0.6666666666666666
 40
0.6666666666666666
 40
0.6666666666666666
 40
0.6666666666666666
 40
0.7333333333333333
 40
0.7333333333333333
 40
0.7333333333333333
 40
0.7333333333333333
 40
0.7999999999999999
 40
0.7999999999999999
 40
0.7999999999999999
 40
0.7999999999999999
 40
0.8666666666666666
 40
0.8666666666666666
 40
0.8666666666666666
 40
0.8666666666666666
 40
0.9333333333333332
 40
0.9333333333333332
 40
0.9333333333333332
 40
0.9333333333333332
 40
1.0
 40
1.0
 40
1.0
 40
1.0
 10
2.5985600000000004
 20
-0.03358
 30
0.0
 10
2.67984
 20
-0.01326
 30
0.0
 10
2.7509600000000001
 20
-0.0539
 30
0.0
 10
2.8271600000000001
 20
-0.0539
 30
0.0
 10
2.8271600000000001
 20
-0.0539
 30
0.0
 10
2.8830400000000003
 20
-0.22408
 30
0.0
 10
2.6595200000000001
 20
-0.0539
 30
0.0
 10
2.6595200000000001
 20
-0.16058
 30
0.0
 10
2.6595200000000001
 20
-0.16058
 30
0.0
 10
2.8398600000000003
 20
-0.32822
 30
0.0
 10
2.7052400000000003
 20
-0.8743200000000001
 30
0.0
 10
2.9567000000000001
 20
-0.7270000000000001
 30
0.0
 10
2.9567000000000001
 20
-0.7270000000000001
 30
0.0
 10
2.9084400000000001
 20
-0.8971800000000001
 30
0.0
 10
2.3953600000000002
 20
-1.4636
 30
0.0
 10
2.7890600000000001
 20
-1.25278
 30
0.0
 10
2.7890600000000001
 20
-1.25278
 30
0.0
 10
2.8373200000000001
 20
-1.2324600000000001
 30
0.0
 10
2.8373200000000001
 20
-1.29596
 30
0.0
 10
2.8271600000000001
 20
-1.3391400000000002
 30
0.0
 10
2.8271600000000001
 20
-1.3391400000000002
 30
0.0
 10
2.3902800000000002
 20
-1.6972800000000001
 30
0.0
 10
1.8035400000000001
 20
-1.6972800000000001
 30
0.0
 10
1.32094
 20
-1.9081000000000001
 30
0.0
 10
1.32094
 20
-1.9081000000000001
 30
0.0
 10
1.2574400000000001
 20
-2.1367000000000003
 30
0.0
 10
1.6511400000000001
 20
-2.1189200000000001
 30
0.0
 10
1.5876400000000002
 20
-2.2433800000000002
 30
0.0
 10
1.5876400000000002
 20
-2.2433800000000002
 30
0.0
 10
1.5876400000000002
 20
-2.2433800000000002
 30
0.0
 10
1.3819000000000001
 20
-2.2230600000000003
 30
0.0
 10
1.3819000000000001
 20
-2.2230600000000003
 30
0.0
 10
1.3819000000000001
 20
-2.2230600000000003
 30
0.0
 10
1.1533
 20
-1.7176000000000002
 30
0.0
 10
0.66308
 20
-1.5499600000000002
 30
0.0
 10
0.24144
 20
-1.2756400000000001
 30
0.0
 10
0.24144
 20
-1.2756400000000001
 30
0.0
 10
0.24652
 20
-1.25278
 30
0.0
 10
0.277
 20
-1.2324600000000001
 30
0.0
 10
0.30494
 20
-1.2324600000000001
 30
0.0
 10
0.30494
 20
-1.2324600000000001
 30
0.0
 10
0.74436
 20
-1.5067800000000002
 30
0.0
 10
1.3539600000000001
 20
-1.1892800000000001
 30
0.0
 10
1.48858
 20
-0.7066800000000001
 30
0.0
 10
1.48858
 20
-0.7066800000000001
 30
0.0
 10
1.5622400000000001
 20
-0.6863600000000001
 30
0.0
 10
1.5419200000000002
 20
-0.7701800000000001
 30
0.0
 10
1.5520800000000001
 20
-0.8108200000000001
 30
0.0
 10
1.5520800000000001
 20
-0.8108200000000001
 30
0.0
 10
1.78068
 20
-0.6025400000000001
 30
0.0
 10
1.9229200000000002
 20
-0.32822
 30
0.0
 10
2.1007200000000004
 20
-0.07422
 30
0.0
 10
2.1007200000000004
 20
-0.07422
 30
0.0
 10
2.1159600000000003
 20
-0.07422
 30
0.0
 10
2.1566000000000001
 20
-0.07422
 30
0.0
 10
2.1566000000000001
 20
-0.09454
 30
0.0
 10
2.1566000000000001
 20
-0.09454
 30
0.0
 10
2.0321400000000001
 20
-0.45268
 30
0.0
 10
2.4283800000000002
 20
0.00705
 30
0.0
 10
2.5985600000000004
 20
-0.03358
 30
0.0
  0
SPLINE
  5
2F
100
AcDbEntity
  8
Ebene 1
 62
     7
100
AcDbSpline
210
0.0
220
0.0
230
1.0
 70
     1
 71
     3
 72
    12
 73
     8
 74
     0
 42
0.0000000001
 43
0.0000000001
 40
0.0
 40
0.0
 40
0.0
 40
0.0
 40
0.5
 40
0.5
 40
0.5
 40
0.5
 40
1.0
 40
1.0
 40
1.0
 40
1.0
 10
-0.07351
 20
-0.07422
 30
0.0
 10
0.00776
 20
-0.07422
 30
0.0
 10
-0.05319
 20
-0.1809
 30
0.0
 10
-0.07605
 20
-0.22408
 30
0.0
 10
-0.07605
 20
-0.22408
 30
0.0
 10
-0.12939
 20
-0.1809
 30
0.0
 10
-0.09383
 20
-0.1174
 30
0.0
 10
-0.07351
 20
-0.07422
 30
0.0
  0
SPLINE
  5
30
100
AcDbEntity
  8
Ebene 1
 62
     7
100
AcDbSpline
210
0.0
220
0.0
230
1.0
 70
     1
 71
     3
 72
    12
 73
     8
 74
     0
 42
0.0000000001
 43
0.0000000001
 40
0.0
 40
0.0
 40
0.0
 40
0.0
 40
0.5
 40
0.5
 40
0.5
 40
0.5
 40
1.0
 40
1.0
 40
1.0
 40
1.0
 10
0.09412
 20
-0.07422
 30
0.0
 10
0.22366
 20
-0.07422
 30
0.0
 10
0.1119
 20
-0.30536
 30
0.0
 10
0.01538
 20
-0.28504
 30
0.0
 10
0.01538
 20
-0.28504
 30
0.0
 10
0.01538
 20
-0.28504
 30
0.0
 10
0.09412
 20
-0.07422
 30
0.0
 10
0.09412
 20
-0.07422
 30
0.0
  0
SPLINE
  5
31
100
AcDbEntity
  8
Ebene 1
100
AcDbSpline
210
0.0
220
0.0
230
1.0
 70
     1
 71
     3
 72
    24
 73
    20
 74
     0
 42
0.0000000001
 43
0.0000000001
 40
0.0
 40
0.0
 40
0.0
 40
0.0
 40
0.2
 40
0.2
 40
0.2
 40
0.2
 40
0.4
 40
0.4
 40
0.4
 40
0.4
 40
0.6000000000000001
 40
0.6000000000000001
 40
0.6000000000000001
 40
0.6000000000000001
 40
0.8
 40
0.8
 40
0.8
 40
0.8
 40
1.0
 40
1.0
 40
1.0
 40
1.0
 10
1.39714
 20
-0.20122
 30
0.0
 10
1.4327000000000001
 20
-0.20122
 30
0.0
 10
1.4962000000000002
 20
-0.1809
 30
0.0
 10
1.4835
 20
-0.24186
 30
0.0
 10
1.4835
 20
-0.24186
 30
0.0
 10
1.1787000000000001
 20
-0.43236
 30
0.0
 10
0.8942200000000001
 20
-0.6431800000000001
 30
0.0
 10
0.658
 20
-0.9175000000000001
 30
0.0
 10
0.658
 20
-0.9175000000000001
 30
0.0
 10
0.658
 20
-0.9175000000000001
 30
0.0
 10
0.5843400000000001
 20
-0.9175000000000001
 30
0.0
 10
0.5843400000000001
 20
-0.9175000000000001
 30
0.0
 10
0.5843400000000001
 20
-0.9175000000000001
 30
0.0
 10
0.5843400000000001
 20
-0.9175000000000001
 30
0.0
 10
0.5843400000000001
 20
-0.8108200000000001
 30
0.0
 10
0.5843400000000001
 20
-0.8108200000000001
 30
0.0
 10
0.5843400000000001
 20
-0.8108200000000001
 30
0.0
 10
0.8231000000000001
 20
-0.5593600000000001
 30
0.0
 10
1.0974200000000001
 20
-0.3714
 30
0.0
 10
1.39714
 20
-0.20122
 30
0.0
  0
SPLINE
  5
32
100
AcDbEntity
  8
Ebene 1
100
AcDbSpline
210
0.0
220
0.0
230
1.0
 70
     1
 71
     3
 72
    52
 73
    48
 74
     0
 42
0.0000000001
 43
0.0000000001
 40
0.0
 40
0.0
 40
0.0
 40
0.0
 40
0.0833333333333333
 40
0.0833333333333333
 40
0.0833333333333333
 40
0.0833333333333333
 40
0.1666666666666667
 40
0.1666666666666667
 40
0.1666666666666667
 40
0.1666666666666667
 40
0.25
 40
0.25
 40
0.25
 40
0.25
 40
0.3333333333333333
 40
0.3333333333333333
 40
0.3333333333333333
 40
0.3333333333333333
 40
0.4166666666666666
 40
0.4166666666666666
 40
0.4166666666666666
 40
0.4166666666666666
 40
0.4999999999999999
 40
0.4999999999999999
 40
0.4999999999999999
 40
0.4999999999999999
 40
0.5833333333333333
 40
0.5833333333333333
 40
0.5833333333333333
 40
0.5833333333333333
 40
0.6666666666666666
 40
0.6666666666666666
 40
0.6666666666666666
 40
0.6666666666666666
 40
0.75
 40
0.75
 40
0.75
 40
0.75
 40
0.8333333333333334
 40
0.8333333333333334
 40
0.8333333333333334
 40
0.8333333333333334
 40
0.9166666666666667
 40
0.9166666666666667
 40
0.9166666666666667
 40
0.9166666666666667
 40
1.0
 40
1.0
 40
1.0
 40
1.0
 10
-2.5347700000000004
 20
-0.26472
 30
0.0
 10
-2.1613900000000004
 20
-0.16058
 30
0.0
 10
-2.0369300000000004
 20
-0.5390400000000001
 30
0.0
 10
-1.8134100000000002
 20
-0.7498600000000001
 30
0.0
 10
-1.8134100000000002
 20
-0.7498600000000001
 30
0.0
 10
-1.7372100000000001
 20
-0.6635000000000001
 30
0.0
 10
-1.7905500000000001
 20
-0.41204
 30
0.0
 10
-1.6356100000000002
 20
-0.41204
 30
0.0
 10
-1.6356100000000002
 20
-0.41204
 30
0.0
 10
-1.9073900000000001
 20
-0.7701800000000001
 30
0.0
 10
-1.2673100000000002
 20
-1.3594600000000001
 30
0.0
 10
-1.08443
 20
-0.9810000000000001
 30
0.0
 10
-1.08443
 20
-0.9810000000000001
 30
0.0
 10
-0.9853700000000001
 20
-1.3391400000000002
 30
0.0
 10
-0.53071
 20
-1.4001000000000001
 30
0.0
 10
-0.24115
 20
-1.3162800000000001
 30
0.0
 10
-0.24115
 20
-1.3162800000000001
 30
0.0
 10
-0.24115
 20
-1.3162800000000001
 30
0.0
 10
-0.80249
 20
-1.7582400000000002
 30
0.0
 10
-0.80249
 20
-1.7582400000000002
 30
0.0
 10
-0.80249
 20
-1.7582400000000002
 30
0.0
 10
-1.0234700000000001
 20
-1.8446000000000002
 30
0.0
 10
-1.2165100000000002
 20
-2.4745200000000001
 30
0.0
 10
-1.3282700000000001
 20
-2.1595600000000004
 30
0.0
 10
-1.3282700000000001
 20
-2.1595600000000004
 30
0.0
 10
-1.3943100000000002
 20
-2.2230600000000003
 30
0.0
 10
-1.5086100000000002
 20
-2.2865600000000001
 30
0.0
 10
-1.5822700000000001
 20
-2.2230600000000003
 30
0.0
 10
-1.5822700000000001
 20
-2.2230600000000003
 30
0.0
 10
-1.5340100000000001
 20
-2.1189200000000001
 30
0.0
 10
-1.3841500000000002
 20
-2.1189200000000001
 30
0.0
 10
-1.33589
 20
-2.0122400000000003
 30
0.0
 10
-1.33589
 20
-2.0122400000000003
 30
0.0
 10
-1.33589
 20
-2.0122400000000003
 30
0.0
 10
-1.4451100000000001
 20
-1.8852400000000002
 30
0.0
 10
-1.4451100000000001
 20
-1.8852400000000002
 30
0.0
 10
-1.4451100000000001
 20
-1.8852400000000002
 30
0.0
 10
-2.1004300000000002
 20
-1.7785600000000001
 30
0.0
 10
-2.6439900000000001
 20
-1.1080000000000001
 30
0.0
 10
-2.3493500000000003
 20
-0.45268
 30
0.0
 10
-2.3493500000000003
 20
-0.45268
 30
0.0
 10
-2.4255500000000003
 20
-0.32822
 30
0.0
 10
-2.56779
 20
-0.39172
 30
0.0
 10
-2.6211300000000004
 20
-0.49586
 30
0.0
 10
-2.6211300000000004
 20
-0.49586
 30
0.0
 10
-2.7684500000000001
 20
-0.47554
 30
0.0
 10
-2.6160500000000004
 20
-0.28504
 30
0.0
 10
-2.5347700000000004
 20
-0.26472
 30
0.0
  0
SPLINE
  5
33
100
AcDbEntity
  8
Ebene 1
100
AcDbSpline
210
0.0
220
0.0
230
1.0
 70
     1
 71
     3
 72
    20
 73
    16
 74
     0
 42
0.0000000001
 43
0.0000000001
 40
0.0
 40
0.0
 40
0.0
 40
0.0
 40
0.25
 40
0.25
 40
0.25
 40
0.25
 40
0.5
 40
0.5
 40
0.5
 40
0.5
 40
0.75
 40
0.75
 40
0.75
 40
0.75
 40
1.0
 40
1.0
 40
1.0
 40
1.0
 10
-0.38847
 20
-0.8311400000000001
 30
0.0
 10
-0.3122700000000001
 20
-0.8108200000000001
 30
0.0
 10
-0.30465
 20
-0.8971800000000001
 30
0.0
 10
-0.27671
 20
-0.9606800000000001
 30
0.0
 10
-0.27671
 20
-0.9606800000000001
 30
0.0
 10
-0.27671
 20
-0.9606800000000001
 30
0.0
 10
-0.24623
 20
-0.9810000000000001
 30
0.0
 10
-0.24623
 20
-0.9810000000000001
 30
0.0
 10
-0.24623
 20
-0.9810000000000001
 30
0.0
 10
-0.07605
 20
-0.9175000000000001
 30
0.0
 10
-0.23861
 20
-1.12832
 30
0.0
 10
-0.32497
 20
-1.12832
 30
0.0
 10
-0.32497
 20
-1.12832
 30
0.0
 10
-0.39863
 20
-1.0648200000000001
 30
0.0
 10
-0.47229
 20
-0.8971800000000001
 30
0.0
 10
-0.38847
 20
-0.8311400000000001
 30
0.0
  0
SPLINE
  5
34
100
AcDbEntity
  8
Ebene 1
 62
     7
100
AcDbSpline
210
0.0
220
0.0
230
1.0
 70
     1
 71
     3
 72
    16
 73
    12
 74
     0
 42
0.0000000001
 43
0.0000000001
 40
0.0
 40
0.0
 40
0.0
 40
0.0
 40
0.3333333333333333
 40
0.3333333333333333
 40
0.3333333333333333
 40
0.3333333333333333
 40
0.6666666666666666
 40
0.6666666666666666
 40
0.6666666666666666
 40
0.6666666666666666
 40
1.0
 40
1.0
 40
1.0
 40
1.0
 10
1.7984600000000002
 20
-1.1715
 30
0.0
 10
2.1032600000000001
 20
-1.1892800000000001
 30
0.0
 10
1.6841600000000001
 20
-1.3594600000000001
 30
0.0
 10
1.6155800000000002
 20
-1.25278
 30
0.0
 10
1.6155800000000002
 20
-1.25278
 30
0.0
 10
1.6409800000000001
 20
-1.2324600000000001
 30
0.0
 10
1.6765400000000001
 20
-1.21214
 30
0.0
 10
1.7146400000000002
 20
-1.21214
 30
0.0
 10
1.7146400000000002
 20
-1.21214
 30
0.0
 10
1.7146400000000002
 20
-1.21214
 30
0.0
 10
1.7984600000000002
 20
-1.1715
 30
0.0
 10
1.7984600000000002
 20
-1.1715
 30
0.0
  0
SPLINE
  5
35
100
AcDbEntity
  8
Ebene 1
 62
     7
100
AcDbSpline
210
0.0
220
0.0
230
1.0
 70
     1
 71
     3
 72
    12
 73
     8
 74
     0
 42
0.0000000001
 43
0.0000000001
 40
0.0
 40
0.0
 40
0.0
 40
0.0
 40
0.5
 40
0.5
 40
0.5
 40
0.5
 40
1.0
 40
1.0
 40
1.0
 40
1.0
 10
-1.71435
 20
-1.2756400000000001
 30
0.0
 10
-1.6406900000000002
 20
-1.3162800000000001
 30
0.0
 10
-1.5568700000000002
 20
-1.3594600000000001
 30
0.0
 10
-1.5086100000000002
 20
-1.4432800000000001
 30
0.0
 10
-1.5086100000000002
 20
-1.4432800000000001
 30
0.0
 10
-1.5771900000000001
 20
-1.4229600000000002
 30
0.0
 10
-1.7499100000000001
 20
-1.3594600000000001
 30
0.0
 10
-1.71435
 20
-1.2756400000000001
 30
0.0
  0
SPLINE
  5
36
100
AcDbEntity
  8
Ebene 1
100
AcDbSpline
210
0.0
220
0.0
230
1.0
 70
     1
 71
     3
 72
    40
 73
    36
 74
     0
 42
0.0000000001
 43
0.0000000001
 40
0.0
 40
0.0
 40
0.0
 40
0.0
 40
0.1111111111111111
 40
0.1111111111111111
 40
0.1111111111111111
 40
0.1111111111111111
 40
0.2222222222222222
 40
0.2222222222222222
 40
0.2222222222222222
 40
0.2222222222222222
 40
0.3333333333333333
 40
0.3333333333333333
 40
0.3333333333333333
 40
0.3333333333333333
 40
0.4444444444444444
 40
0.4444444444444444
 40
0.4444444444444444
 40
0.4444444444444444
 40
0.5555555555555556
 40
0.5555555555555556
 40
0.5555555555555556
 40
0.5555555555555556
 40
0.6666666666666667
 40
0.6666666666666667
 40
0.6666666666666667
 40
0.6666666666666667
 40
0.7777777777777779
 40
0.7777777777777779
 40
0.7777777777777779
 40
0.7777777777777779
 40
0.8888888888888891
 40
0.8888888888888891
 40
0.8888888888888891
 40
0.8888888888888891
 40
1.0
 40
1.0
 40
1.0
 40
1.0
 10
-0.03033
 20
-1.8446000000000002
 30
0.0
 10
0.29224
 20
-1.9081000000000001
 30
0.0
 10
0.8002400000000001
 20
-2.3272000000000004
 30
0.0
 10
0.5945
 20
-2.7259800000000003
 30
0.0
 10
0.5945
 20
-2.7259800000000003
 30
0.0
 10
0.40146
 20
-2.8555200000000003
 30
0.0
 10
0.19826
 20
-2.6853400000000001
 30
0.0
 10
0.05602
 20
-2.5812000000000004
 30
0.0
 10
0.05602
 20
-2.5812000000000004
 30
0.0
 10
0.05602
 20
-2.5812000000000004
 30
0.0
 10
0.0992
 20
-3.0079200000000004
 30
0.0
 10
0.0992
 20
-3.0079200000000004
 30
0.0
 10
0.0992
 20
-3.0079200000000004
 30
0.0
 10
0.0992
 20
-3.0079200000000004
 30
0.0
 10
0.00522
 20
-3.3584400000000003
 30
0.0
 10
0.00522
 20
-3.3584400000000003
 30
0.0
 10
0.00522
 20
-3.3584400000000003
 30
0.0
 10
0.00522
 20
-3.3584400000000003
 30
0.0
 10
-0.01001
 20
-2.9799800000000003
 30
0.0
 10
-0.01001
 20
-2.9799800000000003
 30
0.0
 10
-0.01001
 20
-2.9799800000000003
 30
0.0
 10
-0.01763
 20
-2.8961600000000001
 30
0.0
 10
0.01792
 20
-2.6853400000000001
 30
0.0
 10
-0.07605
 20
-2.6853400000000001
 30
0.0
 10
-0.07605
 20
-2.6853400000000001
 30
0.0
 10
-0.4062500000000001
 20
-2.7691600000000003
 30
0.0
 10
-0.21321
 20
-3.1273000000000004
 30
0.0
 10
-0.28433
 20
-3.3584400000000003
 30
0.0
 10
-0.28433
 20
-3.3584400000000003
 30
0.0
 10
-0.3325900000000001
 20
-3.2111200000000002
 30
0.0
 10
-0.3325900000000001
 20
-3.0231600000000003
 30
0.0
 10
-0.35037
 20
-2.8555200000000003
 30
0.0
 10
-0.35037
 20
-2.8555200000000003
 30
0.0
 10
-0.9650500000000001
 20
-2.6650200000000002
 30
0.0
 10
-0.36815
 20
-2.0325600000000001
 30
0.0
 10
-0.03033
 20
-1.8446000000000002
 30
0.0
  0
SPLINE
  5
37
100
AcDbEntity
  8
Ebene 1
 62
     7
100
AcDbSpline
210
0.0
220
0.0
230
1.0
 70
     1
 71
     3
 72
   112
 73
   108
 74
     0
 42
0.0000000001
 43
0.0000000001
 40
0.0
 40
0.0
 40
0.0
 40
0.0
 40
0.037037037037037
 40
0.037037037037037
 40
0.037037037037037
 40
0.037037037037037
 40
0.0740740740740741
 40
0.0740740740740741
 40
0.0740740740740741
 40
0.0740740740740741
 40
0.1111111111111111
 40
0.1111111111111111
 40
0.1111111111111111
 40
0.1111111111111111
 40
0.1481481481481481
 40
0.1481481481481481
 40
0.1481481481481481
 40
0.1481481481481481
 40
0.1851851851851852
 40
0.1851851851851852
 40
0.1851851851851852
 40
0.1851851851851852
 40
0.2222222222222222
 40
0.2222222222222222
 40
0.2222222222222222
 40
0.2222222222222222
 40
0.2592592592592592
 40
0.2592592592592592
 40
0.2592592592592592
 40
0.2592592592592592
 40
0.2962962962962963
 40
0.2962962962962963
 40
0.2962962962962963
 40
0.2962962962962963
 40
0.3333333333333333
 40
0.3333333333333333
 40
0.3333333333333333
 40
0.3333333333333333
 40
0.3703703703703704
 40
0.3703703703703704
 40
0.3703703703703704
 40
0.3703703703703704
 40
0.4074074074074074
 40
0.4074074074074074
 40
0.4074074074074074
 40
0.4074074074074074
 40
0.4444444444444444
 40
0.4444444444444444
 40
0.4444444444444444
 40
0.4444444444444444
 40
0.4814814814814815
 40
0.4814814814814815
 40
0.4814814814814815
 40
0.4814814814814815
 40
0.5185185185185185
 40
0.5185185185185185
 40
0.5185185185185185
 40
0.5185185185185185
 40
0.5555555555555556
 40
0.5555555555555556
 40
0.5555555555555556
 40
0.5555555555555556
 40
0.5925925925925926
 40
0.5925925925925926
 40
0.5925925925925926
 40
0.5925925925925926
 40
0.6296296296296295
 40
0.6296296296296295
 40
0.6296296296296295
 40
0.6296296296296295
 40
0.6666666666666665
 40
0.6666666666666665
 40
0.6666666666666665
 40
0.6666666666666665
 40
0.7037037037037035
 40
0.7037037037037035
 40
0.7037037037037035
 40
0.7037037037037035
 40
0.7407407407407405
 40
0.7407407407407405
 40
0.7407407407407405
 40
0.7407407407407405
 40
0.7777777777777775
 40
0.7777777777777775
 40
0.7777777777777775
 40
0.7777777777777775
 40
0.8148148148148144
 40
0.8148148148148144
 40
0.8148148148148144
 40
0.8148148148148144
 40
0.8518518518518514
 40
0.8518518518518514
 40
0.8518518518518514
 40
0.8518518518518514
 40
0.8888888888888884
 40
0.8888888888888884
 40
0.8888888888888884
 40
0.8888888888888884
 40
0.9259259259259254
 40
0.9259259259259254
 40
0.9259259259259254
 40
0.9259259259259254
 40
0.9629629629629624
 40
0.9629629629629624
 40
0.9629629629629624
 40
0.9629629629629624
 40
1.0
 40
1.0
 40
1.0
 40
1.0
 10
-2.3671300000000004
 20
-2.4110200000000002
 30
0.0
 10
-2.01661
 20
-2.5151600000000003
 30
0.0
 10
-2.2528300000000003
 20
-3.0231600000000003
 30
0.0
 10
-2.15123
 20
-3.2949400000000004
 30
0.0
 10
-2.15123
 20
-3.2949400000000004
 30
0.0
 10
-1.9658100000000001
 20
-3.2543000000000002
 30
0.0
 10
-2.0801100000000003
 20
-2.8326600000000002
 30
0.0
 10
-1.9607300000000001
 20
-2.6650200000000002
 30
0.0
 10
-1.9607300000000001
 20
-2.6650200000000002
 30
0.0
 10
-1.8794500000000001
 20
-2.7894800000000002
 30
0.0
 10
-1.7803900000000001
 20
-3.0003000000000002
 30
0.0
 10
-1.5924300000000002
 20
-3.0231600000000003
 30
0.0
 10
-1.5924300000000002
 20
-3.0231600000000003
 30
0.0
 10
-1.5822700000000001
 20
-3.6962600000000001
 30
0.0
 10
-1.0285500000000001
 20
-4.1814
 30
0.0
 10
-0.9066300000000001
 20
-4.8113200000000003
 30
0.0
 10
-0.9066300000000001
 20
-4.8113200000000003
 30
0.0
 10
-0.7491500000000001
 20
-4.9789600000000007
 30
0.0
 10
-0.49769
 20
-5.0653200000000007
 30
0.0
 10
-0.48753
 20
-5.3574200000000003
 30
0.0
 10
-0.48753
 20
-5.3574200000000003
 30
0.0
 10
-0.32497
 20
-5.0856400000000006
 30
0.0
 10
-0.21829
 20
-5.7587400000000004
 30
0.0
 10
-0.19289
 20
-5.9898800000000003
 30
0.0
 10
-0.19289
 20
-5.9898800000000003
 30
0.0
 10
-0.19289
 20
-5.9898800000000003
 30
0.0
 10
-0.11669
 20
-5.7739800000000008
 30
0.0
 10
-0.11669
 20
-5.7739800000000008
 30
0.0
 10
-0.11669
 20
-5.7739800000000008
 30
0.0
 10
-0.11669
 20
-5.7739800000000008
 30
0.0
 10
-0.17003
 20
-5.4209200000000006
 30
0.0
 10
-0.17003
 20
-5.4209200000000006
 30
0.0
 10
-0.17003
 20
-5.4209200000000006
 30
0.0
 10
-0.07097
 20
-5.4844200000000001
 30
0.0
 10
0.04586
 20
-5.5682400000000003
 30
0.0
 10
0.13476
 20
-5.4209200000000006
 30
0.0
 10
0.13476
 20
-5.4209200000000006
 30
0.0
 10
0.1627
 20
-5.4641000000000002
 30
0.0
 10
0.21858
 20
-5.4844200000000001
 30
0.0
 10
0.26684
 20
-5.5072800000000006
 30
0.0
 10
0.26684
 20
-5.5072800000000006
 30
0.0
 10
0.27192
 20
-6.1168800000000001
 30
0.0
 10
0.35828
 20
-4.8748200000000006
 30
0.0
 10
0.53608
 20
-5.2532800000000002
 30
0.0
 10
0.53608
 20
-5.2532800000000002
 30
0.0
 10
0.53608
 20
-5.3167800000000005
 30
0.0
 10
0.45988
 20
-5.5479200000000004
 30
0.0
 10
0.57672
 20
-5.4844200000000001
 30
0.0
 10
0.57672
 20
-5.4844200000000001
 30
0.0
 10
0.66054
 20
-4.7071800000000001
 30
0.0
 10
0.7392800000000001
 20
-5.4006000000000007
 30
0.0
 10
0.82564
 20
-5.7181000000000006
 30
0.0
 10
0.82564
 20
-5.7181000000000006
 30
0.0
 10
0.8180200000000001
 20
-5.2964600000000006
 30
0.0
 10
0.9856600000000001
 20
-4.7275
 30
0.0
 10
1.3107800000000001
 20
-4.6843200000000005
 30
0.0
 10
1.3107800000000001
 20
-4.6843200000000005
 30
0.0
 10
1.4606400000000002
 20
-4.39222
 30
0.0
 10
1.39714
 20
-3.9477200000000003
 30
0.0
 10
1.7502000000000002
 20
-3.8435800000000002
 30
0.0
 10
1.7502000000000002
 20
-3.8435800000000002
 30
0.0
 10
1.7654400000000001
 20
-3.5260800000000003
 30
0.0
 10
1.7705200000000001
 20
-3.2111200000000002
 30
0.0
 10
1.8899000000000001
 20
-2.9164800000000004
 30
0.0
 10
1.8899000000000001
 20
-2.9164800000000004
 30
0.0
 10
2.12358
 20
-2.8123400000000003
 30
0.0
 10
1.9915000000000003
 20
-3.1704800000000004
 30
0.0
 10
1.9889600000000001
 20
-3.2949400000000004
 30
0.0
 10
1.9889600000000001
 20
-3.2949400000000004
 30
0.0
 10
1.9889600000000001
 20
-3.3813000000000004
 30
0.0
 10
1.9762600000000001
 20
-3.4854400000000001
 30
0.0
 10
2.03722
 20
-3.5489400000000004
 30
0.0
 10
2.03722
 20
-3.5489400000000004
 30
0.0
 10
2.1921600000000003
 20
-3.2111200000000002
 30
0.0
 10
2.2328000000000001
 20
-2.7259800000000003
 30
0.0
 10
2.5731600000000001
 20
-2.4973800000000002
 30
0.0
 10
2.5731600000000001
 20
-2.4973800000000002
 30
0.0
 10
2.67476
 20
-3.3584400000000003
 30
0.0
 10
2.17184
 20
-4.0315400000000006
 30
0.0
 10
1.5825600000000002
 20
-4.6208200000000001
 30
0.0
 10
1.5825600000000002
 20
-4.6208200000000001
 30
0.0
 10
1.5647800000000001
 20
-4.5801800000000004
 30
0.0
 10
1.5622400000000001
 20
-4.4531800000000006
 30
0.0
 10
1.48858
 20
-4.5370000000000008
 30
0.0
 10
1.48858
 20
-4.5370000000000008
 30
0.0
 10
1.48858
 20
-4.5370000000000008
 30
0.0
 10
0.9983600000000001
 20
-5.6317400000000006
 30
0.0
 10
0.9983600000000001
 20
-5.6317400000000006
 30
0.0
 10
0.9983600000000001
 20
-5.6317400000000006
 30
0.0
 10
0.9374000000000001
 20
-6.3480200000000009
 30
0.0
 10
0.1627
 20
-6.0330600000000008
 30
0.0
 10
-0.31989
 20
-6.1803800000000004
 30
0.0
 10
-0.31989
 20
-6.1803800000000004
 30
0.0
 10
-0.71613
 20
-5.4209200000000006
 30
0.0
 10
-1.17079
 20
-4.6843200000000005
 30
0.0
 10
-1.5924300000000002
 20
-3.9477200000000003
 30
0.0
 10
-1.5924300000000002
 20
-3.9477200000000003
 30
0.0
 10
-1.7600700000000002
 20
-3.9477200000000003
 30
0.0
 10
-1.6000500000000002
 20
-4.2017200000000008
 30
0.0
 10
-1.6127500000000001
 20
-4.30586
 30
0.0
 10
-1.6127500000000001
 20
-4.30586
 30
0.0
 10
-1.8311900000000001
 20
-4.0747200000000001
 30
0.0
 10
-2.0750300000000004
 20
-3.8004000000000002
 30
0.0
 10
-2.31887
 20
-3.5921200000000004
 30
0.0
 10
-2.31887
 20
-3.5921200000000004
 30
0.0
 10
-2.2579100000000003
 20
-3.1908000000000003
 30
0.0
 10
-2.3417300000000001
 20
-2.7691600000000003
 30
0.0
 10
-2.3671300000000004
 20
-2.4110200000000002
 30
0.0
  0
SPLINE
  5
38
100
AcDbEntity
  8
Ebene 1
 62
     7
100
AcDbSpline
210
0.0
220
0.0
230
1.0
 70
     1
 71
     3
 72
    16
 73
    12
 74
     0
 42
0.0000000001
 43
0.0000000001
 40
0.0
 40
0.0
 40
0.0
 40
0.0
 40
0.3333333333333333
 40
0.3333333333333333
 40
0.3333333333333333
 40
0.3333333333333333
 40
0.6666666666666666
 40
0.6666666666666666
 40
0.6666666666666666
 40
0.6666666666666666
 40
1.0
 40
1.0
 40
1.0
 40
1.0
 10
1.5876400000000002
 20
-2.8758400000000002
 30
0.0
 10
1.6333600000000001
 20
-2.8758400000000002
 30
0.0
 10
1.6689200000000002
 20
-2.8758400000000002
 30
0.0
 10
1.7095600000000002
 20
-2.8961600000000001
 30
0.0
 10
1.7095600000000002
 20
-2.8961600000000001
 30
0.0
 10
1.7171800000000002
 20
-3.1273000000000004
 30
0.0
 10
1.6994000000000002
 20
-3.3813000000000004
 30
0.0
 10
1.6460600000000001
 20
-3.6124400000000003
 30
0.0
 10
1.6460600000000001
 20
-3.6124400000000003
 30
0.0
 10
1.5597000000000001
 20
-3.4016200000000003
 30
0.0
 10
1.5063600000000001
 20
-3.1069800000000001
 30
0.0
 10
1.5876400000000002
 20
-2.8758400000000002
 30
0.0
  0
SPLINE
  5
39
100
AcDbEntity
  8
Ebene 1
 62
     7
100
AcDbSpline
210
0.0
220
0.0
230
1.0
 70
     1
 71
     3
 72
    16
 73
    12
 74
     0
 42
0.0000000001
 43
0.0000000001
 40
0.0
 40
0.0
 40
0.0
 40
0.0
 40
0.3333333333333333
 40
0.3333333333333333
 40
0.3333333333333333
 40
0.3333333333333333
 40
0.6666666666666666
 40
0.6666666666666666
 40
0.6666666666666666
 40
0.6666666666666666
 40
1.0
 40
1.0
 40
1.0
 40
1.0
 10
-1.33589
 20
-2.9164800000000004
 30
0.0
 10
-1.33589
 20
-2.9164800000000004
 30
0.0
 10
-1.2571500000000002
 20
-2.9164800000000004
 30
0.0
 10
-1.2571500000000002
 20
-2.9164800000000004
 30
0.0
 10
-1.2571500000000002
 20
-2.9164800000000004
 30
0.0
 10
-1.21143
 20
-3.2339800000000003
 30
0.0
 10
-1.12253
 20
-3.5921200000000004
 30
0.0
 10
-1.1936500000000001
 20
-3.9070800000000001
 30
0.0
 10
-1.1936500000000001
 20
-3.9070800000000001
 30
0.0
 10
-1.3714500000000001
 20
-3.6327600000000002
 30
0.0
 10
-1.5187700000000002
 20
-3.2111200000000002
 30
0.0
 10
-1.33589
 20
-2.9164800000000004
 30
0.0
  0
SPLINE
  5
3A
100
AcDbEntity
  8
Ebene 1
 62
     7
100
AcDbSpline
210
0.0
220
0.0
230
1.0
 70
     1
 71
     3
 72
    12
 73
     8
 74
     0
 42
0.0000000001
 43
0.0000000001
 40
0.0
 40
0.0
 40
0.0
 40
0.0
 40
0.5
 40
0.5
 40
0.5
 40
0.5
 40
1.0
 40
1.0
 40
1.0
 40
1.0
 10
1.3336400000000002
 20
-3.6327600000000002
 30
0.0
 10
1.4149200000000002
 20
-3.7369000000000003
 30
0.0
 10
1.3692000000000002
 20
-3.9477200000000003
 30
0.0
 10
1.3006200000000001
 20
-4.0544000000000002
 30
0.0
 10
1.3006200000000001
 20
-4.0544000000000002
 30
0.0
 10
1.2447400000000002
 20
-3.9070800000000001
 30
0.0
 10
1.3234800000000002
 20
-3.7800800000000003
 30
0.0
 10
1.3336400000000002
 20
-3.6327600000000002
 30
0.0
  0
SPLINE
  5
3B
100
AcDbEntity
  8
Ebene 1
 62
     7
100
AcDbSpline
210
0.0
220
0.0
230
1.0
 70
     1
 71
     3
 72
    12
 73
     8
 74
     0
 42
0.0000000001
 43
0.0000000001
 40
0.0
 40
0.0
 40
0.0
 40
0.0
 40
0.5
 40
0.5
 40
0.5
 40
0.5
 40
1.0
 40
1.0
 40
1.0
 40
1.0
 10
1.5241400000000001
 20
-3.6734000000000004
 30
0.0
 10
1.5927200000000001
 20
-3.6962600000000001
 30
0.0
 10
1.5978000000000001
 20
-3.8004000000000002
 30
0.0
 10
1.5419200000000002
 20
-3.8435800000000002
 30
0.0
 10
1.5419200000000002
 20
-3.8435800000000002
 30
0.0
 10
1.4809600000000001
 20
-3.8232600000000003
 30
0.0
 10
1.4962000000000002
 20
-3.7165800000000004
 30
0.0
 10
1.5241400000000001
 20
-3.6734000000000004
 30
0.0
  0
SPLINE
  5
3C
100
AcDbEntity
  8
Ebene 1
 62
     7
100
AcDbSpline
210
0.0
220
0.0
230
1.0
 70
     1
 71
     3
 72
    12
 73
     8
 74
     0
 42
0.0000000001
 43
0.0000000001
 40
0.0
 40
0.0
 40
0.0
 40
0.0
 40
0.5
 40
0.5
 40
0.5
 40
0.5
 40
1.0
 40
1.0
 40
1.0
 40
1.0
 10
-0.9777500000000001
 20
-3.7369000000000003
 30
0.0
 10
-0.8532900000000001
 20
-3.8004000000000002
 30
0.0
 10
-0.8355100000000001
 20
-4.0544000000000002
 30
0.0
 10
-0.9371100000000001
 20
-4.1382200000000005
 30
0.0
 10
-0.9371100000000001
 20
-4.1382200000000005
 30
0.0
 10
-1.1072900000000001
 20
-4.0747200000000001
 30
0.0
 10
-1.03617
 20
-3.8435800000000002
 30
0.0
 10
-0.9777500000000001
 20
-3.7369000000000003
 30
0.0
  0
SPLINE
  5
3D
100
AcDbEntity
  8
Ebene 1
 62
     7
100
AcDbSpline
210
0.0
220
0.0
230
1.0
 70
     1
 71
     3
 72
    12
 73
     8
 74
     0
 42
0.0000000001
 43
0.0000000001
 40
0.0
 40
0.0
 40
0.0
 40
0.0
 40
0.5
 40
0.5
 40
0.5
 40
0.5
 40
1.0
 40
1.0
 40
1.0
 40
1.0
 10
1.0415400000000001
 20
-3.8232600000000003
 30
0.0
 10
1.1228200000000002
 20
-3.9477200000000003
 30
0.0
 10
1.3107800000000001
 20
-4.2626800000000005
 30
0.0
 10
1.0466200000000001
 20
-4.2855400000000001
 30
0.0
 10
1.0466200000000001
 20
-4.2855400000000001
 30
0.0
 10
1.0847200000000001
 20
-4.1382200000000005
 30
0.0
 10
0.9704200000000001
 20
-3.9705800000000004
 30
0.0
 10
1.0415400000000001
 20
-3.8232600000000003
 30
0.0
  0
SPLINE
  5
3E
100
AcDbEntity
  8
Ebene 1
 62
     7
100
AcDbSpline
210
0.0
220
0.0
230
1.0
 70
     1
 71
     3
 72
    16
 73
    12
 74
     0
 42
0.0000000001
 43
0.0000000001
 40
0.0
 40
0.0
 40
0.0
 40
0.0
 40
0.3333333333333333
 40
0.3333333333333333
 40
0.3333333333333333
 40
0.3333333333333333
 40
0.6666666666666666
 40
0.6666666666666666
 40
0.6666666666666666
 40
0.6666666666666666
 40
1.0
 40
1.0
 40
1.0
 40
1.0
 10
0.78754
 20
-3.9070800000000001
 30
0.0
 10
0.78754
 20
-3.9070800000000001
 30
0.0
 10
0.82564
 20
-3.9070800000000001
 30
0.0
 10
0.82564
 20
-3.9070800000000001
 30
0.0
 10
0.82564
 20
-3.9070800000000001
 30
0.0
 10
0.8739000000000001
 20
-4.1179000000000006
 30
0.0
 10
0.9424800000000001
 20
-4.4531800000000006
 30
0.0
 10
0.7469
 20
-4.5801800000000004
 30
0.0
 10
0.7469
 20
-4.5801800000000004
 30
0.0
 10
0.5894200000000001
 20
-4.39222
 30
0.0
 10
0.76214
 20
-4.1179000000000006
 30
0.0
 10
0.78754
 20
-3.9070800000000001
 30
0.0
  0
SPLINE
  5
3F
100
AcDbEntity
  8
Ebene 1
 62
     7
100
AcDbSpline
210
0.0
220
0.0
230
1.0
 70
     1
 71
     3
 72
    12
 73
     8
 74
     0
 42
0.0000000001
 43
0.0000000001
 40
0.0
 40
0.0
 40
0.0
 40
0.0
 40
0.5
 40
0.5
 40
0.5
 40
0.5
 40
1.0
 40
1.0
 40
1.0
 40
1.0
 10
-0.7466100000000001
 20
-3.9909000000000003
 30
0.0
 10
-0.67803
 20
-4.09504
 30
0.0
 10
-0.5815100000000001
 20
-4.39222
 30
0.0
 10
-0.78217
 20
-4.4328600000000007
 30
0.0
 10
-0.78217
 20
-4.4328600000000007
 30
0.0
 10
-0.8329700000000001
 20
-4.2855400000000001
 30
0.0
 10
-0.8075700000000001
 20
-4.1179000000000006
 30
0.0
 10
-0.7466100000000001
 20
-3.9909000000000003
 30
0.0
  0
SPLINE
  5
40
100
AcDbEntity
  8
Ebene 1
 62
     7
100
AcDbSpline
210
0.0
220
0.0
230
1.0
 70
     1
 71
     3
 72
    20
 73
    16
 74
     0
 42
0.0000000001
 43
0.0000000001
 40
0.0
 40
0.0
 40
0.0
 40
0.0
 40
0.25
 40
0.25
 40
0.25
 40
0.25
 40
0.5
 40
0.5
 40
0.5
 40
0.5
 40
0.75
 40
0.75
 40
0.75
 40
0.75
 40
1.0
 40
1.0
 40
1.0
 40
1.0
 10
-0.4291100000000001
 20
-4.09504
 30
0.0
 10
-0.35799
 20
-4.2423600000000006
 30
0.0
 10
-0.28687
 20
-4.4735000000000005
 30
0.0
 10
-0.33005
 20
-4.6436800000000007
 30
0.0
 10
-0.33005
 20
-4.6436800000000007
 30
0.0
 10
-0.33005
 20
-4.6436800000000007
 30
0.0
 10
-0.4291100000000001
 20
-4.6436800000000007
 30
0.0
 10
-0.4291100000000001
 20
-4.6436800000000007
 30
0.0
 10
-0.4291100000000001
 20
-4.6436800000000007
 30
0.0
 10
-0.4291100000000001
 20
-4.6436800000000007
 30
0.0
 10
-0.48753
 20
-4.6843200000000005
 30
0.0
 10
-0.48753
 20
-4.6843200000000005
 30
0.0
 10
-0.48753
 20
-4.6843200000000005
 30
0.0
 10
-0.5815100000000001
 20
-4.4963600000000001
 30
0.0
 10
-0.51039
 20
-4.2626800000000005
 30
0.0
 10
-0.4291100000000001
 20
-4.09504
 30
0.0
  0
SPLINE
  5
41
100
AcDbEntity
  8
Ebene 1
 62
     7
100
AcDbSpline
210
0.0
220
0.0
230
1.0
 70
     1
 71
     3
 72
    12
 73
     8
 74
     0
 42
0.0000000001
 43
0.0000000001
 40
0.0
 40
0.0
 40
0.0
 40
0.0
 40
0.5
 40
0.5
 40
0.5
 40
0.5
 40
1.0
 40
1.0
 40
1.0
 40
1.0
 10
0.19826
 20
-4.1585400000000003
 30
0.0
 10
0.24906
 20
-4.3287200000000006
 30
0.0
 10
0.33034
 20
-4.5370000000000008
 30
0.0
 10
0.29986
 20
-4.7275
 30
0.0
 10
0.29986
 20
-4.7275
 30
0.0
 10
0.06364
 20
-4.6640000000000006
 30
0.0
 10
0.18048
 20
-4.3287200000000006
 30
0.0
 10
0.19826
 20
-4.1585400000000003
 30
0.0
  0
SPLINE
  5
42
100
AcDbEntity
  8
Ebene 1
 62
     7
100
AcDbSpline
210
0.0
220
0.0
230
1.0
 70
     1
 71
     3
 72
    16
 73
    12
 74
     0
 42
0.0000000001
 43
0.0000000001
 40
0.0
 40
0.0
 40
0.0
 40
0.0
 40
0.3333333333333333
 40
0.3333333333333333
 40
0.3333333333333333
 40
0.3333333333333333
 40
0.6666666666666666
 40
0.6666666666666666
 40
0.6666666666666666
 40
0.6666666666666666
 40
1.0
 40
1.0
 40
1.0
 40
1.0
 10
-0.11415
 20
-4.2855400000000001
 30
0.0
 10
-0.02779
 20
-4.39222
 30
0.0
 10
-0.01255
 20
-4.5801800000000004
 30
0.0
 10
0.00522
 20
-4.7275
 30
0.0
 10
0.00522
 20
-4.7275
 30
0.0
 10
-0.03033
 20
-4.7275
 30
0.0
 10
-0.06589
 20
-4.7706800000000005
 30
0.0
 10
-0.10907
 20
-4.7478200000000008
 30
0.0
 10
-0.10907
 20
-4.7478200000000008
 30
0.0
 10
-0.11161
 20
-4.5801800000000004
 30
0.0
 10
-0.16241
 20
-4.4328600000000007
 30
0.0
 10
-0.11415
 20
-4.2855400000000001
 30
0.0
  0
SPLINE
  5
43
100
AcDbEntity
  8
Ebene 1
 62
     7
100
AcDbSpline
210
0.0
220
0.0
230
1.0
 70
     1
 71
     3
 72
    12
 73
     8
 74
     0
 42
0.0000000001
 43
0.0000000001
 40
0.0
 40
0.0
 40
0.0
 40
0.0
 40
0.5
 40
0.5
 40
0.5
 40
0.5
 40
1.0
 40
1.0
 40
1.0
 40
1.0
 10
0.4929000000000001
 20
-4.3490400000000005
 30
0.0
 10
0.53608
 20
-4.4100000000000001
 30
0.0
 10
0.57164
 20
-4.51668
 30
0.0
 10
0.55132
 20
-4.6208200000000001
 30
0.0
 10
0.55132
 20
-4.6208200000000001
 30
0.0
 10
0.42432
 20
-4.6208200000000001
 30
0.0
 10
0.4548
 20
-4.4328600000000007
 30
0.0
 10
0.4929000000000001
 20
-4.3490400000000005
 30
0.0
  0
SPLINE
  5
44
100
AcDbEntity
  8
Ebene 1
 62
     7
100
AcDbSpline
210
0.0
220
0.0
230
1.0
 70
     1
 71
     3
 72
    16
 73
    12
 74
     0
 42
0.0000000001
 43
0.0000000001
 40
0.0
 40
0.0
 40
0.0
 40
0.0
 40
0.3333333333333333
 40
0.3333333333333333
 40
0.3333333333333333
 40
0.3333333333333333
 40
0.6666666666666666
 40
0.6666666666666666
 40
0.6666666666666666
 40
0.6666666666666666
 40
1.0
 40
1.0
 40
1.0
 40
1.0
 10
1.06186
 20
-4.3693600000000004
 30
0.0
 10
1.06186
 20
-4.3693600000000004
 30
0.0
 10
1.09996
 20
-4.3693600000000004
 30
0.0
 10
1.09996
 20
-4.3693600000000004
 30
0.0
 10
1.09996
 20
-4.3693600000000004
 30
0.0
 10
1.1152000000000002
 20
-4.4963600000000001
 30
0.0
 10
1.0720200000000002
 20
-4.6436800000000007
 30
0.0
 10
1.0034400000000001
 20
-4.7275
 30
0.0
 10
1.0034400000000001
 20
-4.7275
 30
0.0
 10
1.0136000000000001
 20
-4.6005000000000003
 30
0.0
 10
1.0009000000000001
 20
-4.4735000000000005
 30
0.0
 10
1.06186
 20
-4.3693600000000004
 30
0.0
  0
SPLINE
  5
45
100
AcDbEntity
  8
Ebene 1
 62
     7
100
AcDbSpline
210
0.0
220
0.0
230
1.0
 70
     1
 71
     3
 72
    12
 73
     8
 74
     0
 42
0.0000000001
 43
0.0000000001
 40
0.0
 40
0.0
 40
0.0
 40
0.0
 40
0.5
 40
0.5
 40
0.5
 40
0.5
 40
1.0
 40
1.0
 40
1.0
 40
1.0
 10
-0.6831100000000001
 20
-4.4735000000000005
 30
0.0
 10
-0.66025
 20
-4.4963600000000001
 30
0.0
 10
-0.6018300000000001
 20
-4.5370000000000008
 30
0.0
 10
-0.6246900000000001
 20
-4.6005000000000003
 30
0.0
 10
-0.6246900000000001
 20
-4.6005000000000003
 30
0.0
 10
-0.67803
 20
-4.6005000000000003
 30
0.0
 10
-0.67803
 20
-4.51668
 30
0.0
 10
-0.6831100000000001
 20
-4.4735000000000005
 30
0.0
  0
SPLINE
  5
46
100
AcDbEntity
  8
Ebene 1
 62
     7
100
AcDbSpline
210
0.0
220
0.0
230
1.0
 70
     1
 71
     3
 72
    12
 73
     8
 74
     0
 42
0.0000000001
 43
0.0000000001
 40
0.0
 40
0.0
 40
0.0
 40
0.0
 40
0.5
 40
0.5
 40
0.5
 40
0.5
 40
1.0
 40
1.0
 40
1.0
 40
1.0
 10
-0.8304300000000001
 20
-4.5801800000000004
 30
0.0
 10
-0.7567700000000001
 20
-4.6005000000000003
 30
0.0
 10
-0.7542300000000001
 20
-4.6843200000000005
 30
0.0
 10
-0.7923300000000001
 20
-4.7478200000000008
 30
0.0
 10
-0.7923300000000001
 20
-4.7478200000000008
 30
0.0
 10
-0.8405900000000001
 20
-4.7275
 30
0.0
 10
-0.86853
 20
-4.6208200000000001
 30
0.0
 10
-0.8304300000000001
 20
-4.5801800000000004
 30
0.0
  0
SPLINE
  5
47
100
AcDbEntity
  8
Ebene 1
 62
     7
100
AcDbSpline
210
0.0
220
0.0
230
1.0
 70
     1
 71
     3
 72
    12
 73
     8
 74
     0
 42
0.0000000001
 43
0.0000000001
 40
0.0
 40
0.0
 40
0.0
 40
0.0
 40
0.5
 40
0.5
 40
0.5
 40
0.5
 40
1.0
 40
1.0
 40
1.0
 40
1.0
 10
0.76722
 20
-4.6436800000000007
 30
0.0
 10
0.86882
 20
-4.7071800000000001
 30
0.0
 10
0.7697600000000001
 20
-4.8316400000000002
 30
0.0
 10
0.76214
 20
-4.9180000000000001
 30
0.0
 10
0.76214
 20
-4.9180000000000001
 30
0.0
 10
0.70372
 20
-4.8545000000000007
 30
0.0
 10
0.70372
 20
-4.7071800000000001
 30
0.0
 10
0.76722
 20
-4.6436800000000007
 30
0.0
  0
SPLINE
  5
48
100
AcDbEntity
  8
Ebene 1
 62
     7
100
AcDbSpline
210
0.0
220
0.0
230
1.0
 70
     1
 71
     3
 72
    12
 73
     8
 74
     0
 42
0.0000000001
 43
0.0000000001
 40
0.0
 40
0.0
 40
0.0
 40
0.0
 40
0.5
 40
0.5
 40
0.5
 40
0.5
 40
1.0
 40
1.0
 40
1.0
 40
1.0
 10
-0.63993
 20
-4.7275
 30
0.0
 10
-0.61453
 20
-4.7706800000000005
 30
0.0
 10
-0.5662700000000001
 20
-4.8545000000000007
 30
0.0
 10
-0.5815100000000001
 20
-4.9180000000000001
 30
0.0
 10
-0.5815100000000001
 20
-4.9180000000000001
 30
0.0
 10
-0.6627900000000001
 20
-4.9180000000000001
 30
0.0
 10
-0.63739
 20
-4.7910000000000004
 30
0.0
 10
-0.63993
 20
-4.7275
 30
0.0
  0
SPLINE
  5
49
100
AcDbEntity
  8
Ebene 1
 62
     7
100
AcDbSpline
210
0.0
220
0.0
230
1.0
 70
     1
 71
     3
 72
    12
 73
     8
 74
     0
 42
0.0000000001
 43
0.0000000001
 40
0.0
 40
0.0
 40
0.0
 40
0.0
 40
0.5
 40
0.5
 40
0.5
 40
0.5
 40
1.0
 40
1.0
 40
1.0
 40
1.0
 10
0.5564
 20
-4.7275
 30
0.0
 10
0.64276
 20
-4.7910000000000004
 30
0.0
 10
0.5259200000000001
 20
-4.93832
 30
0.0
 10
0.47766
 20
-4.9992800000000006
 30
0.0
 10
0.47766
 20
-4.9992800000000006
 30
0.0
 10
0.4167
 20
-4.8951400000000005
 30
0.0
 10
0.49798
 20
-4.8113200000000003
 30
0.0
 10
0.5564
 20
-4.7275
 30
0.0
  0
SPLINE
  5
4A
100
AcDbEntity
  8
Ebene 1
 62
     7
100
AcDbSpline
210
0.0
220
0.0
230
1.0
 70
     1
 71
     3
 72
    12
 73
     8
 74
     0
 42
0.0000000001
 43
0.0000000001
 40
0.0
 40
0.0
 40
0.0
 40
0.0
 40
0.5
 40
0.5
 40
0.5
 40
0.5
 40
1.0
 40
1.0
 40
1.0
 40
1.0
 10
-0.34783
 20
-4.7478200000000008
 30
0.0
 10
-0.18527
 20
-4.8113200000000003
 30
0.0
 10
-0.28941
 20
-5.0424600000000002
 30
0.0
 10
-0.26655
 20
-5.1897800000000007
 30
0.0
 10
-0.26655
 20
-5.1897800000000007
 30
0.0
 10
-0.3325900000000001
 20
-5.0653200000000007
 30
0.0
 10
-0.36815
 20
-4.8748200000000006
 30
0.0
 10
-0.34783
 20
-4.7478200000000008
 30
0.0
  0
SPLINE
  5
4B
100
AcDbEntity
  8
Ebene 1
 62
     7
100
AcDbSpline
210
0.0
220
0.0
230
1.0
 70
     1
 71
     3
 72
    12
 73
     8
 74
     0
 42
0.0000000001
 43
0.0000000001
 40
0.0
 40
0.0
 40
0.0
 40
0.0
 40
0.5
 40
0.5
 40
0.5
 40
0.5
 40
1.0
 40
1.0
 40
1.0
 40
1.0
 10
0.19826
 20
-4.7910000000000004
 30
0.0
 10
0.4624200000000001
 20
-4.8316400000000002
 30
0.0
 10
0.29986
 20
-5.1491400000000001
 30
0.0
 10
0.25668
 20
-5.3167800000000005
 30
0.0
 10
0.25668
 20
-5.3167800000000005
 30
0.0
 10
0.15762
 20
-5.1694600000000008
 30
0.0
 10
0.18556
 20
-4.93832
 30
0.0
 10
0.19826
 20
-4.7910000000000004
 30
0.0
  0
SPLINE
  5
4C
100
AcDbEntity
  8
Ebene 1
 62
     7
100
AcDbSpline
210
0.0
220
0.0
230
1.0
 70
     1
 71
     3
 72
    16
 73
    12
 74
     0
 42
0.0000000001
 43
0.0000000001
 40
0.0
 40
0.0
 40
0.0
 40
0.0
 40
0.3333333333333333
 40
0.3333333333333333
 40
0.3333333333333333
 40
0.3333333333333333
 40
0.6666666666666666
 40
0.6666666666666666
 40
0.6666666666666666
 40
0.6666666666666666
 40
1.0
 40
1.0
 40
1.0
 40
1.0
 10
-0.03033
 20
-4.8113200000000003
 30
0.0
 10
-0.03033
 20
-4.8113200000000003
 30
0.0
 10
0.02554
 20
-4.8113200000000003
 30
0.0
 10
0.02554
 20
-4.8113200000000003
 30
0.0
 10
0.02554
 20
-4.8113200000000003
 30
0.0
 10
0.05602
 20
-4.9789600000000007
 30
0.0
 10
0.14238
 20
-5.2329600000000003
 30
0.0
 10
-0.01001
 20
-5.3574200000000003
 30
0.0
 10
-0.01001
 20
-5.3574200000000003
 30
0.0
 10
-0.08875
 20
-5.2101000000000006
 30
0.0
 10
-0.26401
 20
-4.8748200000000006
 30
0.0
 10
-0.03033
 20
-4.8113200000000003
 30
0.0
  0
ENDSEC
  0
SECTION
  2
OBJECTS
  0
DICTIONARY
  5
19
100
AcDbDictionary
280
     0
281
     1
  3
ACAD_GROUP
350
1A
  3
ACAD_MLINESTYLE
350
1B
  3
ACAD_LAYOUT
350
1E
  3
ACAD_PLOTSETTINGS
350
22
  3
ACAD_PLOTSTYLENAME
350
1F
  3
ACAD_WIPEOUT_VARS
350
23
  0
DICTIONARY
  5
1A
102
{ACAD_REACTORS
330
19
102
}
100
AcDbDictionary
280
     0
281
     1
  0
DICTIONARY
  5
1B
102
{ACAD_REACTORS
330
19
102
}
100
AcDbDictionary
280
     0
281
     1
  3
Standard
350
1C
  0
MLINESTYLE
  5
1C
102
{ACAD_REACTORS
330
1B
102
}
100
AcDbMlineStyle
  2
Standard
 70
     0
  3

 62
     0
 51
90.0
 52
90.0
 71
     2
 49
0.5
 62
   256
  6
BYLAYER
 49
-0.5
 62
   256
  6
BYLAYER
  0
ACDBDICTIONARYWDFLT
  5
1F
102
{ACAD_REACTORS
330
19
102
}
100
AcDbDictionary
281
     1
  3
Normal
350
1D
100
AcDbDictionaryWithDefault
340
1D
  0
ACDBPLACEHOLDER
  5
1D
102
{ACAD_REACTORS
330
1F
102
}
  0
LAYOUT
  5
20
102
{ACAD_REACTORS
330
1E
102
}
100
AcDbPlotSettings
  1

  2

  4

  6

 40
0.0
 41
0.0
 42
0.0
 43
0.0
 44
0.0
 45
0.0
 46
0.0
 47
0.0
 48
0.0
 49
0.0
140
0.0
141
0.0
142
1.0
143
1.0
 70
  1024
 72
     0
 73
     0
 74
     0
  7

 75
     0
147
1.0
148
0.0
149
0.0
100
AcDbLayout
  1
Model
 70
     0
 71
     0
 10
0.0
 20
0.0
 11
0.0
 21
0.0
 12
0.0
 22
0.0
 32
0.0
 14
0.0
 24
0.0
 34
0.0
 15
0.0
 25
0.0
 35
0.0
146
0.0
 13
0.0
 23
0.0
 33
0.0
 16
0.0
 26
0.0
 36
0.0
 17
0.0
 27
0.0
 37
0.0
 76
     0
330
A
331
0
345
0
346
0
  0
LAYOUT
  5
21
102
{ACAD_REACTORS
330
1E
102
}
100
AcDbPlotSettings
  1

  2

  4

  6

 40
0.0
 41
0.0
 42
0.0
 43
0.0
 44
0.0
 45
0.0
 46
0.0
 47
0.0
 48
0.0
 49
0.0
140
0.0
141
0.0
142
1.0
143
1.0
 70
     0
 72
     0
 73
     0
 74
     0
  7

 75
     0
147
1.0
148
0.0
149
0.0
100
AcDbLayout
  1
Layout1
 70
     0
 71
     0
 10
0.0
 20
0.0
 11
0.0
 21
0.0
 12
0.0
 22
0.0
 32
0.0
 14
0.0
 24
0.0
 34
0.0
 15
0.0
 25
0.0
 35
0.0
146
0.0
 13
0.0
 23
0.0
 33
0.0
 16
0.0
 26
0.0
 36
0.0
 17
0.0
 27
0.0
 37
0.0
 76
     0
330
B
331
0
345
0
346
0
  0
DICTIONARY
  5
1E
102
{ACAD_REACTORS
330
19
102
}
100
AcDbDictionary
280
     0
281
     1
  3
Layout1
350
21
  3
Model
350
20
  0
DICTIONARY
  5
22
102
{ACAD_REACTORS
330
19
102
}
100
AcDbDictionary
280
     0
281
     1
  0
WIPEOUTVARIABLES
  5
23
100
AcDbWipeoutVariables
 70
     1
  0
ENDSEC
  0
EOF
