  0
SECTION
  2
HEADER
  9
$ACADVER
  1
AC1015
  9
$ACADMAINTVER
 70
     6
  9
$DWGCODEPAGE
  3
DOS850
  9
$INSBASE
 10
0.0
 20
0.0
 30
0.0
  9
$EXTMIN
 10
-4.56677
 20
-6.13466
 30
1.000000E+20
  9
$EXTMAX
 10
4.57214
 20
6.12978
 30
-1.000000E+20
  9
$LIMMIN
 10
0.0
 20
0.0
  9
$LIMMAX
 10
0.0
 20
0.0
  9
$ORTHOMODE
 70
     0
  9
$REGENMODE
 70
     1
  9
$FILLMODE
 70
     1
  9
$QTEXTMODE
 70
     0
  9
$MIRRTEXT
 70
     1
  9
$LTSCALE
 40
1.0
  9
$ATTMODE
 70
     1
  9
$TEXTSIZE
 40
0.2
  9
$TRACEWID
 40
0.05
  9
$TEXTSTYLE
  7
Standard
  9
$CLAYER
  8
0
  9
$CELTYPE
  6
Continuous
  9
$CECOLOR
 62
   256
  9
$CELTSCALE
 40
1.0
  9
$DISPSILH
 70
     0
  9
$DIMSCALE
 40
1.0
  9
$DIMASZ
 40
0.18
  9
$DIMEXO
 40
0.0625
  9
$DIMDLI
 40
0.38
  9
$DIMRND
 40
0.0
  9
$DIMDLE
 40
0.0
  9
$DIMEXE
 40
0.18
  9
$DIMTP
 40
0.0
  9
$DIMTM
 40
0.0
  9
$DIMTXT
 40
0.18
  9
$DIMCEN
 40
0.09
  9
$DIMTSZ
 40
0.0
  9
$DIMTOL
 70
     0
  9
$DIMLIM
 70
     0
  9
$DIMTIH
 70
     1
  9
$DIMTOH
 70
     1
  9
$DIMSE1
 70
     0
  9
$DIMSE2
 70
     0
  9
$DIMTAD
 70
     0
  9
$DIMZIN
 70
     0
  9
$DIMBLK
  1

  9
$DIMASO
 70
     1
  9
$DIMSHO
 70
     1
  9
$DIMPOST
  1

  9
$DIMAPOST
  1

  9
$DIMALT
 70
     0
  9
$DIMALTD
 70
     2
  9
$DIMALTF
 40
25.4
  9
$DIMLFAC
 40
1.0
  9
$DIMTOFL
 70
     0
  9
$DIMTVP
 40
0.0
  9
$DIMTIX
 70
     0
  9
$DIMSOXD
 70
     0
  9
$DIMSAH
 70
     0
  9
$DIMBLK1
  1

  9
$DIMBLK2
  1

  9
$DIMSTYLE
  2
Standard
  9
$DIMCLRD
 70
     0
  9
$DIMCLRE
 70
     0
  9
$DIMCLRT
 70
     0
  9
$DIMTFAC
 40
1.0
  9
$DIMGAP
 40
0.09
  9
$DIMJUST
 70
     0
  9
$DIMSD1
 70
     0
  9
$DIMSD2
 70
     0
  9
$DIMTOLJ
 70
     1
  9
$DIMTZIN
 70
     0
  9
$DIMALTZ
 70
     0
  9
$DIMALTTZ
 70
     0
  9
$DIMUPT
 70
     0
  9
$DIMDEC
 70
     4
  9
$DIMTDEC
 70
     4
  9
$DIMALTU
 70
     2
  9
$DIMALTTD
 70
     2
  9
$DIMTXSTY
  7
Standard
  9
$DIMAUNIT
 70
     0
  9
$DIMADEC
 70
     0
  9
$DIMALTRND
 40
0.0
  9
$DIMAZIN
 70
     0
  9
$DIMDSEP
 70
     0
  9
$DIMATFIT
 70
     3
  9
$DIMFRAC
 70
     0
  9
$DIMLDRBLK
  1

  9
$DIMLUNIT
 70
     2
  9
$DIMLWD
 70
     0
  9
$DIMLWE
 70
     0
  9
$DIMTMOVE
 70
     0
  9
$LUNITS
 70
     2
  9
$LUPREC
 70
     4
  9
$SKETCHINC
 40
0.1
  9
$FILLETRAD
 40
0.0
  9
$AUNITS
 70
     0
  9
$AUPREC
 70
     0
  9
$MENU
  1
acad
  9
$ELEVATION
 40
0.0
  9
$PELEVATION
 40
0.0
  9
$THICKNESS
 40
0.0
  9
$LIMCHECK
 70
     0
  9
$CHAMFERA
 40
0.0
  9
$CHAMFERB
 40
0.0
  9
$CHAMFERC
 40
0.0
  9
$CHAMFERD
 40
0.0
  9
$SKPOLY
 70
     0
  9
$TDCREATE
 40
0.000000000
  9
$TDUCREATE
 40
0.000000000
  9
$TDUPDATE
 40
0.000000000
  9
$TDUUPDATE
 40
0.000000000
  9
$TDINDWG
 40
0.0000000000
  9
$TDUSRTIMER
 40
0.0000000000
  9
$USRTIMER
 70
     1
  9
$ANGBASE
 50
0.0
  9
$ANGDIR
 70
     0
  9
$PDMODE
 70
     0
  9
$PDSIZE
 40
0.0
  9
$PLINEWID
 40
0.0
  9
$SPLFRAME
 70
     0
  9
$SPLINETYPE
 70
     6
  9
$SPLINESEGS
 70
     8
  9
$HANDSEED
  5
6E
  9
$SURFTAB1
 70
     6
  9
$SURFTAB2
 70
     6
  9
$SURFTYPE
 70
     6
  9
$SURFU
 70
     6
  9
$SURFV
 70
     6
  9
$UCSBASE
  2

  9
$UCSNAME
  2

  9
$UCSORG
 10
0.0
 20
0.0
 30
0.0
  9
$UCSXDIR
 10
1.0
 20
0.0
 30
0.0
  9
$UCSYDIR
 10
0.0
 20
1.0
 30
0.0
  9
$UCSORTHOREF
  2

  9
$UCSORTHOVIEW
 70
     0
  9
$UCSORGTOP
 10
0.0
 20
0.0
 30
0.0
  9
$UCSORGBOTTOM
 10
0.0
 20
0.0
 30
0.0
  9
$UCSORGLEFT
 10
0.0
 20
0.0
 30
0.0
  9
$UCSORGRIGHT
 10
0.0
 20
0.0
 30
0.0
  9
$UCSORGFRONT
 10
0.0
 20
0.0
 30
0.0
  9
$UCSORGBACK
 10
0.0
 20
0.0
 30
0.0
  9
$PUCSBASE
  2

  9
$PUCSNAME
  2

  9
$PUCSORG
 10
0.0
 20
0.0
 30
0.0
  9
$PUCSXDIR
 10
1.0
 20
0.0
 30
0.0
  9
$PUCSYDIR
 10
0.0
 20
1.0
 30
0.0
  9
$PUCSORTHOREF
  2

  9
$PUCSORTHOVIEW
 70
     0
  9
$PUCSORGTOP
 10
0.0
 20
0.0
 30
0.0
  9
$PUCSORGBOTTOM
 10
0.0
 20
0.0
 30
0.0
  9
$PUCSORGLEFT
 10
0.0
 20
0.0
 30
0.0
  9
$PUCSORGRIGHT
 10
0.0
 20
0.0
 30
0.0
  9
$PUCSORGFRONT
 10
0.0
 20
0.0
 30
0.0
  9
$PUCSORGBACK
 10
0.0
 20
0.0
 30
0.0
  9
$USERI1
 70
     0
  9
$USERI2
 70
     0
  9
$USERI3
 70
     0
  9
$USERI4
 70
     0
  9
$USERI5
 70
     0
  9
$USERR1
 40
0.0
  9
$USERR2
 40
0.0
  9
$USERR3
 40
0.0
  9
$USERR4
 40
0.0
  9
$USERR5
 40
0.0
  9
$WORLDVIEW
 70
     1
  9
$SHADEDGE
 70
     3
  9
$SHADEDIF
 70
    70
  9
$TILEMODE
 70
     1
  9
$MAXACTVP
 70
    16
  9
$PINSBASE
 10
0.0
 20
0.0
 30
0.0
  9
$PLIMCHECK
 70
     0
  9
$PEXTMIN
 10
1.000000E+20
 20
1.000000E+20
 30
1.000000E+20
  9
$PEXTMAX
 10
-1.000000E+20
 20
-1.000000E+20
 30
-1.000000E+20
  9
$PLIMMIN
 10
0.0
 20
0.0
  9
$PLIMMAX
 10
12.0
 20
9.0
  9
$UNITMODE
 70
     0
  9
$VISRETAIN
 70
     0
  9
$PLINEGEN
 70
     1
  9
$PSLTSCALE
 70
     0
  9
$TREEDEPTH
 70
  3020
  9
$CMLSTYLE
  2
Standard
  9
$CMLJUST
 70
     0
  9
$CMLSCALE
 40
1.0
  9
$PROXYGRAPHICS
 70
     0
  9
$MEASUREMENT
 70
     0
  9
$CELWEIGHT
370
     0
  9
$ENDCAPS
280
     0
  9
$JOINSTYLE
280
     0
  9
$LWDISPLAY
290
     0
  9
$INSUNITS
 70
     5
  9
$HYPERLINKBASE
  1

  9
$XEDIT
290
     1
  9
$CEPSNTYPE
380
     0
  9
$PSTYLEMODE
290
     1
  9
$FINGERPRINTGUID
  2

  9
$VERSIONGUID
  2

  9
$EXTNAMES
290
     1
  9
$PSVPSCALE
 40
0.0
  0
ENDSEC
  0
SECTION
  2
CLASSES
  0
CLASS
  1
LWPOLYLINE
  2
AcDbPolyline
  3
AutoCAD 2000
 90
    32768
280
     0
281
     1
  0
CLASS
  1
IMAGE
  2
AcDbRasterImage
  3
ISM
 90
    32895
280
     0
281
     1
  0
CLASS
  1
OLE2FRAME
  2
AcDbOle2Frame
  3
AutoCAD 2000
 90
    32768
280
     0
281
     1
  0
CLASS
  1
HATCH
  2
AcDbHatch
  3
AutoCAD 2000
 90
    32768
280
     0
281
     1
  0
CLASS
  1
DICTIONARYVAR
  2
AcDbDictionaryVar
  3
AutoCAD 2000
 90
    32768
280
     0
281
     0
  0
CLASS
  1
RASTERVARIABLES
  2
AcDbRasterVariables
  3
ISM
 90
    32768
280
     0
281
     0
  0
CLASS
  1
IMAGEDEF
  2
AcDbRasterImageDef
  3
ISM
 90
    32768
280
     0
281
     0
  0
CLASS
  1
IMAGEDEF_REACTOR
  2
AcDbRasterImageDefReactor
  3
ISM
 90
    32769
280
     0
281
     0
  0
CLASS
  1
IDBUFFER
  2
AcDbIdBuffer
  3
AutoCAD 2000
 90
    32768
280
     0
281
     0
  0
CLASS
  1
SPATIAL_FILTER
  2
AcDbSpatialFilter
  3
AutoCAD 2000
 90
    32768
280
     0
281
     0
  0
CLASS
  1
XRECORD
  2
AcDbXrecord
  3
AutoCAD 2000
 90
    32768
280
     0
281
     0
  0
CLASS
  1
SORTENTSTABLE
  2
AcDbSortentsTable
  3
AutoCAD 2000
 90
    32768
280
     0
281
     0
  0
CLASS
  1
LAYER_INDEX
  2
AcDbLayerIndex
  3
AutoCAD 2000
 90
    32768
280
     0
281
     0
  0
CLASS
  1
SPATIAL_INDEX
  2
AcDbSpatialIndex
  3
AutoCAD 2000
 90
    32768
280
     0
281
     0
  0
CLASS
  1
OBJECT_PTR
  2
CAseDLPNTableRecord
  3
"ASE-LPNTableRecord"
 90
    32769
280
     0
281
     0
  0
CLASS
  1
LAYOUT
  2
AcDbLayout
  3
AutoCAD 2000
 90
        0
280
     0
281
     0
  0
CLASS
  1
PLOTSETTINGS
  2
AcDbPlotSettings
  3
AutoCAD 2000
 90
    32768
280
     0
281
     0
  0
CLASS
  1
ACDBDICTIONARYWDFLT
  2
AcDbDictionaryWithDefault
  3
AutoCAD 2000
 90
        0
280
     0
281
     0
  0
CLASS
  1
ACDBPLACEHOLDER
  2
AcDbPlaceHolder
  3
AutoCAD 2000
 90
        0
280
     0
281
     0
  0
CLASS
  1
VBA_PROJECT
  2
AcDbVbaProject
  3
acadvba
 90
    32768
280
     0
281
     0
  0
CLASS
  1
WIPEOUT
  2
AcDbWipeout
  3
WipeOut|AutoCAD Express Tool|expresstools@autodesk.com
 90
    32895
280
     0
281
     1
  0
CLASS
  1
WIPEOUTVARIABLES
  2
AcDbWipeoutVariables
  3
WipeOut|AutoCAD Express Tool|expresstools@autodesk.com
 90
        0
280
     0
281
     0
  0
CLASS
  1
RTEXT
  2
RText
  3
RText|AutoCAD Express Tool|expresstools@autodesk.com
 90
    32768
280
     0
281
     1
  0
CLASS
  1
ARCALIGNEDTEXT
  2
AcDbArcAlignedText
  3
ATEXT|AutoCAD Express Tool|expresstools@autodesk.com
 90
    32768
280
     0
281
     1
  0
ENDSEC
  0
SECTION
  2
TABLES
  0
TABLE
  2
VPORT
  5
7
100
AcDbSymbolTable
 70
     1
  0
VPORT
  5
15
100
AcDbSymbolTableRecord
100
AcDbViewportTableRecord
  2
*ACTIVE
 70
     0
 10
0.0
 20
0.0
 11
1.0
 21
1.0
 12
6.591288
 22
4.579184
 13
0.0
 23
0.0
 14
1.0
 24
1.0
 15
0.0
 25
0.0
 16
0.0
 26
0.0
 36
1.0
 17
0.0
 27
0.0
 37
0.0
 40
9.158369
 41
0.688564
 42
50.0
 43
0.0
 44
0.0
 50
0.0
 51
0.0
 71
     0
 72
   100
 73
     1
 74
     1
 75
     0
 76
     0
 77
     0
 78
     0
281
     0
 65
     0
110
0.0
120
0.0
130
0.0
111
1.0
121
0.0
131
0.0
112
0.0
122
1.0
132
0.0
345
0
346
0
 79
     0
146
0.0
  0
ENDTAB
  0
TABLE
  2
LTYPE
  5
4
100
AcDbSymbolTable
 70
     3
  0
LTYPE
  5
11
100
AcDbSymbolTableRecord
100
AcDbLinetypeTableRecord
  2
ByBlock
 70
    64
  3

 72
    65
 73
     0
 40
0.0
  0
LTYPE
  5
12
100
AcDbSymbolTableRecord
100
AcDbLinetypeTableRecord
  2
ByLayer
 70
    64
  3

 72
    65
 73
     0
 40
0.0
  0
LTYPE
  5
13
100
AcDbSymbolTableRecord
100
AcDbLinetypeTableRecord
  2
Continuous
 70
    64
  3
Solid line
 72
    65
 73
     0
 40
0.0
  0
ENDTAB
  0
TABLE
  2
LAYER
  5
2
100
AcDbSymbolTable
 70
     2
  0
LAYER
  5
14
100
AcDbSymbolTableRecord
100
AcDbLayerTableRecord
  2
0
 70
     0
 62
     7
  6
Continuous
290
     1
370
    -3
390
1D
  0
LAYER
  5
24
100
AcDbSymbolTableRecord
100
AcDbLayerTableRecord
  2
Ebene 1
 70
     0
 62
     7
  6
Continuous
290
     1
370
    -3
390
1F
  0
ENDTAB
  0
TABLE
  2
STYLE
  5
3
100
AcDbSymbolTable
 70
     1
  0
STYLE
  5
17
100
AcDbSymbolTableRecord
100
AcDbTextStyleTableRecord
  2
Standard
 70
     0
 40
0.0
 41
1.0
 50
0.0
 71
     0
 42
0.0
  3
txt
  4

  0
ENDTAB
  0
TABLE
  2
VIEW
  5
5
100
AcDbSymbolTable
 70
     0
  0
ENDTAB
  0
TABLE
  2
UCS
  5
6
100
AcDbSymbolTable
 70
     0
  0
ENDTAB
  0
TABLE
  2
APPID
  5
8
100
AcDbSymbolTable
 70
     1
  0
APPID
  5
16
100
AcDbSymbolTableRecord
100
AcDbRegAppTableRecord
  2
ACAD
 70
     0
  0
ENDTAB
  0
TABLE
  2
DIMSTYLE
  5
9
100
AcDbSymbolTable
 70
     1
100
AcDbDimStyleTable
 71
     0
  0
DIMSTYLE
105
18
100
AcDbSymbolTableRecord
100
AcDbDimStyleTableRecord
  2
Standard
 70
     0
  3

  4

 40
1.0
 41
0.18
 42
0.0625
 43
0.38
 44
0.18
 45
0.0
 46
0.0
 47
0.0
 48
0.0
 71
     0
 72
     0
 73
     1
 74
     1
 75
     0
 76
     0
 77
     0
 78
     0
 79
     0
140
0.18
141
0.09
142
0.0
143
25.4
144
1.0
145
0.0
146
1.0
147
0.09
148
0.0
170
     0
171
     2
172
     0
173
     0
174
     0
175
     0
176
     0
177
     0
178
     0
179
     0
271
     4
272
     4
273
     2
274
     2
275
     0
276
     0
277
     2
278
    46
279
     0
280
     0
281
     0
282
     0
283
     1
284
     0
285
     0
286
     0
288
     0
340
17
341
0
342
0
343
0
344
0
371
    -2
372
    -2
  0
ENDTAB
  0
TABLE
  2
BLOCK_RECORD
  5
1
100
AcDbSymbolTable
 70
     0
  0
BLOCK_RECORD
  5
A
100
AcDbSymbolTableRecord
100
AcDbBlockTableRecord
  2
*MODEL_SPACE
340
20
  0
BLOCK_RECORD
  5
B
100
AcDbSymbolTableRecord
100
AcDbBlockTableRecord
  2
*PAPER_SPACE
340
21
  0
ENDTAB
  0
ENDSEC
  0
SECTION
  2
BLOCKS
  0
BLOCK
  5
D
100
AcDbEntity
  8
0
100
AcDbBlockBegin
  2
*MODEL_SPACE
 70
     0
 10
0.0
 20
0.0
 30
0.0
  3
*MODEL_SPACE
  1

  0
ENDBLK
  5
E
100
AcDbEntity
  8
0
100
AcDbBlockEnd
  0
BLOCK
  5
F
100
AcDbEntity
 67
     1
  8
0
100
AcDbBlockBegin
  2
*PAPER_SPACE
 70
     0
 10
0.0
 20
0.0
 30
0.0
  3
*PAPER_SPACE
  1

  0
ENDBLK
  5
10
100
AcDbEntity
 67
     1
  8
0
100
AcDbBlockEnd
  0
ENDSEC
  0
SECTION
  2
ENTITIES
  0
SPLINE
  5
25
100
AcDbEntity
  8
Ebene 1
100
AcDbSpline
210
0.0
220
0.0
230
1.0
 70
     1
 71
     3
 72
    96
 73
    92
 74
     0
 42
0.0000000001
 43
0.0000000001
 40
0.0
 40
0.0
 40
0.0
 40
0.0
 40
0.0434782608695652
 40
0.0434782608695652
 40
0.0434782608695652
 40
0.0434782608695652
 40
0.0869565217391304
 40
0.0869565217391304
 40
0.0869565217391304
 40
0.0869565217391304
 40
0.1304347826086957
 40
0.1304347826086957
 40
0.1304347826086957
 40
0.1304347826086957
 40
0.1739130434782609
 40
0.1739130434782609
 40
0.1739130434782609
 40
0.1739130434782609
 40
0.2173913043478261
 40
0.2173913043478261
 40
0.2173913043478261
 40
0.2173913043478261
 40
0.2608695652173913
 40
0.2608695652173913
 40
0.2608695652173913
 40
0.2608695652173913
 40
0.3043478260869565
 40
0.3043478260869565
 40
0.3043478260869565
 40
0.3043478260869565
 40
0.3478260869565217
 40
0.3478260869565217
 40
0.3478260869565217
 40
0.3478260869565217
 40
0.3913043478260869
 40
0.3913043478260869
 40
0.3913043478260869
 40
0.3913043478260869
 40
0.4347826086956521
 40
0.4347826086956521
 40
0.4347826086956521
 40
0.4347826086956521
 40
0.4782608695652173
 40
0.4782608695652173
 40
0.4782608695652173
 40
0.4782608695652173
 40
0.5217391304347825
 40
0.5217391304347825
 40
0.5217391304347825
 40
0.5217391304347825
 40
0.5652173913043477
 40
0.5652173913043477
 40
0.5652173913043477
 40
0.5652173913043477
 40
0.6086956521739129
 40
0.6086956521739129
 40
0.6086956521739129
 40
0.6086956521739129
 40
0.6521739130434781
 40
0.6521739130434781
 40
0.6521739130434781
 40
0.6521739130434781
 40
0.6956521739130432
 40
0.6956521739130432
 40
0.6956521739130432
 40
0.6956521739130432
 40
0.7391304347826084
 40
0.7391304347826084
 40
0.7391304347826084
 40
0.7391304347826084
 40
0.7826086956521736
 40
0.7826086956521736
 40
0.7826086956521736
 40
0.7826086956521736
 40
0.8260869565217388
 40
0.8260869565217388
 40
0.8260869565217388
 40
0.8260869565217388
 40
0.869565217391304
 40
0.869565217391304
 40
0.869565217391304
 40
0.869565217391304
 40
0.9130434782608692
 40
0.9130434782608692
 40
0.9130434782608692
 40
0.9130434782608692
 40
0.9565217391304344
 40
0.9565217391304344
 40
0.9565217391304344
 40
0.9565217391304344
 40
1.0
 40
1.0
 40
1.0
 40
1.0
 10
-0.74407
 20
6.1132100000000005
 30
0.0
 10
1.2168000000000001
 20
6.2783100000000003
 30
0.0
 10
3.5459800000000001
 20
5.2140500000000003
 30
0.0
 10
3.5612200000000005
 20
3.0144100000000003
 30
0.0
 10
3.5612200000000005
 20
3.0144100000000003
 30
0.0
 10
3.6196400000000004
 20
2.6740500000000003
 30
0.0
 10
3.6348800000000003
 20
2.3209900000000001
 30
0.0
 10
3.6653600000000002
 20
1.9704700000000002
 30
0.0
 10
3.6653600000000002
 20
1.9704700000000002
 30
0.0
 10
3.7415600000000002
 20
1.61233
 30
0.0
 10
3.8177600000000003
 20
1.2491100000000002
 30
0.0
 10
3.9371400000000003
 20
0.9036700000000001
 30
0.0
 10
3.9371400000000003
 20
0.9036700000000001
 30
0.0
 10
4.0743
 20
0.61919
 30
0.0
 10
4.3156000000000008
 20
0.37027
 30
0.0
 10
4.5721400000000001
 20
0.21787
 30
0.0
 10
4.5721400000000001
 20
0.21787
 30
0.0
 10
4.0895400000000004
 20
-0.22662
 30
0.0
 10
3.3173800000000004
 20
-0.4145800000000001
 30
0.0
 10
2.9262200000000003
 20
-1.0165600000000001
 30
0.0
 10
2.9262200000000003
 20
-1.0165600000000001
 30
0.0
 10
2.8195400000000004
 20
-0.9327400000000001
 30
0.0
 10
2.6823800000000002
 20
-0.7244600000000001
 30
0.0
 10
2.50204
 20
-0.8997200000000001
 30
0.0
 10
2.50204
 20
-0.8997200000000001
 30
0.0
 10
2.3521800000000002
 20
-1.5271000000000001
 30
0.0
 10
2.4715600000000002
 20
-2.2332200000000002
 30
0.0
 10
2.3521800000000002
 20
-2.8707600000000002
 30
0.0
 10
2.3521800000000002
 20
-2.8707600000000002
 30
0.0
 10
1.0059800000000001
 20
-3.5286200000000001
 30
0.0
 10
0.7799200000000001
 20
-5.2761400000000007
 30
0.0
 10
-0.35037
 20
-6.1346600000000002
 30
0.0
 10
-0.35037
 20
-6.1346600000000002
 30
0.0
 10
-0.29195
 20
-5.6596800000000007
 30
0.0
 10
-0.26147
 20
-5.1186600000000002
 30
0.0
 10
-0.27671
 20
-4.6005000000000003
 30
0.0
 10
-0.27671
 20
-4.6005000000000003
 30
0.0
 10
-0.27671
 20
-4.6005000000000003
 30
0.0
 10
-0.3656100000000001
 20
-4.6462200000000005
 30
0.0
 10
-0.3656100000000001
 20
-4.6462200000000005
 30
0.0
 10
-0.3656100000000001
 20
-4.6462200000000005
 30
0.0
 10
-0.8939300000000001
 20
-5.2329600000000003
 30
0.0
 10
-1.6508500000000002
 20
-5.0983400000000003
 30
0.0
 10
-2.3264900000000002
 20
-5.0475400000000006
 30
0.0
 10
-2.3264900000000002
 20
-5.0475400000000006
 30
0.0
 10
-2.3264900000000002
 20
-5.0475400000000006
 30
0.0
 10
-2.6516100000000002
 20
-4.2550600000000003
 30
0.0
 10
-2.6516100000000002
 20
-4.2550600000000003
 30
0.0
 10
-2.6516100000000002
 20
-4.2550600000000003
 30
0.0
 10
-2.8725900000000002
 20
-3.8943800000000004
 30
0.0
 10
-2.7608300000000003
 20
-4.93832
 30
0.0
 10
-2.7532100000000002
 20
-5.1720000000000006
 30
0.0
 10
-2.7532100000000002
 20
-5.1720000000000006
 30
0.0
 10
-2.7532100000000002
 20
-5.1720000000000006
 30
0.0
 10
-2.6617700000000002
 20
-5.9568600000000007
 30
0.0
 10
-2.6617700000000002
 20
-5.9568600000000007
 30
0.0
 10
-2.6617700000000002
 20
-5.9568600000000007
 30
0.0
 10
-3.3120100000000003
 20
-5.0145200000000001
 30
0.0
 10
-2.9564100000000004
 20
-3.6657800000000003
 30
0.0
 10
-3.5990300000000004
 20
-2.73868
 30
0.0
 10
-3.5990300000000004
 20
-2.73868
 30
0.0
 10
-3.2739100000000003
 20
-1.5194800000000002
 30
0.0
 10
-3.8504900000000002
 20
-0.46284
 30
0.0
 10
-4.56677
 20
0.44647
 30
0.0
 10
-4.56677
 20
0.44647
 30
0.0
 10
-3.4745700000000004
 20
0.9163700000000001
 30
0.0
 10
-4.2746700000000004
 20
2.13557
 30
0.0
 10
-4.0384500000000001
 20
2.9229700000000003
 30
0.0
 10
-4.0384500000000001
 20
2.9229700000000003
 30
0.0
 10
-3.9952700000000005
 20
2.8721700000000001
 30
0.0
 10
-3.9724100000000004
 20
2.7934300000000003
 30
0.0
 10
-3.9470100000000001
 20
2.7273900000000002
 30
0.0
 10
-3.9470100000000001
 20
2.7273900000000002
 30
0.0
 10
-3.8962100000000004
 20
2.5622900000000004
 30
0.0
 10
-3.8504900000000002
 20
2.7223100000000002
 30
0.0
 10
-3.8708100000000005
 20
2.8188300000000002
 30
0.0
 10
-3.8708100000000005
 20
2.8188300000000002
 30
0.0
 10
-3.8962100000000004
 20
3.1058500000000002
 30
0.0
 10
-3.8301700000000003
 20
3.3674700000000004
 30
0.0
 10
-3.7819100000000003
 20
3.6341700000000001
 30
0.0
 10
-3.7819100000000003
 20
3.6341700000000001
 30
0.0
 10
-3.7819100000000003
 20
3.6341700000000001
 30
0.0
 10
-4.1883100000000004
 20
4.0431100000000004
 30
0.0
 10
-4.1883100000000004
 20
4.0431100000000004
 30
0.0
 10
-4.1883100000000004
 20
4.0431100000000004
 30
0.0
 10
-4.0816300000000005
 20
4.3987100000000003
 30
0.0
 10
-3.8073100000000002
 20
4.5815900000000003
 30
0.0
 10
-3.4669500000000002
 20
4.3936299999999999
 30
0.0
 10
-3.4669500000000002
 20
4.3936299999999999
 30
0.0
 10
-2.94625
 20
5.4223300000000005
 30
0.0
 10
-1.75753
 20
5.8414300000000008
 30
0.0
 10
-0.74407
 20
6.1132100000000005
 30
0.0
  0
SPLINE
  5
26
100
AcDbEntity
  8
Ebene 1
 62
     7
100
AcDbSpline
210
0.0
220
0.0
230
1.0
 70
     1
 71
     3
 72
   144
 73
   140
 74
     0
 42
0.0000000001
 43
0.0000000001
 40
0.0
 40
0.0
 40
0.0
 40
0.0
 40
0.0285714285714286
 40
0.0285714285714286
 40
0.0285714285714286
 40
0.0285714285714286
 40
0.0571428571428571
 40
0.0571428571428571
 40
0.0571428571428571
 40
0.0571428571428571
 40
0.0857142857142857
 40
0.0857142857142857
 40
0.0857142857142857
 40
0.0857142857142857
 40
0.1142857142857143
 40
0.1142857142857143
 40
0.1142857142857143
 40
0.1142857142857143
 40
0.1428571428571429
 40
0.1428571428571429
 40
0.1428571428571429
 40
0.1428571428571429
 40
0.1714285714285714
 40
0.1714285714285714
 40
0.1714285714285714
 40
0.1714285714285714
 40
0.2
 40
0.2
 40
0.2
 40
0.2
 40
0.2285714285714286
 40
0.2285714285714286
 40
0.2285714285714286
 40
0.2285714285714286
 40
0.2571428571428572
 40
0.2571428571428572
 40
0.2571428571428572
 40
0.2571428571428572
 40
0.2857142857142858
 40
0.2857142857142858
 40
0.2857142857142858
 40
0.2857142857142858
 40
0.3142857142857143
 40
0.3142857142857143
 40
0.3142857142857143
 40
0.3142857142857143
 40
0.3428571428571429
 40
0.3428571428571429
 40
0.3428571428571429
 40
0.3428571428571429
 40
0.3714285714285715
 40
0.3714285714285715
 40
0.3714285714285715
 40
0.3714285714285715
 40
0.4000000000000001
 40
0.4000000000000001
 40
0.4000000000000001
 40
0.4000000000000001
 40
0.4285714285714287
 40
0.4285714285714287
 40
0.4285714285714287
 40
0.4285714285714287
 40
0.4571428571428572
 40
0.4571428571428572
 40
0.4571428571428572
 40
0.4571428571428572
 40
0.4857142857142858
 40
0.4857142857142858
 40
0.4857142857142858
 40
0.4857142857142858
 40
0.5142857142857144
 40
0.5142857142857144
 40
0.5142857142857144
 40
0.5142857142857144
 40
0.5428571428571429
 40
0.5428571428571429
 40
0.5428571428571429
 40
0.5428571428571429
 40
0.5714285714285715
 40
0.5714285714285715
 40
0.5714285714285715
 40
0.5714285714285715
 40
0.6000000000000001
 40
0.6000000000000001
 40
0.6000000000000001
 40
0.6000000000000001
 40
0.6285714285714287
 40
0.6285714285714287
 40
0.6285714285714287
 40
0.6285714285714287
 40
0.6571428571428573
 40
0.6571428571428573
 40
0.6571428571428573
 40
0.6571428571428573
 40
0.6857142857142858
 40
0.6857142857142858
 40
0.6857142857142858
 40
0.6857142857142858
 40
0.7142857142857144
 40
0.7142857142857144
 40
0.7142857142857144
 40
0.7142857142857144
 40
0.742857142857143
 40
0.742857142857143
 40
0.742857142857143
 40
0.742857142857143
 40
0.7714285714285716
 40
0.7714285714285716
 40
0.7714285714285716
 40
0.7714285714285716
 40
0.8000000000000002
 40
0.8000000000000002
 40
0.8000000000000002
 40
0.8000000000000002
 40
0.8285714285714287
 40
0.8285714285714287
 40
0.8285714285714287
 40
0.8285714285714287
 40
0.8571428571428573
 40
0.8571428571428573
 40
0.8571428571428573
 40
0.8571428571428573
 40
0.8857142857142859
 40
0.8857142857142859
 40
0.8857142857142859
 40
0.8857142857142859
 40
0.9142857142857145
 40
0.9142857142857145
 40
0.9142857142857145
 40
0.9142857142857145
 40
0.9428571428571431
 40
0.9428571428571431
 40
0.9428571428571431
 40
0.9428571428571431
 40
0.9714285714285716
 40
0.9714285714285716
 40
0.9714285714285716
 40
0.9714285714285716
 40
1.0
 40
1.0
 40
1.0
 40
1.0
 10
-0.6831100000000001
 20
5.9912900000000002
 30
0.0
 10
0.5691000000000001
 20
5.9912900000000002
 30
0.0
 10
2.0626200000000003
 20
5.8998500000000007
 30
0.0
 10
2.7281000000000004
 20
4.6781100000000002
 30
0.0
 10
2.7281000000000004
 20
4.6781100000000002
 30
0.0
 10
2.4868000000000001
 20
4.5485700000000007
 30
0.0
 10
2.3064600000000004
 20
4.4952300000000003
 30
0.0
 10
2.0804
 20
4.3402900000000004
 30
0.0
 10
2.0804
 20
4.3402900000000004
 30
0.0
 10
1.9889600000000001
 20
4.1955100000000005
 30
0.0
 10
2.0346800000000003
 20
3.9999300000000004
 30
0.0
 10
2.0804
 20
3.8500700000000001
 30
0.0
 10
2.0804
 20
3.8500700000000001
 30
0.0
 10
2.42584
 20
3.2963500000000003
 30
0.0
 10
2.8957400000000004
 20
3.8856300000000004
 30
0.0
 10
3.1522800000000002
 20
4.1929700000000008
 30
0.0
 10
3.1522800000000002
 20
4.1929700000000008
 30
0.0
 10
3.3173800000000004
 20
3.8957900000000003
 30
0.0
 10
3.4088200000000004
 20
3.5401900000000004
 30
0.0
 10
3.4088200000000004
 20
3.1845900000000005
 30
0.0
 10
3.4088200000000004
 20
3.1845900000000005
 30
0.0
 10
2.71286
 20
3.4208100000000004
 30
0.0
 10
2.3674200000000001
 20
2.4810100000000004
 30
0.0
 10
2.4868000000000001
 20
1.9120500000000002
 30
0.0
 10
2.4868000000000001
 20
1.9120500000000002
 30
0.0
 10
2.4563200000000003
 20
1.3507100000000001
 30
0.0
 10
3.1675200000000001
 20
0.26105
 30
0.0
 10
3.6069400000000003
 20
1.0332100000000002
 30
0.0
 10
3.6069400000000003
 20
1.0332100000000002
 30
0.0
 10
3.6653600000000002
 20
0.64205
 30
0.0
 10
3.3326200000000004
 20
0.3804300000000001
 30
0.0
 10
3.2107000000000001
 20
0.05277
 30
0.0
 10
3.2107000000000001
 20
0.05277
 30
0.0
 10
3.3478600000000003
 20
-0.4882400000000001
 30
0.0
 10
3.0760800000000001
 20
-0.8717800000000001
 30
0.0
 10
2.50204
 20
-0.7701800000000001
 30
0.0
 10
2.50204
 20
-0.7701800000000001
 30
0.0
 10
2.42584
 20
-0.59238
 30
0.0
 10
2.5172800000000004
 20
-0.37902
 30
0.0
 10
2.5477600000000002
 20
-0.19614
 30
0.0
 10
2.5477600000000002
 20
-0.19614
 30
0.0
 10
2.5172800000000004
 20
-0.08692
 30
0.0
 10
2.6087200000000004
 20
0.01975
 30
0.0
 10
2.5782400000000001
 20
0.11373
 30
0.0
 10
2.5782400000000001
 20
0.11373
 30
0.0
 10
2.1845400000000001
 20
-0.76256
 30
0.0
 10
2.4715600000000002
 20
-1.8750800000000001
 30
0.0
 10
2.1997800000000001
 20
-2.8098000000000001
 30
0.0
 10
2.1997800000000001
 20
-2.8098000000000001
 30
0.0
 10
1.7781400000000001
 20
-3.1044400000000003
 30
0.0
 10
1.3082400000000001
 20
-3.4295600000000004
 30
0.0
 10
0.9907400000000001
 20
-3.8385000000000002
 30
0.0
 10
0.9907400000000001
 20
-3.8385000000000002
 30
0.0
 10
0.6275200000000001
 20
-4.2118800000000007
 30
0.0
 10
0.71896
 20
-4.3287200000000006
 30
0.0
 10
1.0517000000000001
 20
-3.9070800000000001
 30
0.0
 10
1.0517000000000001
 20
-3.9070800000000001
 30
0.0
 10
1.0517000000000001
 20
-3.9070800000000001
 30
0.0
 10
1.1710800000000001
 20
-3.8156400000000001
 30
0.0
 10
1.1710800000000001
 20
-3.8156400000000001
 30
0.0
 10
1.1710800000000001
 20
-3.8156400000000001
 30
0.0
 10
0.8866000000000001
 20
-4.47858
 30
0.0
 10
0.4624200000000001
 20
-5.1491400000000001
 30
0.0
 10
-0.09383
 20
-5.6368200000000002
 30
0.0
 10
-0.09383
 20
-5.6368200000000002
 30
0.0
 10
-0.09383
 20
-5.6368200000000002
 30
0.0
 10
-0.24623
 20
-3.7394400000000001
 30
0.0
 10
-0.24623
 20
-3.7394400000000001
 30
0.0
 10
-0.24623
 20
-3.7394400000000001
 30
0.0
 10
0.5386200000000001
 20
-3.5895800000000002
 30
0.0
 10
0.8866000000000001
 20
-2.7285200000000001
 30
0.0
 10
1.2625200000000001
 20
-2.1240000000000001
 30
0.0
 10
1.2625200000000001
 20
-2.1240000000000001
 30
0.0
 10
1.0364600000000002
 20
-2.2662400000000003
 30
0.0
 10
0.9450200000000001
 20
-2.5964400000000003
 30
0.0
 10
0.7494400000000001
 20
-2.7234400000000001
 30
0.0
 10
0.7494400000000001
 20
-2.7234400000000001
 30
0.0
 10
0.76468
 20
-2.4745200000000001
 30
0.0
 10
0.71896
 20
-2.2433800000000002
 30
0.0
 10
0.658
 20
-2.01478
 30
0.0
 10
0.658
 20
-2.01478
 30
0.0
 10
0.6275200000000001
 20
-1.6998200000000001
 30
0.0
 10
0.55386
 20
-1.3493000000000002
 30
0.0
 10
0.6275200000000001
 20
-1.03434
 30
0.0
 10
0.6275200000000001
 20
-1.03434
 30
0.0
 10
1.23204
 20
-1.04196
 30
0.0
 10
1.7781400000000001
 20
-0.7930400000000001
 30
0.0
 10
2.2607400000000002
 20
-0.4679200000000001
 30
0.0
 10
2.2607400000000002
 20
-0.4679200000000001
 30
0.0
 10
2.0804
 20
-0.46284
 30
0.0
 10
1.9127600000000002
 20
-0.6406400000000001
 30
0.0
 10
1.7171800000000002
 20
-0.6660400000000001
 30
0.0
 10
1.7171800000000002
 20
-0.6660400000000001
 30
0.0
 10
2.1540600000000003
 20
0.18739
 30
0.0
 10
2.21502
 20
1.5869300000000002
 30
0.0
 10
1.2015600000000002
 20
2.0771500000000001
 30
0.0
 10
1.2015600000000002
 20
2.0771500000000001
 30
0.0
 10
1.18632
 20
2.3133700000000004
 30
0.0
 10
1.5038200000000002
 20
3.2988900000000001
 30
0.0
 10
1.1710800000000001
 20
3.0194900000000002
 30
0.0
 10
1.1710800000000001
 20
3.0194900000000002
 30
0.0
 10
1.0974200000000001
 20
2.9102700000000001
 30
0.0
 10
1.0821800000000001
 20
3.0042500000000003
 30
0.0
 10
1.0974200000000001
 20
3.0906100000000003
 30
0.0
 10
1.0974200000000001
 20
3.0906100000000003
 30
0.0
 10
1.4149200000000002
 20
3.7179900000000004
 30
0.0
 10
1.6105
 20
4.6044500000000008
 30
0.0
 10
1.0517000000000001
 20
5.1734100000000005
 30
0.0
 10
1.0517000000000001
 20
5.1734100000000005
 30
0.0
 10
0.70372
 20
4.71875
 30
0.0
 10
0.20588
 20
4.1269300000000007
 30
0.0
 10
-0.3960900000000001
 20
3.9034100000000005
 30
0.0
 10
-0.3960900000000001
 20
3.9034100000000005
 30
0.0
 10
-0.17003
 20
3.6697300000000004
 30
0.0
 10
0.14492
 20
2.68167
 30
0.0
 10
-0.47229
 20
2.80105
 30
0.0
 10
-0.47229
 20
2.80105
 30
0.0
 10
-0.8355100000000001
 20
2.0161900000000004
 30
0.0
 10
-2.22743
 20
2.0212700000000003
 30
0.0
 10
-2.0902700000000003
 20
3.1160100000000002
 30
0.0
 10
-2.0902700000000003
 20
3.1160100000000002
 30
0.0
 10
-2.2172700000000001
 20
3.0245700000000002
 30
0.0
 10
-2.18933
 20
2.8035900000000002
 30
0.0
 10
-2.2426700000000004
 20
2.6562700000000001
 30
0.0
 10
-2.2426700000000004
 20
2.6562700000000001
 30
0.0
 10
-2.3112500000000002
 20
2.5013300000000003
 30
0.0
 10
-2.3671300000000004
 20
2.3133700000000004
 30
0.0
 10
-2.5119100000000003
 20
2.2143100000000002
 30
0.0
 10
-2.5119100000000003
 20
2.2143100000000002
 30
0.0
 10
-3.2637500000000004
 20
2.33623
 30
0.0
 10
-3.3450300000000004
 20
3.3420700000000001
 30
0.0
 10
-2.7684500000000001
 20
3.7383100000000002
 30
0.0
 10
-2.7684500000000001
 20
3.7383100000000002
 30
0.0
 10
-3.0351500000000002
 20
3.9618300000000004
 30
0.0
 10
-3.2053300000000005
 20
4.3402900000000004
 30
0.0
 10
-3.15707
 20
4.71875
 30
0.0
 10
-3.15707
 20
4.71875
 30
0.0
 10
-2.4687300000000003
 20
5.4299500000000007
 30
0.0
 10
-1.6178300000000001
 20
5.8109500000000001
 30
0.0
 10
-0.6831100000000001
 20
5.9912900000000002
 30
0.0
  0
SPLINE
  5
27
100
AcDbEntity
  8
Ebene 1
 62
     7
100
AcDbSpline
210
0.0
220
0.0
230
1.0
 70
     1
 71
     3
 72
    28
 73
    24
 74
     0
 42
0.0000000001
 43
0.0000000001
 40
0.0
 40
0.0
 40
0.0
 40
0.0
 40
0.1666666666666667
 40
0.1666666666666667
 40
0.1666666666666667
 40
0.1666666666666667
 40
0.3333333333333333
 40
0.3333333333333333
 40
0.3333333333333333
 40
0.3333333333333333
 40
0.5
 40
0.5
 40
0.5
 40
0.5
 40
0.6666666666666666
 40
0.6666666666666666
 40
0.6666666666666666
 40
0.6666666666666666
 40
0.8333333333333333
 40
0.8333333333333333
 40
0.8333333333333333
 40
0.8333333333333333
 40
1.0
 40
1.0
 40
1.0
 40
1.0
 10
0.9907400000000001
 20
4.97783
 30
0.0
 10
1.4581000000000002
 20
4.5815900000000003
 30
0.0
 10
1.4581000000000002
 20
3.8068900000000001
 30
0.0
 10
1.0974200000000001
 20
3.3446100000000003
 30
0.0
 10
1.0974200000000001
 20
3.3446100000000003
 30
0.0
 10
1.0821800000000001
 20
2.8645500000000004
 30
0.0
 10
0.71896
 20
2.5775300000000003
 30
0.0
 10
0.44718
 20
2.2193900000000002
 30
0.0
 10
0.44718
 20
2.2193900000000002
 30
0.0
 10
0.44718
 20
2.2193900000000002
 30
0.0
 10
-0.04811
 20
2.1889100000000004
 30
0.0
 10
-0.04811
 20
2.1889100000000004
 30
0.0
 10
-0.04811
 20
2.1889100000000004
 30
0.0
 10
-0.04811
 20
2.1889100000000004
 30
0.0
 10
-0.21575
 20
2.63849
 30
0.0
 10
-0.21575
 20
2.63849
 30
0.0
 10
-0.21575
 20
2.63849
 30
0.0
 10
0.16016
 20
2.9153500000000001
 30
0.0
 10
0.0992
 20
3.4614500000000001
 30
0.0
 10
-0.00239
 20
3.8576900000000003
 30
0.0
 10
-0.00239
 20
3.8576900000000003
 30
0.0
 10
0.37098
 20
4.1828099999999999
 30
0.0
 10
0.82564
 20
4.4952300000000003
 30
0.0
 10
0.9907400000000001
 20
4.97783
 30
0.0
  0
SPLINE
  5
28
100
AcDbEntity
  8
Ebene 1
 62
     7
100
AcDbSpline
210
0.0
220
0.0
230
1.0
 70
     1
 71
     3
 72
    12
 73
     8
 74
     0
 42
0.0000000001
 43
0.0000000001
 40
0.0
 40
0.0
 40
0.0
 40
0.0
 40
0.5
 40
0.5
 40
0.5
 40
0.5
 40
1.0
 40
1.0
 40
1.0
 40
1.0
 10
2.7890600000000001
 20
4.6019100000000002
 30
0.0
 10
2.8500200000000002
 20
4.5968300000000006
 30
0.0
 10
2.7738200000000002
 20
4.5206300000000006
 30
0.0
 10
2.7585800000000003
 20
4.5003100000000007
 30
0.0
 10
2.7585800000000003
 20
4.5003100000000007
 30
0.0
 10
2.6671400000000003
 20
4.5257100000000001
 30
0.0
 10
2.7585800000000003
 20
4.5663500000000008
 30
0.0
 10
2.7890600000000001
 20
4.6019100000000002
 30
0.0
  0
SPLINE
  5
29
100
AcDbEntity
  8
Ebene 1
 62
     7
100
AcDbSpline
210
0.0
220
0.0
230
1.0
 70
     1
 71
     3
 72
    12
 73
     8
 74
     0
 42
0.0000000001
 43
0.0000000001
 40
0.0
 40
0.0
 40
0.0
 40
0.0
 40
0.5
 40
0.5
 40
0.5
 40
0.5
 40
1.0
 40
1.0
 40
1.0
 40
1.0
 10
2.8347800000000003
 20
4.5257100000000001
 30
0.0
 10
2.8805000000000001
 20
4.49777
 30
0.0
 10
2.8195400000000004
 20
4.4164900000000005
 30
0.0
 10
2.7738200000000002
 20
4.4241100000000007
 30
0.0
 10
2.7738200000000002
 20
4.4241100000000007
 30
0.0
 10
2.7738200000000002
 20
4.4241100000000007
 30
0.0
 10
2.8347800000000003
 20
4.5257100000000001
 30
0.0
 10
2.8347800000000003
 20
4.5257100000000001
 30
0.0
  0
SPLINE
  5
2A
100
AcDbEntity
  8
Ebene 1
 62
     7
100
AcDbSpline
210
0.0
220
0.0
230
1.0
 70
     1
 71
     3
 72
    12
 73
     8
 74
     0
 42
0.0000000001
 43
0.0000000001
 40
0.0
 40
0.0
 40
0.0
 40
0.0
 40
0.5
 40
0.5
 40
0.5
 40
0.5
 40
1.0
 40
1.0
 40
1.0
 40
1.0
 10
2.9541600000000003
 20
4.5257100000000001
 30
0.0
 10
3.0151200000000005
 20
4.5307900000000005
 30
0.0
 10
2.9541600000000003
 20
4.4444300000000005
 30
0.0
 10
2.9262200000000003
 20
4.4393500000000001
 30
0.0
 10
2.9262200000000003
 20
4.4393500000000001
 30
0.0
 10
2.9109800000000003
 20
4.4749100000000004
 30
0.0
 10
2.9389200000000004
 20
4.5003100000000007
 30
0.0
 10
2.9541600000000003
 20
4.5257100000000001
 30
0.0
  0
SPLINE
  5
2B
100
AcDbEntity
  8
Ebene 1
 62
     7
100
AcDbSpline
210
0.0
220
0.0
230
1.0
 70
     1
 71
     3
 72
    44
 73
    40
 74
     0
 42
0.0000000001
 43
0.0000000001
 40
0.0
 40
0.0
 40
0.0
 40
0.0
 40
0.1
 40
0.1
 40
0.1
 40
0.1
 40
0.2
 40
0.2
 40
0.2
 40
0.2
 40
0.3
 40
0.3
 40
0.3
 40
0.3
 40
0.4
 40
0.4
 40
0.4
 40
0.4
 40
0.5
 40
0.5
 40
0.5
 40
0.5
 40
0.6
 40
0.6
 40
0.6
 40
0.6
 40
0.7
 40
0.7
 40
0.7
 40
0.7
 40
0.7999999999999999
 40
0.7999999999999999
 40
0.7999999999999999
 40
0.7999999999999999
 40
0.8999999999999999
 40
0.8999999999999999
 40
0.8999999999999999
 40
0.8999999999999999
 40
1.0
 40
1.0
 40
1.0
 40
1.0
 10
-3.3272500000000003
 20
4.4952300000000003
 30
0.0
 10
-3.2358100000000003
 20
4.2640900000000004
 30
0.0
 10
-3.2154900000000004
 20
3.9796100000000005
 30
0.0
 10
-3.0402300000000002
 20
3.7687900000000005
 30
0.0
 10
-3.0402300000000002
 20
3.7687900000000005
 30
0.0
 10
-3.6091900000000003
 20
3.2303100000000002
 30
0.0
 10
-3.2256500000000004
 20
2.0898500000000002
 30
0.0
 10
-2.4179300000000001
 20
2.1381100000000002
 30
0.0
 10
-2.4179300000000001
 20
2.1381100000000002
 30
0.0
 10
-2.4179300000000001
 20
2.1381100000000002
 30
0.0
 10
-2.1359900000000001
 20
2.5292700000000004
 30
0.0
 10
-2.1359900000000001
 20
2.5292700000000004
 30
0.0
 10
-2.1359900000000001
 20
2.5292700000000004
 30
0.0
 10
-1.6356100000000002
 20
1.8383900000000002
 30
0.0
 10
-0.7313700000000001
 20
2.2778100000000001
 30
0.0
 10
-0.5180100000000001
 20
2.5318100000000001
 30
0.0
 10
-0.5180100000000001
 20
2.5318100000000001
 30
0.0
 10
-0.5637300000000001
 20
2.4327500000000004
 30
0.0
 10
-0.5180100000000001
 20
2.29813
 30
0.0
 10
-0.59421
 20
2.2193900000000002
 30
0.0
 10
-0.59421
 20
2.2193900000000002
 30
0.0
 10
-1.2876300000000001
 20
2.1482700000000001
 30
0.0
 10
-2.1918700000000002
 20
1.40659
 30
0.0
 10
-2.7125700000000004
 20
2.0593700000000004
 30
0.0
 10
-2.7125700000000004
 20
2.0593700000000004
 30
0.0
 10
-2.98943
 20
1.8612500000000001
 30
0.0
 10
-3.3729700000000005
 20
2.2295500000000001
 30
0.0
 10
-3.3450300000000004
 20
2.5724500000000003
 30
0.0
 10
-3.3450300000000004
 20
2.5724500000000003
 30
0.0
 10
-3.4745700000000004
 20
2.5622900000000004
 30
0.0
 10
-3.5075900000000004
 20
2.3209900000000001
 30
0.0
 10
-3.5558500000000004
 20
2.2143100000000002
 30
0.0
 10
-3.5558500000000004
 20
2.2143100000000002
 30
0.0
 10
-3.5558500000000004
 20
2.2143100000000002
 30
0.0
 10
-3.6853900000000004
 20
2.3235300000000003
 30
0.0
 10
-3.6853900000000004
 20
2.3235300000000003
 30
0.0
 10
-3.6853900000000004
 20
2.3235300000000003
 30
0.0
 10
-3.8047700000000004
 20
3.0677500000000002
 30
0.0
 10
-3.6523700000000003
 20
3.8424500000000004
 30
0.0
 10
-3.3272500000000003
 20
4.4952300000000003
 30
0.0
  0
SPLINE
  5
2C
100
AcDbEntity
  8
Ebene 1
 62
     7
100
AcDbSpline
210
0.0
220
0.0
230
1.0
 70
     1
 71
     3
 72
     8
 73
     4
 74
     0
 42
0.0000000001
 43
0.0000000001
 40
0.0
 40
0.0
 40
0.0
 40
0.0
 40
1.0
 40
1.0
 40
1.0
 40
1.0
 10
2.6823800000000002
 20
4.4342700000000006
 30
0.0
 10
2.7281000000000004
 20
4.4114100000000001
 30
0.0
 10
2.6392000000000002
 20
4.3910900000000002
 30
0.0
 10
2.6823800000000002
 20
4.4342700000000006
 30
0.0
  0
SPLINE
  5
2D
100
AcDbEntity
  8
Ebene 1
 62
     7
100
AcDbSpline
210
0.0
220
0.0
230
1.0
 70
     1
 71
     3
 72
    12
 73
     8
 74
     0
 42
0.0000000001
 43
0.0000000001
 40
0.0
 40
0.0
 40
0.0
 40
0.0
 40
0.5
 40
0.5
 40
0.5
 40
0.5
 40
1.0
 40
1.0
 40
1.0
 40
1.0
 10
2.9998800000000001
 20
4.4342700000000006
 30
0.0
 10
3.0456000000000003
 20
4.4114100000000001
 30
0.0
 10
2.9846400000000002
 20
4.3504500000000004
 30
0.0
 10
2.9541600000000003
 20
4.3326700000000002
 30
0.0
 10
2.9541600000000003
 20
4.3326700000000002
 30
0.0
 10
2.9541600000000003
 20
4.3326700000000002
 30
0.0
 10
2.9998800000000001
 20
4.4342700000000006
 30
0.0
 10
2.9998800000000001
 20
4.4342700000000006
 30
0.0
  0
SPLINE
  5
2E
100
AcDbEntity
  8
Ebene 1
 62
     7
100
AcDbSpline
210
0.0
220
0.0
230
1.0
 70
     1
 71
     3
 72
    16
 73
    12
 74
     0
 42
0.0000000001
 43
0.0000000001
 40
0.0
 40
0.0
 40
0.0
 40
0.0
 40
0.3333333333333333
 40
0.3333333333333333
 40
0.3333333333333333
 40
0.3333333333333333
 40
0.6666666666666666
 40
0.6666666666666666
 40
0.6666666666666666
 40
0.6666666666666666
 40
1.0
 40
1.0
 40
1.0
 40
1.0
 10
2.50204
 20
4.4190300000000002
 30
0.0
 10
2.50204
 20
4.4190300000000002
 30
0.0
 10
2.6392000000000002
 20
4.0888300000000006
 30
0.0
 10
2.6392000000000002
 20
4.0888300000000006
 30
0.0
 10
2.6392000000000002
 20
4.0888300000000006
 30
0.0
 10
2.59348
 20
4.0456500000000002
 30
0.0
 10
2.5325200000000003
 20
4.0253300000000003
 30
0.0
 10
2.4868000000000001
 20
3.9973900000000002
 30
0.0
 10
2.4868000000000001
 20
3.9973900000000002
 30
0.0
 10
2.3064600000000004
 20
4.0913700000000004
 30
0.0
 10
2.3521800000000002
 20
4.3326700000000002
 30
0.0
 10
2.50204
 20
4.4190300000000002
 30
0.0
  0
SPLINE
  5
2F
100
AcDbEntity
  8
Ebene 1
 62
     7
100
AcDbSpline
210
0.0
220
0.0
230
1.0
 70
     1
 71
     3
 72
    12
 73
     8
 74
     0
 42
0.0000000001
 43
0.0000000001
 40
0.0
 40
0.0
 40
0.0
 40
0.0
 40
0.5
 40
0.5
 40
0.5
 40
0.5
 40
1.0
 40
1.0
 40
1.0
 40
1.0
 10
2.8652600000000001
 20
4.4190300000000002
 30
0.0
 10
2.9262200000000003
 20
4.3987100000000003
 30
0.0
 10
2.8500200000000002
 20
4.3326700000000002
 30
0.0
 10
2.8195400000000004
 20
4.3174300000000008
 30
0.0
 10
2.8195400000000004
 20
4.3174300000000008
 30
0.0
 10
2.8195400000000004
 20
4.3174300000000008
 30
0.0
 10
2.8652600000000001
 20
4.4190300000000002
 30
0.0
 10
2.8652600000000001
 20
4.4190300000000002
 30
0.0
  0
SPLINE
  5
30
100
AcDbEntity
  8
Ebene 1
 62
     7
100
AcDbSpline
210
0.0
220
0.0
230
1.0
 70
     1
 71
     3
 72
    16
 73
    12
 74
     0
 42
0.0000000001
 43
0.0000000001
 40
0.0
 40
0.0
 40
0.0
 40
0.0
 40
0.3333333333333333
 40
0.3333333333333333
 40
0.3333333333333333
 40
0.3333333333333333
 40
0.6666666666666666
 40
0.6666666666666666
 40
0.6666666666666666
 40
0.6666666666666666
 40
1.0
 40
1.0
 40
1.0
 40
1.0
 10
-3.7514300000000005
 20
4.3910900000000002
 30
0.0
 10
-3.6955500000000003
 20
4.3910900000000002
 30
0.0
 10
-3.6447500000000002
 20
4.3910900000000002
 30
0.0
 10
-3.5990300000000004
 20
4.3606100000000003
 30
0.0
 10
-3.5990300000000004
 20
4.3606100000000003
 30
0.0
 10
-3.5406100000000005
 20
4.3631500000000001
 30
0.0
 10
-3.5202900000000001
 20
4.2818700000000005
 30
0.0
 10
-3.5863300000000002
 20
4.2691699999999999
 30
0.0
 10
-3.5863300000000002
 20
4.2691699999999999
 30
0.0
 10
-3.6422100000000004
 20
4.3148900000000001
 30
0.0
 10
-3.8606500000000001
 20
4.28695
 30
0.0
 10
-3.7514300000000005
 20
4.3910900000000002
 30
0.0
  0
SPLINE
  5
31
100
AcDbEntity
  8
Ebene 1
 62
     7
100
AcDbSpline
210
0.0
220
0.0
230
1.0
 70
     1
 71
     3
 72
    12
 73
     8
 74
     0
 42
0.0000000001
 43
0.0000000001
 40
0.0
 40
0.0
 40
0.0
 40
0.0
 40
0.5
 40
0.5
 40
0.5
 40
0.5
 40
1.0
 40
1.0
 40
1.0
 40
1.0
 10
2.71286
 20
4.3606100000000003
 30
0.0
 10
2.7585800000000003
 20
4.34537
 30
0.0
 10
2.71286
 20
4.2920300000000005
 30
0.0
 10
2.6823800000000002
 20
4.2894900000000007
 30
0.0
 10
2.6823800000000002
 20
4.2894900000000007
 30
0.0
 10
2.6823800000000002
 20
4.2894900000000007
 30
0.0
 10
2.71286
 20
4.3606100000000003
 30
0.0
 10
2.71286
 20
4.3606100000000003
 30
0.0
  0
SPLINE
  5
32
100
AcDbEntity
  8
Ebene 1
 62
     7
100
AcDbSpline
210
0.0
220
0.0
230
1.0
 70
     1
 71
     3
 72
    12
 73
     8
 74
     0
 42
0.0000000001
 43
0.0000000001
 40
0.0
 40
0.0
 40
0.0
 40
0.0
 40
0.5
 40
0.5
 40
0.5
 40
0.5
 40
1.0
 40
1.0
 40
1.0
 40
1.0
 10
3.0151200000000005
 20
4.3301300000000005
 30
0.0
 10
3.0760800000000001
 20
4.3123500000000003
 30
0.0
 10
3.0151200000000005
 20
4.2539300000000004
 30
0.0
 10
2.9846400000000002
 20
4.2437700000000005
 30
0.0
 10
2.9846400000000002
 20
4.2437700000000005
 30
0.0
 10
2.9846400000000002
 20
4.2437700000000005
 30
0.0
 10
3.0151200000000005
 20
4.3301300000000005
 30
0.0
 10
3.0151200000000005
 20
4.3301300000000005
 30
0.0
  0
SPLINE
  5
33
100
AcDbEntity
  8
Ebene 1
 62
     7
100
AcDbSpline
210
0.0
220
0.0
230
1.0
 70
     1
 71
     3
 72
    12
 73
     8
 74
     0
 42
0.0000000001
 43
0.0000000001
 40
0.0
 40
0.0
 40
0.0
 40
0.0
 40
0.5
 40
0.5
 40
0.5
 40
0.5
 40
1.0
 40
1.0
 40
1.0
 40
1.0
 10
2.8805000000000001
 20
4.2996500000000006
 30
0.0
 10
2.9389200000000004
 20
4.3072699999999999
 30
0.0
 10
2.8957400000000004
 20
4.2437700000000005
 30
0.0
 10
2.8805000000000001
 20
4.2285300000000001
 30
0.0
 10
2.8805000000000001
 20
4.2285300000000001
 30
0.0
 10
2.8805000000000001
 20
4.2285300000000001
 30
0.0
 10
2.8805000000000001
 20
4.2996500000000006
 30
0.0
 10
2.8805000000000001
 20
4.2996500000000006
 30
0.0
  0
SPLINE
  5
34
100
AcDbEntity
  8
Ebene 1
 62
     7
100
AcDbSpline
210
0.0
220
0.0
230
1.0
 70
     1
 71
     3
 72
    12
 73
     8
 74
     0
 42
0.0000000001
 43
0.0000000001
 40
0.0
 40
0.0
 40
0.0
 40
0.0
 40
0.5
 40
0.5
 40
0.5
 40
0.5
 40
1.0
 40
1.0
 40
1.0
 40
1.0
 10
2.7433400000000003
 20
4.2844100000000003
 30
0.0
 10
2.7890600000000001
 20
4.29711
 30
0.0
 10
2.7890600000000001
 20
4.21075
 30
0.0
 10
2.7433400000000003
 20
4.2082100000000002
 30
0.0
 10
2.7433400000000003
 20
4.2082100000000002
 30
0.0
 10
2.7433400000000003
 20
4.2082100000000002
 30
0.0
 10
2.7433400000000003
 20
4.2844100000000003
 30
0.0
 10
2.7433400000000003
 20
4.2844100000000003
 30
0.0
  0
SPLINE
  5
35
100
AcDbEntity
  8
Ebene 1
 62
     7
100
AcDbSpline
210
0.0
220
0.0
230
1.0
 70
     1
 71
     3
 72
    16
 73
    12
 74
     0
 42
0.0000000001
 43
0.0000000001
 40
0.0
 40
0.0
 40
0.0
 40
0.0
 40
0.3333333333333333
 40
0.3333333333333333
 40
0.3333333333333333
 40
0.3333333333333333
 40
0.6666666666666666
 40
0.6666666666666666
 40
0.6666666666666666
 40
0.6666666666666666
 40
1.0
 40
1.0
 40
1.0
 40
1.0
 10
2.1845400000000001
 20
4.2691699999999999
 30
0.0
 10
2.1845400000000001
 20
4.0608900000000006
 30
0.0
 10
2.3064600000000004
 20
3.8424500000000004
 30
0.0
 10
2.5172800000000004
 20
3.7662500000000003
 30
0.0
 10
2.5172800000000004
 20
3.7662500000000003
 30
0.0
 10
2.5172800000000004
 20
3.7662500000000003
 30
0.0
 10
2.5172800000000004
 20
3.7306900000000005
 30
0.0
 10
2.5172800000000004
 20
3.7306900000000005
 30
0.0
 10
2.5172800000000004
 20
3.7306900000000005
 30
0.0
 10
2.2302600000000004
 20
3.5706700000000002
 30
0.0
 10
1.9584800000000002
 20
4.0507300000000006
 30
0.0
 10
2.1845400000000001
 20
4.2691699999999999
 30
0.0
  0
SPLINE
  5
36
100
AcDbEntity
  8
Ebene 1
 62
     7
100
AcDbSpline
210
0.0
220
0.0
230
1.0
 70
     1
 71
     3
 72
    16
 73
    12
 74
     0
 42
0.0000000001
 43
0.0000000001
 40
0.0
 40
0.0
 40
0.0
 40
0.0
 40
0.3333333333333333
 40
0.3333333333333333
 40
0.3333333333333333
 40
0.3333333333333333
 40
0.6666666666666666
 40
0.6666666666666666
 40
0.6666666666666666
 40
0.6666666666666666
 40
1.0
 40
1.0
 40
1.0
 40
1.0
 10
-3.9774900000000004
 20
4.2539300000000004
 30
0.0
 10
-4.0130500000000007
 20
4.1802700000000002
 30
0.0
 10
-4.0536900000000005
 20
4.0659700000000001
 30
0.0
 10
-4.1248100000000001
 20
4.0329500000000005
 30
0.0
 10
-4.1248100000000001
 20
4.0329500000000005
 30
0.0
 10
-4.1095700000000006
 20
4.0812100000000004
 30
0.0
 10
-4.09687
 20
4.1878900000000003
 30
0.0
 10
-4.0613100000000006
 20
4.2336100000000005
 30
0.0
 10
-4.0613100000000006
 20
4.2336100000000005
 30
0.0
 10
-4.0409900000000007
 20
4.2615500000000006
 30
0.0
 10
-4.0028900000000007
 20
4.2336100000000005
 30
0.0
 10
-3.9774900000000004
 20
4.2539300000000004
 30
0.0
  0
SPLINE
  5
37
100
AcDbEntity
  8
Ebene 1
 62
     7
100
AcDbSpline
210
0.0
220
0.0
230
1.0
 70
     1
 71
     3
 72
    24
 73
    20
 74
     0
 42
0.0000000001
 43
0.0000000001
 40
0.0
 40
0.0
 40
0.0
 40
0.0
 40
0.2
 40
0.2
 40
0.2
 40
0.2
 40
0.4
 40
0.4
 40
0.4
 40
0.4
 40
0.6000000000000001
 40
0.6000000000000001
 40
0.6000000000000001
 40
0.6000000000000001
 40
0.8
 40
0.8
 40
0.8
 40
0.8
 40
1.0
 40
1.0
 40
1.0
 40
1.0
 10
-3.8860500000000004
 20
4.2082100000000002
 30
0.0
 10
-3.8555700000000002
 20
4.2183700000000002
 30
0.0
 10
-3.8581100000000004
 20
4.1878900000000003
 30
0.0
 10
-3.8504900000000002
 20
4.1675700000000004
 30
0.0
 10
-3.8504900000000002
 20
4.1675700000000004
 30
0.0
 10
-3.7057100000000003
 20
4.1294700000000004
 30
0.0
 10
-3.6650700000000005
 20
3.8983300000000005
 30
0.0
 10
-3.7819100000000003
 20
3.7992700000000004
 30
0.0
 10
-3.7819100000000003
 20
3.7992700000000004
 30
0.0
 10
-3.7819100000000003
 20
3.7992700000000004
 30
0.0
 10
-3.9724100000000004
 20
3.9719900000000004
 30
0.0
 10
-3.9724100000000004
 20
3.9719900000000004
 30
0.0
 10
-3.9724100000000004
 20
3.9719900000000004
 30
0.0
 10
-3.9266900000000002
 20
3.9770700000000003
 30
0.0
 10
-3.9241500000000005
 20
4.0227900000000005
 30
0.0
 10
-3.9622500000000005
 20
4.0583499999999999
 30
0.0
 10
-3.9622500000000005
 20
4.0583499999999999
 30
0.0
 10
-3.9266900000000002
 20
4.1040700000000001
 30
0.0
 10
-3.9063700000000003
 20
4.1548700000000007
 30
0.0
 10
-3.8860500000000004
 20
4.2082100000000002
 30
0.0
  0
SPLINE
  5
38
100
AcDbEntity
  8
Ebene 1
 62
     7
100
AcDbSpline
210
0.0
220
0.0
230
1.0
 70
     1
 71
     3
 72
    12
 73
     8
 74
     0
 42
0.0000000001
 43
0.0000000001
 40
0.0
 40
0.0
 40
0.0
 40
0.0
 40
0.5
 40
0.5
 40
0.5
 40
0.5
 40
1.0
 40
1.0
 40
1.0
 40
1.0
 10
3.0456000000000003
 20
4.2082100000000002
 30
0.0
 10
3.0913200000000001
 20
4.2209099999999999
 30
0.0
 10
3.0760800000000001
 20
4.1497900000000003
 30
0.0
 10
3.0456000000000003
 20
4.1472500000000005
 30
0.0
 10
3.0456000000000003
 20
4.1472500000000005
 30
0.0
 10
2.9998800000000001
 20
4.1574100000000005
 30
0.0
 10
3.0303600000000004
 20
4.1878900000000003
 30
0.0
 10
3.0456000000000003
 20
4.2082100000000002
 30
0.0
  0
SPLINE
  5
39
100
AcDbEntity
  8
Ebene 1
 62
     7
100
AcDbSpline
210
0.0
220
0.0
230
1.0
 70
     1
 71
     3
 72
     8
 73
     4
 74
     0
 42
0.0000000001
 43
0.0000000001
 40
0.0
 40
0.0
 40
0.0
 40
0.0
 40
1.0
 40
1.0
 40
1.0
 40
1.0
 10
2.8043
 20
4.1929700000000008
 30
0.0
 10
2.8957400000000004
 20
4.1802700000000002
 30
0.0
 10
2.7433400000000003
 20
4.1116900000000003
 30
0.0
 10
2.8043
 20
4.1929700000000008
 30
0.0
  0
SPLINE
  5
3A
100
AcDbEntity
  8
Ebene 1
 62
     7
100
AcDbSpline
210
0.0
220
0.0
230
1.0
 70
     1
 71
     3
 72
    28
 73
    24
 74
     0
 42
0.0000000001
 43
0.0000000001
 40
0.0
 40
0.0
 40
0.0
 40
0.0
 40
0.1666666666666667
 40
0.1666666666666667
 40
0.1666666666666667
 40
0.1666666666666667
 40
0.3333333333333333
 40
0.3333333333333333
 40
0.3333333333333333
 40
0.3333333333333333
 40
0.5
 40
0.5
 40
0.5
 40
0.5
 40
0.6666666666666666
 40
0.6666666666666666
 40
0.6666666666666666
 40
0.6666666666666666
 40
0.8333333333333333
 40
0.8333333333333333
 40
0.8333333333333333
 40
0.8333333333333333
 40
1.0
 40
1.0
 40
1.0
 40
1.0
 10
1.2472800000000002
 20
3.0296500000000002
 30
0.0
 10
1.18632
 20
2.6130900000000001
 30
0.0
 10
1.2168000000000001
 20
1.8790300000000002
 30
0.0
 10
0.61482
 20
1.8358500000000002
 30
0.0
 10
0.61482
 20
1.8358500000000002
 30
0.0
 10
0.5691000000000001
 20
1.8485500000000001
 30
0.0
 10
0.5386200000000001
 20
1.8942700000000001
 30
0.0
 10
0.50814
 20
1.9323700000000001
 30
0.0
 10
0.50814
 20
1.9323700000000001
 30
0.0
 10
0.44718
 20
2.0644500000000003
 30
0.0
 10
0.5386200000000001
 20
2.16351
 30
0.0
 10
0.5691000000000001
 20
2.2701900000000004
 30
0.0
 10
0.5691000000000001
 20
2.2701900000000004
 30
0.0
 10
0.6732400000000001
 20
2.4098900000000003
 30
0.0
 10
0.7799200000000001
 20
2.5597500000000002
 30
0.0
 10
0.91454
 20
2.6791300000000002
 30
0.0
 10
0.91454
 20
2.6791300000000002
 30
0.0
 10
0.91454
 20
2.4860900000000004
 30
0.0
 10
0.7951600000000001
 20
2.3209900000000001
 30
0.0
 10
0.7494400000000001
 20
2.1431900000000002
 30
0.0
 10
0.7494400000000001
 20
2.1431900000000002
 30
0.0
 10
0.9755
 20
2.3667100000000003
 30
0.0
 10
0.9450200000000001
 20
2.80613
 30
0.0
 10
1.2472800000000002
 20
3.0296500000000002
 30
0.0
  0
SPLINE
  5
3B
100
AcDbEntity
  8
Ebene 1
 62
     7
100
AcDbSpline
210
0.0
220
0.0
230
1.0
 70
     1
 71
     3
 72
    36
 73
    32
 74
     0
 42
0.0000000001
 43
0.0000000001
 40
0.0
 40
0.0
 40
0.0
 40
0.0
 40
0.125
 40
0.125
 40
0.125
 40
0.125
 40
0.25
 40
0.25
 40
0.25
 40
0.25
 40
0.375
 40
0.375
 40
0.375
 40
0.375
 40
0.5
 40
0.5
 40
0.5
 40
0.5
 40
0.625
 40
0.625
 40
0.625
 40
0.625
 40
0.75
 40
0.75
 40
0.75
 40
0.75
 40
0.875
 40
0.875
 40
0.875
 40
0.875
 40
1.0
 40
1.0
 40
1.0
 40
1.0
 10
3.1065600000000004
 20
3.0144100000000003
 30
0.0
 10
3.2259400000000005
 20
3.0321900000000004
 30
0.0
 10
3.3478600000000003
 20
3.0017100000000001
 30
0.0
 10
3.4240600000000003
 20
2.9051900000000002
 30
0.0
 10
3.4240600000000003
 20
2.9051900000000002
 30
0.0
 10
3.6348800000000003
 20
1.9857100000000001
 30
0.0
 10
3.5917000000000003
 20
0.9646300000000001
 30
0.0
 10
4.2241600000000004
 20
0.20263
 30
0.0
 10
4.2241600000000004
 20
0.20263
 30
0.0
 10
3.9828600000000005
 20
-0.01326
 30
0.0
 10
3.6806000000000001
 20
-0.14534
 30
0.0
 10
3.4393000000000002
 20
-0.36632
 30
0.0
 10
3.4393000000000002
 20
-0.36632
 30
0.0
 10
3.3173800000000004
 20
-0.28758
 30
0.0
 10
3.3326200000000004
 20
-0.13264
 30
0.0
 10
3.3326200000000004
 20
-0.00564
 30
0.0
 10
3.3326200000000004
 20
-0.00564
 30
0.0
 10
3.6653600000000002
 20
0.37281
 30
0.0
 10
3.8634800000000005
 20
0.9036700000000001
 30
0.0
 10
3.5764600000000004
 20
1.3786500000000002
 30
0.0
 10
3.5764600000000004
 20
1.3786500000000002
 30
0.0
 10
3.4850200000000005
 20
1.27959
 30
0.0
 10
3.4850200000000005
 20
1.0128900000000001
 30
0.0
 10
3.3021400000000001
 20
0.9036700000000001
 30
0.0
 10
3.3021400000000001
 20
0.9036700000000001
 30
0.0
 10
3.1827600000000005
 20
0.8833500000000001
 30
0.0
 10
3.0760800000000001
 20
0.9239900000000001
 30
0.0
 10
2.9846400000000002
 20
0.9798700000000001
 30
0.0
 10
2.9846400000000002
 20
0.9798700000000001
 30
0.0
 10
2.5477600000000002
 20
1.5183500000000001
 30
0.0
 10
2.3064600000000004
 20
2.6232500000000001
 30
0.0
 10
3.1065600000000004
 20
3.0144100000000003
 30
0.0
  0
SPLINE
  5
3C
100
AcDbEntity
  8
Ebene 1
 62
     7
100
AcDbSpline
210
0.0
220
0.0
230
1.0
 70
     1
 71
     3
 72
    28
 73
    24
 74
     0
 42
0.0000000001
 43
0.0000000001
 40
0.0
 40
0.0
 40
0.0
 40
0.0
 40
0.1666666666666667
 40
0.1666666666666667
 40
0.1666666666666667
 40
0.1666666666666667
 40
0.3333333333333333
 40
0.3333333333333333
 40
0.3333333333333333
 40
0.3333333333333333
 40
0.5
 40
0.5
 40
0.5
 40
0.5
 40
0.6666666666666666
 40
0.6666666666666666
 40
0.6666666666666666
 40
0.6666666666666666
 40
0.8333333333333333
 40
0.8333333333333333
 40
0.8333333333333333
 40
0.8333333333333333
 40
1.0
 40
1.0
 40
1.0
 40
1.0
 10
-4.0232100000000006
 20
2.7426300000000001
 30
0.0
 10
-3.8733500000000003
 20
2.4683100000000002
 30
0.0
 10
-3.6117300000000001
 20
2.1330300000000002
 30
0.0
 10
-3.7920700000000003
 20
1.8256900000000003
 30
0.0
 10
-3.7920700000000003
 20
1.8256900000000003
 30
0.0
 10
-3.7920700000000003
 20
1.8256900000000003
 30
0.0
 10
-3.9038300000000001
 20
2.04413
 30
0.0
 10
-3.9038300000000001
 20
2.04413
 30
0.0
 10
-3.9038300000000001
 20
2.04413
 30
0.0
 10
-3.9241500000000005
 20
2.0593700000000004
 30
0.0
 10
-3.9190700000000005
 20
2.0847700000000002
 30
0.0
 10
-3.9114500000000003
 20
2.1050900000000001
 30
0.0
 10
-3.9114500000000003
 20
2.1050900000000001
 30
0.0
 10
-3.9114500000000003
 20
2.1050900000000001
 30
0.0
 10
-3.8301700000000003
 20
2.00603
 30
0.0
 10
-3.8301700000000003
 20
2.00603
 30
0.0
 10
-3.8301700000000003
 20
2.00603
 30
0.0
 10
-3.8098500000000004
 20
2.0187300000000001
 30
0.0
 10
-3.8098500000000004
 20
2.0415900000000002
 30
0.0
 10
-3.8123900000000002
 20
2.0619100000000001
 30
0.0
 10
-3.8123900000000002
 20
2.0619100000000001
 30
0.0
 10
-3.9698700000000002
 20
2.2524100000000002
 30
0.0
 10
-4.0943300000000002
 20
2.4835500000000001
 30
0.0
 10
-4.0232100000000006
 20
2.7426300000000001
 30
0.0
  0
SPLINE
  5
3D
100
AcDbEntity
  8
Ebene 1
 62
     7
100
AcDbSpline
210
0.0
220
0.0
230
1.0
 70
     1
 71
     3
 72
    20
 73
    16
 74
     0
 42
0.0000000001
 43
0.0000000001
 40
0.0
 40
0.0
 40
0.0
 40
0.0
 40
0.25
 40
0.25
 40
0.25
 40
0.25
 40
0.5
 40
0.5
 40
0.5
 40
0.5
 40
0.75
 40
0.75
 40
0.75
 40
0.75
 40
1.0
 40
1.0
 40
1.0
 40
1.0
 10
-0.38085
 20
2.7121500000000003
 30
0.0
 10
-0.18527
 20
2.5114900000000002
 30
0.0
 10
-0.04811
 20
2.16859
 30
0.0
 10
-0.10907
 20
1.8866500000000002
 30
0.0
 10
-0.10907
 20
1.8866500000000002
 30
0.0
 10
-0.15479
 20
1.8333100000000002
 30
0.0
 10
-0.21575
 20
1.8180700000000001
 30
0.0
 10
-0.26147
 20
1.7901300000000002
 30
0.0
 10
-0.26147
 20
1.7901300000000002
 30
0.0
 10
-0.48753
 20
1.7571100000000002
 30
0.0
 10
-0.53325
 20
2.1228700000000003
 30
0.0
 10
-0.3656100000000001
 20
2.1533500000000001
 30
0.0
 10
-0.3656100000000001
 20
2.1533500000000001
 30
0.0
 10
-0.3960900000000001
 20
2.34131
 30
0.0
 10
-0.41133
 20
2.5394300000000003
 30
0.0
 10
-0.38085
 20
2.7121500000000003
 30
0.0
  0
SPLINE
  5
3E
100
AcDbEntity
  8
Ebene 1
 62
     7
100
AcDbSpline
210
0.0
220
0.0
230
1.0
 70
     1
 71
     3
 72
    24
 73
    20
 74
     0
 42
0.0000000001
 43
0.0000000001
 40
0.0
 40
0.0
 40
0.0
 40
0.0
 40
0.2
 40
0.2
 40
0.2
 40
0.2
 40
0.4
 40
0.4
 40
0.4
 40
0.4
 40
0.6000000000000001
 40
0.6000000000000001
 40
0.6000000000000001
 40
0.6000000000000001
 40
0.8
 40
0.8
 40
0.8
 40
0.8
 40
1.0
 40
1.0
 40
1.0
 40
1.0
 10
-3.3882100000000004
 20
2.4098900000000003
 30
0.0
 10
-3.3272500000000003
 20
2.3260700000000001
 30
0.0
 10
-3.2662900000000001
 20
2.1939900000000003
 30
0.0
 10
-3.3069300000000004
 20
2.0974700000000004
 30
0.0
 10
-3.3069300000000004
 20
2.0974700000000004
 30
0.0
 10
-3.2104100000000004
 20
1.9882500000000001
 30
0.0
 10
-3.0935700000000002
 20
1.7494900000000002
 30
0.0
 10
-3.2815300000000001
 20
1.6707500000000002
 30
0.0
 10
-3.2815300000000001
 20
1.6707500000000002
 30
0.0
 10
-3.3145500000000001
 20
1.6631300000000002
 30
0.0
 10
-3.3424900000000002
 20
1.6758300000000002
 30
0.0
 10
-3.3678900000000005
 20
1.6910700000000001
 30
0.0
 10
-3.3678900000000005
 20
1.6910700000000001
 30
0.0
 10
-3.3907500000000002
 20
1.7240900000000001
 30
0.0
 10
-3.3882100000000004
 20
1.7647300000000001
 30
0.0
 10
-3.3882100000000004
 20
1.8053700000000001
 30
0.0
 10
-3.3882100000000004
 20
1.8053700000000001
 30
0.0
 10
-3.5329900000000003
 20
1.9628500000000002
 30
0.0
 10
-3.4440900000000001
 20
2.2295500000000001
 30
0.0
 10
-3.3882100000000004
 20
2.4098900000000003
 30
0.0
  0
SPLINE
  5
3F
100
AcDbEntity
  8
Ebene 1
 62
     7
100
AcDbSpline
210
0.0
220
0.0
230
1.0
 70
     1
 71
     3
 72
   168
 73
   164
 74
     0
 42
0.0000000001
 43
0.0000000001
 40
0.0
 40
0.0
 40
0.0
 40
0.0
 40
0.024390243902439
 40
0.024390243902439
 40
0.024390243902439
 40
0.024390243902439
 40
0.0487804878048781
 40
0.0487804878048781
 40
0.0487804878048781
 40
0.0487804878048781
 40
0.0731707317073171
 40
0.0731707317073171
 40
0.0731707317073171
 40
0.0731707317073171
 40
0.0975609756097561
 40
0.0975609756097561
 40
0.0975609756097561
 40
0.0975609756097561
 40
0.1219512195121951
 40
0.1219512195121951
 40
0.1219512195121951
 40
0.1219512195121951
 40
0.1463414634146341
 40
0.1463414634146341
 40
0.1463414634146341
 40
0.1463414634146341
 40
0.1707317073170732
 40
0.1707317073170732
 40
0.1707317073170732
 40
0.1707317073170732
 40
0.1951219512195122
 40
0.1951219512195122
 40
0.1951219512195122
 40
0.1951219512195122
 40
0.2195121951219512
 40
0.2195121951219512
 40
0.2195121951219512
 40
0.2195121951219512
 40
0.2439024390243902
 40
0.2439024390243902
 40
0.2439024390243902
 40
0.2439024390243902
 40
0.2682926829268292
 40
0.2682926829268292
 40
0.2682926829268292
 40
0.2682926829268292
 40
0.2926829268292683
 40
0.2926829268292683
 40
0.2926829268292683
 40
0.2926829268292683
 40
0.3170731707317073
 40
0.3170731707317073
 40
0.3170731707317073
 40
0.3170731707317073
 40
0.3414634146341464
 40
0.3414634146341464
 40
0.3414634146341464
 40
0.3414634146341464
 40
0.3658536585365854
 40
0.3658536585365854
 40
0.3658536585365854
 40
0.3658536585365854
 40
0.3902439024390245
 40
0.3902439024390245
 40
0.3902439024390245
 40
0.3902439024390245
 40
0.4146341463414635
 40
0.4146341463414635
 40
0.4146341463414635
 40
0.4146341463414635
 40
0.4390243902439026
 40
0.4390243902439026
 40
0.4390243902439026
 40
0.4390243902439026
 40
0.4634146341463416
 40
0.4634146341463416
 40
0.4634146341463416
 40
0.4634146341463416
 40
0.4878048780487806
 40
0.4878048780487806
 40
0.4878048780487806
 40
0.4878048780487806
 40
0.5121951219512196
 40
0.5121951219512196
 40
0.5121951219512196
 40
0.5121951219512196
 40
0.5365853658536587
 40
0.5365853658536587
 40
0.5365853658536587
 40
0.5365853658536587
 40
0.5609756097560977
 40
0.5609756097560977
 40
0.5609756097560977
 40
0.5609756097560977
 40
0.5853658536585368
 40
0.5853658536585368
 40
0.5853658536585368
 40
0.5853658536585368
 40
0.6097560975609758
 40
0.6097560975609758
 40
0.6097560975609758
 40
0.6097560975609758
 40
0.6341463414634149
 40
0.6341463414634149
 40
0.6341463414634149
 40
0.6341463414634149
 40
0.6585365853658539
 40
0.6585365853658539
 40
0.6585365853658539
 40
0.6585365853658539
 40
0.682926829268293
 40
0.682926829268293
 40
0.682926829268293
 40
0.682926829268293
 40
0.707317073170732
 40
0.707317073170732
 40
0.707317073170732
 40
0.707317073170732
 40
0.7317073170731711
 40
0.7317073170731711
 40
0.7317073170731711
 40
0.7317073170731711
 40
0.7560975609756101
 40
0.7560975609756101
 40
0.7560975609756101
 40
0.7560975609756101
 40
0.7804878048780491
 40
0.7804878048780491
 40
0.7804878048780491
 40
0.7804878048780491
 40
0.8048780487804882
 40
0.8048780487804882
 40
0.8048780487804882
 40
0.8048780487804882
 40
0.8292682926829272
 40
0.8292682926829272
 40
0.8292682926829272
 40
0.8292682926829272
 40
0.8536585365853663
 40
0.8536585365853663
 40
0.8536585365853663
 40
0.8536585365853663
 40
0.8780487804878053
 40
0.8780487804878053
 40
0.8780487804878053
 40
0.8780487804878053
 40
0.9024390243902444
 40
0.9024390243902444
 40
0.9024390243902444
 40
0.9024390243902444
 40
0.9268292682926834
 40
0.9268292682926834
 40
0.9268292682926834
 40
0.9268292682926834
 40
0.9512195121951225
 40
0.9512195121951225
 40
0.9512195121951225
 40
0.9512195121951225
 40
0.9756097560975615
 40
0.9756097560975615
 40
0.9756097560975615
 40
0.9756097560975615
 40
1.0
 40
1.0
 40
1.0
 40
1.0
 10
-2.6033500000000003
 20
0.20263
 30
0.0
 10
-2.01153
 20
0.55569
 30
0.0
 10
-2.6744700000000003
 20
1.52851
 30
0.0
 10
-2.0013700000000001
 20
1.5920100000000001
 30
0.0
 10
-2.0013700000000001
 20
1.5920100000000001
 30
0.0
 10
-2.06487
 20
1.32277
 30
0.0
 10
-2.0343900000000001
 20
0.9392300000000001
 30
0.0
 10
-1.7600700000000002
 20
0.8122300000000001
 30
0.0
 10
-1.7600700000000002
 20
0.8122300000000001
 30
0.0
 10
-2.10297
 20
1.3430900000000001
 30
0.0
 10
-1.7270500000000002
 20
1.9196700000000002
 30
0.0
 10
-1.1377700000000002
 20
1.9552300000000002
 30
0.0
 10
-1.1377700000000002
 20
1.9552300000000002
 30
0.0
 10
-1.0920500000000002
 20
1.78251
 30
0.0
 10
-1.3028700000000002
 20
1.5818500000000002
 30
0.0
 10
-1.21143
 20
1.4167500000000002
 30
0.0
 10
-1.21143
 20
1.4167500000000002
 30
0.0
 10
-0.7897900000000001
 20
1.2694300000000001
 30
0.0
 10
-0.86599
 20
1.78251
 30
0.0
 10
-0.9853700000000001
 20
1.9984100000000002
 30
0.0
 10
-0.9853700000000001
 20
1.9984100000000002
 30
0.0
 10
-0.9853700000000001
 20
1.9984100000000002
 30
0.0
 10
-0.7897900000000001
 20
2.04413
 30
0.0
 10
-0.7897900000000001
 20
2.04413
 30
0.0
 10
-0.7897900000000001
 20
2.04413
 30
0.0
 10
-0.48753
 20
2.1889100000000004
 30
0.0
 10
-0.6678700000000001
 20
1.86633
 30
0.0
 10
-0.5637300000000001
 20
1.7266300000000001
 30
0.0
 10
-0.5637300000000001
 20
1.7266300000000001
 30
0.0
 10
-0.6221500000000001
 20
1.3126100000000001
 30
0.0
 10
0.06872
 20
1.8460100000000002
 30
0.0
 10
0.0103
 20
2.1381100000000002
 30
0.0
 10
0.0103
 20
2.1381100000000002
 30
0.0
 10
0.0103
 20
2.1381100000000002
 30
0.0
 10
0.38622
 20
2.1508100000000003
 30
0.0
 10
0.38622
 20
2.1508100000000003
 30
0.0
 10
0.38622
 20
2.1508100000000003
 30
0.0
 10
0.4167
 20
1.3786500000000002
 30
0.0
 10
1.11266
 20
2.1762100000000002
 30
0.0
 10
1.4149200000000002
 20
1.8485500000000001
 30
0.0
 10
1.4149200000000002
 20
1.8485500000000001
 30
0.0
 10
1.5952600000000001
 20
1.0535300000000001
 30
0.0
 10
1.2472800000000002
 20
1.1398900000000001
 30
0.0
 10
1.3082400000000001
 20
0.8249300000000001
 30
0.0
 10
1.3082400000000001
 20
0.8249300000000001
 30
0.0
 10
1.5190600000000001
 20
0.27121
 30
0.0
 10
1.39968
 20
1.2008500000000002
 30
0.0
 10
1.7476600000000002
 20
1.1983100000000002
 30
0.0
 10
1.7476600000000002
 20
1.1983100000000002
 30
0.0
 10
1.9889600000000001
 20
0.8223900000000001
 30
0.0
 10
1.8670400000000003
 20
0.25851
 30
0.0
 10
1.7933800000000002
 20
-0.14026
 30
0.0
 10
1.7933800000000002
 20
-0.14026
 30
0.0
 10
1.5495400000000001
 20
-0.03866
 30
0.0
 10
1.7476600000000002
 20
0.41599
 30
0.0
 10
1.4149200000000002
 20
0.41599
 30
0.0
 10
1.4149200000000002
 20
0.41599
 30
0.0
 10
1.4581000000000002
 20
0.29915
 30
0.0
 10
1.5800200000000002
 20
0.16199
 30
0.0
 10
1.5190600000000001
 20
0.02737
 30
0.0
 10
1.5190600000000001
 20
0.02737
 30
0.0
 10
1.11266
 20
0.26867
 30
0.0
 10
1.0974200000000001
 20
-0.2698
 30
0.0
 10
1.0974200000000001
 20
-0.4247400000000001
 30
0.0
 10
1.0974200000000001
 20
-0.4247400000000001
 30
0.0
 10
0.8561200000000001
 20
-0.11994
 30
0.0
 10
0.4624200000000001
 20
-0.22916
 30
0.0
 10
0.4624200000000001
 20
-0.6203200000000001
 30
0.0
 10
0.4624200000000001
 20
-0.6203200000000001
 30
0.0
 10
0.05348
 20
-0.38918
 30
0.0
 10
-0.12431
 20
-0.6635000000000001
 30
0.0
 10
-0.38085
 20
-0.9403600000000001
 30
0.0
 10
-0.38085
 20
-0.9403600000000001
 30
0.0
 10
-0.7288300000000001
 20
-0.8489200000000001
 30
0.0
 10
-0.8202700000000001
 20
-0.29266
 30
0.0
 10
-1.2266700000000001
 20
-0.40188
 30
0.0
 10
-1.2266700000000001
 20
-0.40188
 30
0.0
 10
-1.1809500000000002
 20
-1.0165600000000001
 30
0.0
 10
-1.2317500000000001
 20
-1.4737600000000002
 30
0.0
 10
-0.9904500000000001
 20
-2.1316200000000003
 30
0.0
 10
-0.9904500000000001
 20
-2.1316200000000003
 30
0.0
 10
-1.0641100000000001
 20
-2.1341600000000001
 30
0.0
 10
-1.1047500000000001
 20
-2.0452600000000003
 30
0.0
 10
-1.1377700000000002
 20
-2.0351000000000004
 30
0.0
 10
-1.1377700000000002
 20
-2.0351000000000004
 30
0.0
 10
-1.2368300000000001
 20
-2.0046200000000001
 30
0.0
 10
-1.2419100000000001
 20
-2.1341600000000001
 30
0.0
 10
-1.2850900000000001
 20
-2.0986000000000002
 30
0.0
 10
-1.2850900000000001
 20
-2.0986000000000002
 30
0.0
 10
-1.4120900000000001
 20
-1.9970000000000001
 30
0.0
 10
-1.3943100000000002
 20
-1.7582400000000002
 30
0.0
 10
-1.5289300000000001
 20
-1.6058400000000002
 30
0.0
 10
-1.5289300000000001
 20
-1.6058400000000002
 30
0.0
 10
-1.5289300000000001
 20
-1.6058400000000002
 30
0.0
 10
-1.42225
 20
-2.31196
 30
0.0
 10
-1.42225
 20
-2.31196
 30
0.0
 10
-1.42225
 20
-2.31196
 30
0.0
 10
-1.58989
 20
-2.1519400000000002
 30
0.0
 10
-1.7270500000000002
 20
-1.8852400000000002
 30
0.0
 10
-1.9175500000000001
 20
-2.19258
 30
0.0
 10
-1.9175500000000001
 20
-2.19258
 30
0.0
 10
-2.0039100000000003
 20
-2.0808200000000001
 30
0.0
 10
-1.9429500000000002
 20
-1.8979400000000002
 30
0.0
 10
-2.0140700000000002
 20
-1.7887200000000001
 30
0.0
 10
-2.0140700000000002
 20
-1.7887200000000001
 30
0.0
 10
-2.0623300000000002
 20
-1.9131800000000001
 30
0.0
 10
-2.0242300000000002
 20
-2.0401800000000003
 30
0.0
 10
-2.0496300000000001
 20
-2.1748000000000003
 30
0.0
 10
-2.0496300000000001
 20
-2.1748000000000003
 30
0.0
 10
-2.3874500000000003
 20
-1.9563600000000001
 30
0.0
 10
-2.4763500000000001
 20
-2.3830800000000001
 30
0.0
 10
-2.6465300000000003
 20
-1.8192000000000002
 30
0.0
 10
-2.6465300000000003
 20
-1.8192000000000002
 30
0.0
 10
-2.69225
 20
-1.9106400000000001
 30
0.0
 10
-2.6262100000000004
 20
-2.1240000000000001
 30
0.0
 10
-2.8090900000000003
 20
-2.0554200000000002
 30
0.0
 10
-2.8090900000000003
 20
-2.0554200000000002
 30
0.0
 10
-2.8827500000000001
 20
-1.9665200000000003
 30
0.0
 10
-2.7811500000000002
 20
-1.8166600000000002
 30
0.0
 10
-2.8294100000000002
 20
-1.71252
 30
0.0
 10
-2.8294100000000002
 20
-1.71252
 30
0.0
 10
-2.8294100000000002
 20
-1.71252
 30
0.0
 10
-2.8294100000000002
 20
-1.54742
 30
0.0
 10
-2.8294100000000002
 20
-1.54742
 30
0.0
 10
-2.8294100000000002
 20
-1.54742
 30
0.0
 10
-2.8751300000000004
 20
-0.9632200000000001
 30
0.0
 10
-2.8243300000000002
 20
-2.1798800000000003
 30
0.0
 10
-2.9945100000000004
 20
-1.6972800000000001
 30
0.0
 10
-2.9945100000000004
 20
-1.6972800000000001
 30
0.0
 10
-2.9945100000000004
 20
-1.6972800000000001
 30
0.0
 10
-2.9335500000000003
 20
-1.2756400000000001
 30
0.0
 10
-2.9335500000000003
 20
-1.2756400000000001
 30
0.0
 10
-2.9335500000000003
 20
-1.2756400000000001
 30
0.0
 10
-2.9335500000000003
 20
-1.2756400000000001
 30
0.0
 10
-2.8903700000000003
 20
-1.07752
 30
0.0
 10
-2.8903700000000003
 20
-1.07752
 30
0.0
 10
-2.8903700000000003
 20
-1.07752
 30
0.0
 10
-2.85989
 20
-0.9657600000000001
 30
0.0
 10
-2.6795500000000003
 20
-1.3874000000000002
 30
0.0
 10
-2.5601700000000003
 20
-1.1715
 30
0.0
 10
-2.5601700000000003
 20
-1.1715
 30
0.0
 10
-2.5601700000000003
 20
-1.1715
 30
0.0
 10
-2.5373100000000002
 20
-1.8141200000000002
 30
0.0
 10
-2.5373100000000002
 20
-1.8141200000000002
 30
0.0
 10
-2.5373100000000002
 20
-1.8141200000000002
 30
0.0
 10
-2.5220700000000003
 20
-1.7303000000000002
 30
0.0
 10
-2.4712700000000001
 20
-1.6769600000000002
 30
0.0
 10
-2.4687300000000003
 20
-1.54742
 30
0.0
 10
-2.4687300000000003
 20
-1.54742
 30
0.0
 10
-2.4661900000000001
 20
-1.4026400000000001
 30
0.0
 10
-2.51953
 20
-1.1461000000000001
 30
0.0
 10
-2.5119100000000003
 20
-1.00132
 30
0.0
 10
-2.5119100000000003
 20
-1.00132
 30
0.0
 10
-2.4331700000000001
 20
-0.8997200000000001
 30
0.0
 10
-2.1994900000000004
 20
-1.9589000000000001
 30
0.0
 10
-2.27061
 20
-1.37978
 30
0.0
 10
-2.27061
 20
-1.37978
 30
0.0
 10
-2.2731500000000002
 20
-1.3416800000000002
 30
0.0
 10
-2.3468100000000001
 20
-1.2146800000000002
 30
0.0
 10
-2.2807700000000004
 20
-1.2400800000000001
 30
0.0
 10
-2.2807700000000004
 20
-1.2400800000000001
 30
0.0
 10
-1.0920500000000002
 20
-1.6845800000000002
 30
0.0
 10
-2.0242300000000002
 20
0.26613
 30
0.0
 10
-2.6033500000000003
 20
0.20263
 30
0.0
  0
SPLINE
  5
40
100
AcDbEntity
  8
Ebene 1
 62
     7
100
AcDbSpline
210
0.0
220
0.0
230
1.0
 70
     1
 71
     3
 72
   104
 73
   100
 74
     0
 42
0.0000000001
 43
0.0000000001
 40
0.0
 40
0.0
 40
0.0
 40
0.0
 40
0.04
 40
0.04
 40
0.04
 40
0.04
 40
0.08
 40
0.08
 40
0.08
 40
0.08
 40
0.12
 40
0.12
 40
0.12
 40
0.12
 40
0.16
 40
0.16
 40
0.16
 40
0.16
 40
0.2
 40
0.2
 40
0.2
 40
0.2
 40
0.24
 40
0.24
 40
0.24
 40
0.24
 40
0.28
 40
0.28
 40
0.28
 40
0.28
 40
0.32
 40
0.32
 40
0.32
 40
0.32
 40
0.36
 40
0.36
 40
0.36
 40
0.36
 40
0.4
 40
0.4
 40
0.4
 40
0.4
 40
0.44
 40
0.44
 40
0.44
 40
0.44
 40
0.4799999999999999
 40
0.4799999999999999
 40
0.4799999999999999
 40
0.4799999999999999
 40
0.5199999999999999
 40
0.5199999999999999
 40
0.5199999999999999
 40
0.5199999999999999
 40
0.5599999999999999
 40
0.5599999999999999
 40
0.5599999999999999
 40
0.5599999999999999
 40
0.6
 40
0.6
 40
0.6
 40
0.6
 40
0.64
 40
0.64
 40
0.64
 40
0.64
 40
0.6800000000000001
 40
0.6800000000000001
 40
0.6800000000000001
 40
0.6800000000000001
 40
0.7200000000000001
 40
0.7200000000000001
 40
0.7200000000000001
 40
0.7200000000000001
 40
0.7600000000000001
 40
0.7600000000000001
 40
0.7600000000000001
 40
0.7600000000000001
 40
0.8000000000000002
 40
0.8000000000000002
 40
0.8000000000000002
 40
0.8000000000000002
 40
0.8400000000000002
 40
0.8400000000000002
 40
0.8400000000000002
 40
0.8400000000000002
 40
0.8800000000000002
 40
0.8800000000000002
 40
0.8800000000000002
 40
0.8800000000000002
 40
0.9200000000000003
 40
0.9200000000000003
 40
0.9200000000000003
 40
0.9200000000000003
 40
0.9600000000000003
 40
0.9600000000000003
 40
0.9600000000000003
 40
0.9600000000000003
 40
1.0
 40
1.0
 40
1.0
 40
1.0
 10
-2.6465300000000003
 20
0.12897
 30
0.0
 10
-2.7125700000000004
 20
-0.0793
 30
0.0
 10
-2.7506700000000004
 20
-0.2952
 30
0.0
 10
-2.7862300000000002
 20
-0.5136400000000001
 30
0.0
 10
-2.7862300000000002
 20
-0.5136400000000001
 30
0.0
 10
-2.86497
 20
-0.48316
 30
0.0
 10
-2.7506700000000004
 20
-0.2952
 30
0.0
 10
-2.8700500000000004
 20
-0.32568
 30
0.0
 10
-2.8700500000000004
 20
-0.32568
 30
0.0
 10
-2.8751300000000004
 20
-0.53396
 30
0.0
 10
-2.9335500000000003
 20
-0.7270000000000001
 30
0.0
 10
-2.9843500000000001
 20
-0.9225800000000001
 30
0.0
 10
-2.9843500000000001
 20
-0.9225800000000001
 30
0.0
 10
-3.1011900000000003
 20
-0.8997200000000001
 30
0.0
 10
-3.1824700000000004
 20
-0.76256
 30
0.0
 10
-3.2662900000000001
 20
-0.6838200000000001
 30
0.0
 10
-3.2662900000000001
 20
-0.6838200000000001
 30
0.0
 10
-3.1672300000000004
 20
-0.6381
 30
0.0
 10
-3.1672300000000004
 20
-0.4984000000000001
 30
0.0
 10
-3.2637500000000004
 20
-0.43998
 30
0.0
 10
-3.2637500000000004
 20
-0.43998
 30
0.0
 10
-3.6371300000000004
 20
-0.5796800000000001
 30
0.0
 10
-3.4923500000000001
 20
-0.08438
 30
0.0
 10
-3.7615900000000004
 20
-0.0031
 30
0.0
 10
-3.7615900000000004
 20
-0.0031
 30
0.0
 10
-3.7615900000000004
 20
-0.0031
 30
0.0
 10
-3.7361900000000001
 20
0.2635900000000001
 30
0.0
 10
-3.7361900000000001
 20
0.2635900000000001
 30
0.0
 10
-3.7361900000000001
 20
0.2635900000000001
 30
0.0
 10
-3.6955500000000003
 20
0.39821
 30
0.0
 10
-3.5736300000000001
 20
0.4515500000000001
 30
0.0
 10
-3.5787100000000005
 20
0.6090300000000001
 30
0.0
 10
-3.5787100000000005
 20
0.6090300000000001
 30
0.0
 10
-3.4567900000000003
 20
0.6750700000000001
 30
0.0
 10
-3.4974300000000005
 20
0.3677300000000001
 30
0.0
 10
-3.4339300000000001
 20
0.32455
 30
0.0
 10
-3.4339300000000001
 20
0.32455
 30
0.0
 10
-3.3602700000000003
 20
0.72079
 30
0.0
 10
-3.4593300000000005
 20
1.1652900000000002
 30
0.0
 10
-3.7666700000000004
 20
1.4573900000000002
 30
0.0
 10
-3.7666700000000004
 20
1.4573900000000002
 30
0.0
 10
-3.7438100000000003
 20
1.6758300000000002
 30
0.0
 10
-3.6879300000000002
 20
1.9298300000000002
 30
0.0
 10
-3.6142700000000003
 20
2.1381100000000002
 30
0.0
 10
-3.6142700000000003
 20
2.1381100000000002
 30
0.0
 10
-3.4796500000000004
 20
2.0263500000000003
 30
0.0
 10
-3.7285700000000004
 20
1.5335900000000002
 30
0.0
 10
-3.3602700000000003
 20
1.5767700000000002
 30
0.0
 10
-3.3602700000000003
 20
1.5767700000000002
 30
0.0
 10
-3.2510500000000002
 20
1.5183500000000001
 30
0.0
 10
-3.1672300000000004
 20
1.6529700000000001
 30
0.0
 10
-3.1316700000000002
 20
1.7291700000000001
 30
0.0
 10
-3.1316700000000002
 20
1.7291700000000001
 30
0.0
 10
-3.2358100000000003
 20
2.0593700000000004
 30
0.0
 10
-3.0707100000000001
 20
1.9577700000000002
 30
0.0
 10
-2.8471900000000003
 20
1.8637900000000001
 30
0.0
 10
-2.8471900000000003
 20
1.8637900000000001
 30
0.0
 10
-2.8776700000000002
 20
1.7190100000000001
 30
0.0
 10
-2.9259300000000001
 20
1.56915
 30
0.0
 10
-2.9310100000000001
 20
1.4167500000000002
 30
0.0
 10
-2.9310100000000001
 20
1.4167500000000002
 30
0.0
 10
-2.77861
 20
1.2948300000000001
 30
0.0
 10
-2.4560300000000002
 20
1.3811900000000001
 30
0.0
 10
-2.5881100000000004
 20
1.6250300000000002
 30
0.0
 10
-2.5881100000000004
 20
1.6250300000000002
 30
0.0
 10
-2.5881100000000004
 20
1.6250300000000002
 30
0.0
 10
-2.6135100000000002
 20
1.7723500000000001
 30
0.0
 10
-2.6135100000000002
 20
1.7723500000000001
 30
0.0
 10
-2.6135100000000002
 20
1.7723500000000001
 30
0.0
 10
-2.5576300000000001
 20
1.8053700000000001
 30
0.0
 10
-2.5093700000000001
 20
1.69869
 30
0.0
 10
-2.43825
 20
1.7139300000000002
 30
0.0
 10
-2.43825
 20
1.7139300000000002
 30
0.0
 10
-2.52461
 20
1.4345300000000001
 30
0.0
 10
-2.3772900000000003
 20
1.10179
 30
0.0
 10
-2.4534900000000004
 20
0.8579500000000001
 30
0.0
 10
-2.4534900000000004
 20
0.8579500000000001
 30
0.0
 10
-2.8319500000000004
 20
0.9214500000000001
 30
0.0
 10
-3.0529300000000004
 20
1.3456300000000001
 30
0.0
 10
-3.3983700000000003
 20
1.48533
 30
0.0
 10
-3.3983700000000003
 20
1.48533
 30
0.0
 10
-3.4263100000000004
 20
1.4294500000000001
 30
0.0
 10
-3.3678900000000005
 20
1.4167500000000002
 30
0.0
 10
-3.3374100000000002
 20
1.3862700000000001
 30
0.0
 10
-3.3374100000000002
 20
1.3862700000000001
 30
0.0
 10
-3.2967700000000004
 20
1.3075300000000001
 30
0.0
 10
-3.5025100000000005
 20
1.4777100000000001
 30
0.0
 10
-3.5558500000000004
 20
1.39897
 30
0.0
 10
-3.5558500000000004
 20
1.39897
 30
0.0
 10
-3.1748500000000002
 20
1.2033900000000002
 30
0.0
 10
-3.3526500000000001
 20
0.6064900000000001
 30
0.0
 10
-3.3069300000000004
 20
0.22549
 30
0.0
 10
-3.3069300000000004
 20
0.22549
 30
0.0
 10
-3.2281900000000001
 20
0.15691
 30
0.0
 10
-3.3094700000000001
 20
0.34233
 30
0.0
 10
-3.2205700000000004
 20
0.32455
 30
0.0
 10
-3.2205700000000004
 20
0.32455
 30
0.0
 10
-3.1545300000000003
 20
0.07817
 30
0.0
 10
-2.85989
 20
0.01213
 30
0.0
 10
-2.6465300000000003
 20
0.12897
 30
0.0
  0
SPLINE
  5
41
100
AcDbEntity
  8
Ebene 1
 62
     7
100
AcDbSpline
210
0.0
220
0.0
230
1.0
 70
     1
 71
     3
 72
    16
 73
    12
 74
     0
 42
0.0000000001
 43
0.0000000001
 40
0.0
 40
0.0
 40
0.0
 40
0.0
 40
0.3333333333333333
 40
0.3333333333333333
 40
0.3333333333333333
 40
0.3333333333333333
 40
0.6666666666666666
 40
0.6666666666666666
 40
0.6666666666666666
 40
0.6666666666666666
 40
1.0
 40
1.0
 40
1.0
 40
1.0
 10
-1.04633
 20
1.9120500000000002
 30
0.0
 10
-0.90917
 20
1.7952100000000002
 30
0.0
 10
-0.8786900000000001
 20
1.3761100000000002
 30
0.0
 10
-1.1504700000000001
 20
1.4624700000000002
 30
0.0
 10
-1.1504700000000001
 20
1.4624700000000002
 30
0.0
 10
-1.1961900000000001
 20
1.5412100000000002
 30
0.0
 10
-1.1377700000000002
 20
1.6809100000000001
 30
0.0
 10
-1.04633
 20
1.6758300000000002
 30
0.0
 10
-1.04633
 20
1.6758300000000002
 30
0.0
 10
-1.04633
 20
1.6758300000000002
 30
0.0
 10
-1.04633
 20
1.9120500000000002
 30
0.0
 10
-1.04633
 20
1.9120500000000002
 30
0.0
  0
SPLINE
  5
42
100
AcDbEntity
  8
Ebene 1
 62
     7
100
AcDbSpline
210
0.0
220
0.0
230
1.0
 70
     1
 71
     3
 72
    16
 73
    12
 74
     0
 42
0.0000000001
 43
0.0000000001
 40
0.0
 40
0.0
 40
0.0
 40
0.0
 40
0.3333333333333333
 40
0.3333333333333333
 40
0.3333333333333333
 40
0.3333333333333333
 40
0.6666666666666666
 40
0.6666666666666666
 40
0.6666666666666666
 40
0.6666666666666666
 40
1.0
 40
1.0
 40
1.0
 40
1.0
 10
-2.7379700000000002
 20
1.8358500000000002
 30
0.0
 10
-2.7379700000000002
 20
1.8358500000000002
 30
0.0
 10
-2.6820900000000001
 20
1.4777100000000001
 30
0.0
 10
-2.6820900000000001
 20
1.4777100000000001
 30
0.0
 10
-2.6820900000000001
 20
1.4777100000000001
 30
0.0
 10
-2.6820900000000001
 20
1.4777100000000001
 30
0.0
 10
-2.7684500000000001
 20
1.4142100000000002
 30
0.0
 10
-2.7684500000000001
 20
1.4142100000000002
 30
0.0
 10
-2.7684500000000001
 20
1.4142100000000002
 30
0.0
 10
-2.8370300000000004
 20
1.5361300000000002
 30
0.0
 10
-2.7735300000000001
 20
1.7063100000000002
 30
0.0
 10
-2.7379700000000002
 20
1.8358500000000002
 30
0.0
  0
SPLINE
  5
43
100
AcDbEntity
  8
Ebene 1
100
AcDbSpline
210
0.0
220
0.0
230
1.0
 70
     1
 71
     3
 72
    40
 73
    36
 74
     0
 42
0.0000000001
 43
0.0000000001
 40
0.0
 40
0.0
 40
0.0
 40
0.0
 40
0.1111111111111111
 40
0.1111111111111111
 40
0.1111111111111111
 40
0.1111111111111111
 40
0.2222222222222222
 40
0.2222222222222222
 40
0.2222222222222222
 40
0.2222222222222222
 40
0.3333333333333333
 40
0.3333333333333333
 40
0.3333333333333333
 40
0.3333333333333333
 40
0.4444444444444444
 40
0.4444444444444444
 40
0.4444444444444444
 40
0.4444444444444444
 40
0.5555555555555556
 40
0.5555555555555556
 40
0.5555555555555556
 40
0.5555555555555556
 40
0.6666666666666667
 40
0.6666666666666667
 40
0.6666666666666667
 40
0.6666666666666667
 40
0.7777777777777779
 40
0.7777777777777779
 40
0.7777777777777779
 40
0.7777777777777779
 40
0.8888888888888891
 40
0.8888888888888891
 40
0.8888888888888891
 40
0.8888888888888891
 40
1.0
 40
1.0
 40
1.0
 40
1.0
 10
0.1754
 20
1.7596500000000002
 30
0.0
 10
0.31256
 20
1.7240900000000001
 30
0.0
 10
0.06872
 20
1.61487
 30
0.0
 10
0.03824
 20
1.5386700000000002
 30
0.0
 10
0.03824
 20
1.5386700000000002
 30
0.0
 10
0.03824
 20
1.5386700000000002
 30
0.0
 10
1.06694
 20
1.6682100000000002
 30
0.0
 10
1.06694
 20
1.6682100000000002
 30
0.0
 10
1.06694
 20
1.6682100000000002
 30
0.0
 10
1.0059800000000001
 20
1.5640700000000001
 30
0.0
 10
0.8104000000000001
 20
1.57423
 30
0.0
 10
0.8104000000000001
 20
1.4091300000000002
 30
0.0
 10
0.8104000000000001
 20
1.4091300000000002
 30
0.0
 10
0.82564
 20
1.2618100000000001
 30
0.0
 10
0.70372
 20
1.15259
 30
0.0
 10
0.71896
 20
1.0103500000000001
 30
0.0
 10
0.71896
 20
1.0103500000000001
 30
0.0
 10
0.71896
 20
1.0103500000000001
 30
0.0
 10
1.0517000000000001
 20
1.1424300000000001
 30
0.0
 10
1.0517000000000001
 20
1.1424300000000001
 30
0.0
 10
1.0517000000000001
 20
1.1424300000000001
 30
0.0
 10
0.61482
 20
0.85287
 30
0.0
 10
0.3557400000000001
 20
0.34233
 30
0.0
 10
-0.12431
 20
0.09595
 30
0.0
 10
-0.12431
 20
0.09595
 30
0.0
 10
-0.10907
 20
0.02991
 30
0.0
 10
0.0103
 20
0.10611
 30
0.0
 10
0.0103
 20
0.04261
 30
0.0
 10
0.0103
 20
0.04261
 30
0.0
 10
-0.7288300000000001
 20
-0.19868
 30
0.0
 10
-1.0310900000000001
 20
0.66237
 30
0.0
 10
-1.5746500000000001
 20
0.8350900000000001
 30
0.0
 10
-1.5746500000000001
 20
0.8350900000000001
 30
0.0
 10
-0.9244100000000001
 20
0.9163700000000001
 30
0.0
 10
-0.3656100000000001
 20
1.4218300000000001
 30
0.0
 10
0.1754
 20
1.7596500000000002
 30
0.0
  0
SPLINE
  5
44
100
AcDbEntity
  8
Ebene 1
 62
     7
100
AcDbSpline
210
0.0
220
0.0
230
1.0
 70
     1
 71
     3
 72
    32
 73
    28
 74
     0
 42
0.0000000001
 43
0.0000000001
 40
0.0
 40
0.0
 40
0.0
 40
0.0
 40
0.1428571428571429
 40
0.1428571428571429
 40
0.1428571428571429
 40
0.1428571428571429
 40
0.2857142857142857
 40
0.2857142857142857
 40
0.2857142857142857
 40
0.2857142857142857
 40
0.4285714285714286
 40
0.4285714285714286
 40
0.4285714285714286
 40
0.4285714285714286
 40
0.5714285714285714
 40
0.5714285714285714
 40
0.5714285714285714
 40
0.5714285714285714
 40
0.7142857142857142
 40
0.7142857142857142
 40
0.7142857142857142
 40
0.7142857142857142
 40
0.857142857142857
 40
0.857142857142857
 40
0.857142857142857
 40
0.857142857142857
 40
1.0
 40
1.0
 40
1.0
 40
1.0
 10
-3.7819100000000003
 20
1.3075300000000001
 30
0.0
 10
-3.4186900000000002
 20
0.9900300000000001
 30
0.0
 10
-3.6676100000000003
 20
0.3905900000000001
 30
0.0
 10
-4.1095700000000006
 20
0.32201
 30
0.0
 10
-4.1095700000000006
 20
0.32201
 30
0.0
 10
-4.1552899999999999
 20
0.29915
 30
0.0
 10
-4.1959300000000006
 20
0.27121
 30
0.0
 10
-4.23149
 20
0.23057
 30
0.0
 10
-4.23149
 20
0.23057
 30
0.0
 10
-4.23149
 20
0.23057
 30
0.0
 10
-4.1629100000000001
 20
0.11881
 30
0.0
 10
-4.1629100000000001
 20
0.11881
 30
0.0
 10
-4.1629100000000001
 20
0.11881
 30
0.0
 10
-4.0740100000000004
 20
0.14929
 30
0.0
 10
-3.9647900000000003
 20
0.00197
 30
0.0
 10
-3.8581100000000004
 20
-0.00818
 30
0.0
 10
-3.8581100000000004
 20
-0.00818
 30
0.0
 10
-3.8200100000000003
 20
-0.10216
 30
0.0
 10
-3.9012900000000004
 20
-0.17328
 30
0.0
 10
-3.9343100000000004
 20
-0.2571
 30
0.0
 10
-3.9343100000000004
 20
-0.2571
 30
0.0
 10
-4.13497
 20
-0.08692
 30
0.0
 10
-4.3000700000000007
 20
0.18231
 30
0.0
 10
-4.3051500000000003
 20
0.45917
 30
0.0
 10
-4.3051500000000003
 20
0.45917
 30
0.0
 10
-4.0130500000000007
 20
0.6496700000000001
 30
0.0
 10
-3.8835100000000002
 20
0.9925700000000001
 30
0.0
 10
-3.7819100000000003
 20
1.3075300000000001
 30
0.0
  0
SPLINE
  5
45
100
AcDbEntity
  8
Ebene 1
 62
     7
100
AcDbSpline
210
0.0
220
0.0
230
1.0
 70
     1
 71
     3
 72
    20
 73
    16
 74
     0
 42
0.0000000001
 43
0.0000000001
 40
0.0
 40
0.0
 40
0.0
 40
0.0
 40
0.25
 40
0.25
 40
0.25
 40
0.25
 40
0.5
 40
0.5
 40
0.5
 40
0.5
 40
0.75
 40
0.75
 40
0.75
 40
0.75
 40
1.0
 40
1.0
 40
1.0
 40
1.0
 10
-0.03287
 20
1.06623
 30
0.0
 10
-0.01763
 20
1.06115
 30
0.0
 10
0.0103
 20
1.0738500000000002
 30
0.0
 10
0.0103
 20
1.0509900000000001
 30
0.0
 10
0.0103
 20
1.0509900000000001
 30
0.0
 10
-0.09383
 20
0.8833500000000001
 30
0.0
 10
-0.24623
 20
0.7157100000000001
 30
0.0
 10
-0.4265700000000001
 20
0.6268100000000001
 30
0.0
 10
-0.4265700000000001
 20
0.6268100000000001
 30
0.0
 10
-0.4265700000000001
 20
0.6268100000000001
 30
0.0
 10
-0.7135900000000001
 20
0.7944500000000001
 30
0.0
 10
-0.7135900000000001
 20
0.7944500000000001
 30
0.0
 10
-0.7135900000000001
 20
0.7944500000000001
 30
0.0
 10
-0.5180100000000001
 20
0.9392300000000001
 30
0.0
 10
-0.26147
 20
1.0027300000000001
 30
0.0
 10
-0.03287
 20
1.06623
 30
0.0
  0
SPLINE
  5
46
100
AcDbEntity
  8
Ebene 1
 62
     7
100
AcDbSpline
210
0.0
220
0.0
230
1.0
 70
     1
 71
     3
 72
    12
 73
     8
 74
     0
 42
0.0000000001
 43
0.0000000001
 40
0.0
 40
0.0
 40
0.0
 40
0.0
 40
0.5
 40
0.5
 40
0.5
 40
0.5
 40
1.0
 40
1.0
 40
1.0
 40
1.0
 10
-3.0097500000000004
 20
0.8401700000000001
 30
0.0
 10
-2.9183100000000004
 20
0.8223900000000001
 30
0.0
 10
-2.8065500000000001
 20
0.7614300000000001
 30
0.0
 10
-2.7709900000000003
 20
0.6776100000000001
 30
0.0
 10
-2.7709900000000003
 20
0.6776100000000001
 30
0.0
 10
-2.8751300000000004
 20
0.5861700000000001
 30
0.0
 10
-2.9640300000000002
 20
0.76397
 30
0.0
 10
-3.0097500000000004
 20
0.8401700000000001
 30
0.0
  0
SPLINE
  5
47
100
AcDbEntity
  8
Ebene 1
100
AcDbSpline
210
0.0
220
0.0
230
1.0
 70
     1
 71
     3
 72
    16
 73
    12
 74
     0
 42
0.0000000001
 43
0.0000000001
 40
0.0
 40
0.0
 40
0.0
 40
0.0
 40
0.3333333333333333
 40
0.3333333333333333
 40
0.3333333333333333
 40
0.3333333333333333
 40
0.6666666666666666
 40
0.6666666666666666
 40
0.6666666666666666
 40
0.6666666666666666
 40
1.0
 40
1.0
 40
1.0
 40
1.0
 10
-1.5746500000000001
 20
0.7334900000000001
 30
0.0
 10
-1.5746500000000001
 20
0.7334900000000001
 30
0.0
 10
-1.42225
 20
0.6115700000000001
 30
0.0
 10
-1.42225
 20
0.6115700000000001
 30
0.0
 10
-1.42225
 20
0.6115700000000001
 30
0.0
 10
-1.58989
 20
0.46933
 30
0.0
 10
-1.4095500000000001
 20
0.25597
 30
0.0
 10
-1.37907
 20
0.08833
 30
0.0
 10
-1.37907
 20
0.08833
 30
0.0
 10
-1.5289300000000001
 20
0.23819
 30
0.0
 10
-1.6813300000000002
 20
0.5023500000000001
 30
0.0
 10
-1.5746500000000001
 20
0.7334900000000001
 30
0.0
  0
SPLINE
  5
48
100
AcDbEntity
  8
Ebene 1
 62
     7
100
AcDbSpline
210
0.0
220
0.0
230
1.0
 70
     1
 71
     3
 72
    20
 73
    16
 74
     0
 42
0.0000000001
 43
0.0000000001
 40
0.0
 40
0.0
 40
0.0
 40
0.0
 40
0.25
 40
0.25
 40
0.25
 40
0.25
 40
0.5
 40
0.5
 40
0.5
 40
0.5
 40
0.75
 40
0.75
 40
0.75
 40
0.75
 40
1.0
 40
1.0
 40
1.0
 40
1.0
 10
-3.9165300000000003
 20
0.33979
 30
0.0
 10
-3.8911300000000004
 20
0.3474100000000001
 30
0.0
 10
-3.8708100000000005
 20
0.32201
 30
0.0
 10
-3.8657300000000001
 20
0.29915
 30
0.0
 10
-3.8657300000000001
 20
0.29915
 30
0.0
 10
-3.7692100000000002
 20
0.35503
 30
0.0
 10
-3.8428700000000005
 20
0.12643
 30
0.0
 10
-3.8581100000000004
 20
0.08325
 30
0.0
 10
-3.8581100000000004
 20
0.08325
 30
0.0
 10
-3.9393900000000004
 20
0.09595
 30
0.0
 10
-4.0079700000000003
 20
0.16453
 30
0.0
 10
-4.0790900000000008
 20
0.21025
 30
0.0
 10
-4.0790900000000008
 20
0.21025
 30
0.0
 10
-4.0790900000000008
 20
0.21025
 30
0.0
 10
-3.9165300000000003
 20
0.33979
 30
0.0
 10
-3.9165300000000003
 20
0.33979
 30
0.0
  0
SPLINE
  5
49
100
AcDbEntity
  8
Ebene 1
 62
     7
100
AcDbSpline
210
0.0
220
0.0
230
1.0
 70
     1
 71
     3
 72
    12
 73
     8
 74
     0
 42
0.0000000001
 43
0.0000000001
 40
0.0
 40
0.0
 40
0.0
 40
0.0
 40
0.5
 40
0.5
 40
0.5
 40
0.5
 40
1.0
 40
1.0
 40
1.0
 40
1.0
 10
-2.6033500000000003
 20
0.20263
 30
0.0
 10
-2.60589
 20
0.17469
 30
0.0
 10
-2.6185900000000002
 20
0.13913
 30
0.0
 10
-2.6465300000000003
 20
0.12897
 30
0.0
 10
-2.6465300000000003
 20
0.12897
 30
0.0
 10
-2.6566900000000002
 20
0.16199
 30
0.0
 10
-2.6312900000000004
 20
0.19247
 30
0.0
 10
-2.6033500000000003
 20
0.20263
 30
0.0
  0
SPLINE
  5
4A
100
AcDbEntity
  8
Ebene 1
 62
     7
100
AcDbSpline
210
0.0
220
0.0
230
1.0
 70
     1
 71
     3
 72
    20
 73
    16
 74
     0
 42
0.0000000001
 43
0.0000000001
 40
0.0
 40
0.0
 40
0.0
 40
0.0
 40
0.25
 40
0.25
 40
0.25
 40
0.25
 40
0.5
 40
0.5
 40
0.5
 40
0.5
 40
0.75
 40
0.75
 40
0.75
 40
0.75
 40
1.0
 40
1.0
 40
1.0
 40
1.0
 10
1.3082400000000001
 20
0.02229
 30
0.0
 10
1.3844400000000001
 20
0.01975
 30
0.0
 10
1.5343000000000002
 20
-0.02342
 30
0.0
 10
1.5343000000000002
 20
-0.09962
 30
0.0
 10
1.5343000000000002
 20
-0.09962
 30
0.0
 10
1.5952600000000001
 20
-0.10216
 30
0.0
 10
1.7019400000000002
 20
-0.1428
 30
0.0
 10
1.7476600000000002
 20
-0.19614
 30
0.0
 10
1.7476600000000002
 20
-0.19614
 30
0.0
 10
1.7476600000000002
 20
-0.19614
 30
0.0
 10
1.2930000000000001
 20
-0.3079
 30
0.0
 10
1.2930000000000001
 20
-0.3079
 30
0.0
 10
1.2930000000000001
 20
-0.3079
 30
0.0
 10
1.1583800000000002
 20
-0.23678
 30
0.0
 10
1.18632
 20
-0.02342
 30
0.0
 10
1.3082400000000001
 20
0.02229
 30
0.0
  0
SPLINE
  5
4B
100
AcDbEntity
  8
Ebene 1
 62
     7
100
AcDbSpline
210
0.0
220
0.0
230
1.0
 70
     1
 71
     3
 72
    16
 73
    12
 74
     0
 42
0.0000000001
 43
0.0000000001
 40
0.0
 40
0.0
 40
0.0
 40
0.0
 40
0.3333333333333333
 40
0.3333333333333333
 40
0.3333333333333333
 40
0.3333333333333333
 40
0.6666666666666666
 40
0.6666666666666666
 40
0.6666666666666666
 40
0.6666666666666666
 40
1.0
 40
1.0
 40
1.0
 40
1.0
 10
-3.7514300000000005
 20
-0.10978
 30
0.0
 10
-3.7514300000000005
 20
-0.10978
 30
0.0
 10
-3.6625300000000003
 20
-0.28758
 30
0.0
 10
-3.6625300000000003
 20
-0.28758
 30
0.0
 10
-3.6625300000000003
 20
-0.28758
 30
0.0
 10
-3.7336500000000004
 20
-0.32314
 30
0.0
 10
-3.8047700000000004
 20
-0.35108
 30
0.0
 10
-3.8809700000000005
 20
-0.3333
 30
0.0
 10
-3.8809700000000005
 20
-0.3333
 30
0.0
 10
-3.9190700000000005
 20
-0.24948
 30
0.0
 10
-3.7996900000000005
 20
-0.17328
 30
0.0
 10
-3.7514300000000005
 20
-0.10978
 30
0.0
  0
SPLINE
  5
4C
100
AcDbEntity
  8
Ebene 1
 62
     7
100
AcDbSpline
210
0.0
220
0.0
230
1.0
 70
     1
 71
     3
 72
    20
 73
    16
 74
     0
 42
0.0000000001
 43
0.0000000001
 40
0.0
 40
0.0
 40
0.0
 40
0.0
 40
0.25
 40
0.25
 40
0.25
 40
0.25
 40
0.5
 40
0.5
 40
0.5
 40
0.5
 40
0.75
 40
0.75
 40
0.75
 40
0.75
 40
1.0
 40
1.0
 40
1.0
 40
1.0
 10
0.70372
 20
-0.30282
 30
0.0
 10
0.87136
 20
-0.33838
 30
0.0
 10
1.0364600000000002
 20
-0.4272800000000001
 30
0.0
 10
1.1279000000000001
 20
-0.5796800000000001
 30
0.0
 10
1.1279000000000001
 20
-0.5796800000000001
 30
0.0
 10
1.1279000000000001
 20
-0.5796800000000001
 30
0.0
 10
1.11266
 20
-0.6050800000000001
 30
0.0
 10
1.11266
 20
-0.6050800000000001
 30
0.0
 10
1.11266
 20
-0.6050800000000001
 30
0.0
 10
0.9450200000000001
 20
-0.59492
 30
0.0
 10
0.7799200000000001
 20
-0.4679200000000001
 30
0.0
 10
0.61482
 20
-0.4984000000000001
 30
0.0
 10
0.61482
 20
-0.4984000000000001
 30
0.0
 10
0.5843400000000001
 20
-0.41966
 30
0.0
 10
0.64276
 20
-0.35108
 30
0.0
 10
0.70372
 20
-0.30282
 30
0.0
  0
SPLINE
  5
4D
100
AcDbEntity
  8
Ebene 1
 62
     7
100
AcDbSpline
210
0.0
220
0.0
230
1.0
 70
     1
 71
     3
 72
    16
 73
    12
 74
     0
 42
0.0000000001
 43
0.0000000001
 40
0.0
 40
0.0
 40
0.0
 40
0.0
 40
0.3333333333333333
 40
0.3333333333333333
 40
0.3333333333333333
 40
0.3333333333333333
 40
0.6666666666666666
 40
0.6666666666666666
 40
0.6666666666666666
 40
0.6666666666666666
 40
1.0
 40
1.0
 40
1.0
 40
1.0
 10
1.7019400000000002
 20
-0.29266
 30
0.0
 10
1.7324200000000001
 20
-0.28758
 30
0.0
 10
1.7629000000000001
 20
-0.29266
 30
0.0
 10
1.7629000000000001
 20
-0.32314
 30
0.0
 10
1.7629000000000001
 20
-0.32314
 30
0.0
 10
1.6867000000000001
 20
-0.4679200000000001
 30
0.0
 10
1.5800200000000002
 20
-0.63302
 30
0.0
 10
1.44286
 20
-0.7244600000000001
 30
0.0
 10
1.44286
 20
-0.7244600000000001
 30
0.0
 10
1.5495400000000001
 20
-0.59238
 30
0.0
 10
1.5343000000000002
 20
-0.34346
 30
0.0
 10
1.7019400000000002
 20
-0.29266
 30
0.0
  0
SPLINE
  5
4E
100
AcDbEntity
  8
Ebene 1
 62
     7
100
AcDbSpline
210
0.0
220
0.0
230
1.0
 70
     1
 71
     3
 72
    16
 73
    12
 74
     0
 42
0.0000000001
 43
0.0000000001
 40
0.0
 40
0.0
 40
0.0
 40
0.0
 40
0.3333333333333333
 40
0.3333333333333333
 40
0.3333333333333333
 40
0.3333333333333333
 40
0.6666666666666666
 40
0.6666666666666666
 40
0.6666666666666666
 40
0.6666666666666666
 40
1.0
 40
1.0
 40
1.0
 40
1.0
 10
-3.6752300000000004
 20
-0.6685800000000001
 30
0.0
 10
-3.7742900000000001
 20
-0.6076200000000001
 30
0.0
 10
-3.8428700000000005
 20
-0.5009400000000001
 30
0.0
 10
-3.8962100000000004
 20
-0.40188
 30
0.0
 10
-3.8962100000000004
 20
-0.40188
 30
0.0
 10
-3.7615900000000004
 20
-0.32822
 30
0.0
 10
-3.6218900000000005
 20
-0.40188
 30
0.0
 10
-3.5558500000000004
 20
-0.53396
 30
0.0
 10
-3.5558500000000004
 20
-0.53396
 30
0.0
 10
-3.5558500000000004
 20
-0.53396
 30
0.0
 10
-3.6752300000000004
 20
-0.6685800000000001
 30
0.0
 10
-3.6752300000000004
 20
-0.6685800000000001
 30
0.0
  0
SPLINE
  5
4F
100
AcDbEntity
  8
Ebene 1
 62
     7
100
AcDbSpline
210
0.0
220
0.0
230
1.0
 70
     1
 71
     3
 72
    20
 73
    16
 74
     0
 42
0.0000000001
 43
0.0000000001
 40
0.0
 40
0.0
 40
0.0
 40
0.0
 40
0.25
 40
0.25
 40
0.25
 40
0.25
 40
0.5
 40
0.5
 40
0.5
 40
0.5
 40
0.75
 40
0.75
 40
0.75
 40
0.75
 40
1.0
 40
1.0
 40
1.0
 40
1.0
 10
1.4301600000000001
 20
-0.38156
 30
0.0
 10
1.44286
 20
-0.38664
 30
0.0
 10
1.4581000000000002
 20
-0.4095
 30
0.0
 10
1.4581000000000002
 20
-0.4272800000000001
 30
0.0
 10
1.4581000000000002
 20
-0.4272800000000001
 30
0.0
 10
1.3539600000000001
 20
-0.5822200000000001
 30
0.0
 10
1.3082400000000001
 20
-0.8133600000000001
 30
0.0
 10
1.11266
 20
-0.8768600000000001
 30
0.0
 10
1.11266
 20
-0.8768600000000001
 30
0.0
 10
1.02122
 20
-0.78034
 30
0.0
 10
1.0974200000000001
 20
-0.6482600000000001
 30
0.0
 10
1.2015600000000002
 20
-0.6050800000000001
 30
0.0
 10
1.2015600000000002
 20
-0.6050800000000001
 30
0.0
 10
1.0974200000000001
 20
-0.4476000000000001
 30
0.0
 10
1.3539600000000001
 20
-0.4603
 30
0.0
 10
1.4301600000000001
 20
-0.38156
 30
0.0
  0
SPLINE
  5
50
100
AcDbEntity
  8
Ebene 1
 62
     7
100
AcDbSpline
210
0.0
220
0.0
230
1.0
 70
     1
 71
     3
 72
    20
 73
    16
 74
     0
 42
0.0000000001
 43
0.0000000001
 40
0.0
 40
0.0
 40
0.0
 40
0.0
 40
0.25
 40
0.25
 40
0.25
 40
0.25
 40
0.5
 40
0.5
 40
0.5
 40
0.5
 40
0.75
 40
0.75
 40
0.75
 40
0.75
 40
1.0
 40
1.0
 40
1.0
 40
1.0
 10
-3.3882100000000004
 20
-0.50348
 30
0.0
 10
-3.3450300000000004
 20
-0.50856
 30
0.0
 10
-3.2840700000000003
 20
-0.5441200000000001
 30
0.0
 10
-3.2866100000000005
 20
-0.58984
 30
0.0
 10
-3.2866100000000005
 20
-0.58984
 30
0.0
 10
-3.2866100000000005
 20
-0.58984
 30
0.0
 10
-3.5406100000000005
 20
-0.69906
 30
0.0
 10
-3.5406100000000005
 20
-0.69906
 30
0.0
 10
-3.5406100000000005
 20
-0.69906
 30
0.0
 10
-3.6117300000000001
 20
-0.6685800000000001
 30
0.0
 10
-3.5152100000000002
 20
-0.61524
 30
0.0
 10
-3.4898100000000003
 20
-0.5822200000000001
 30
0.0
 10
-3.4898100000000003
 20
-0.5822200000000001
 30
0.0
 10
-3.4898100000000003
 20
-0.5822200000000001
 30
0.0
 10
-3.3882100000000004
 20
-0.50348
 30
0.0
 10
-3.3882100000000004
 20
-0.50348
 30
0.0
  0
SPLINE
  5
51
100
AcDbEntity
  8
Ebene 1
 62
     7
100
AcDbSpline
210
0.0
220
0.0
230
1.0
 70
     1
 71
     3
 72
    12
 73
     8
 74
     0
 42
0.0000000001
 43
0.0000000001
 40
0.0
 40
0.0
 40
0.0
 40
0.0
 40
0.5
 40
0.5
 40
0.5
 40
0.5
 40
1.0
 40
1.0
 40
1.0
 40
1.0
 10
0.64276
 20
-0.5187200000000001
 30
0.0
 10
0.64276
 20
-0.5187200000000001
 30
0.0
 10
0.7342000000000001
 20
-0.5593600000000001
 30
0.0
 10
0.7342000000000001
 20
-0.5593600000000001
 30
0.0
 10
0.7342000000000001
 20
-0.5593600000000001
 30
0.0
 10
0.70372
 20
-0.6050800000000001
 30
0.0
 10
0.64276
 20
-0.5593600000000001
 30
0.0
 10
0.64276
 20
-0.5187200000000001
 30
0.0
  0
SPLINE
  5
52
100
AcDbEntity
  8
Ebene 1
 62
     7
100
AcDbSpline
210
0.0
220
0.0
230
1.0
 70
     1
 71
     3
 72
    24
 73
    20
 74
     0
 42
0.0000000001
 43
0.0000000001
 40
0.0
 40
0.0
 40
0.0
 40
0.0
 40
0.2
 40
0.2
 40
0.2
 40
0.2
 40
0.4
 40
0.4
 40
0.4
 40
0.4
 40
0.6000000000000001
 40
0.6000000000000001
 40
0.6000000000000001
 40
0.6000000000000001
 40
0.8
 40
0.8
 40
0.8
 40
0.8
 40
1.0
 40
1.0
 40
1.0
 40
1.0
 10
0.08396
 20
-0.5796800000000001
 30
0.0
 10
0.16016
 20
-0.5746
 30
0.0
 10
0.26684
 20
-0.6635000000000001
 30
0.0
 10
0.22112
 20
-0.7447800000000001
 30
0.0
 10
0.22112
 20
-0.7447800000000001
 30
0.0
 10
0.26684
 20
-0.80066
 30
0.0
 10
0.29732
 20
-0.90988
 30
0.0
 10
0.23636
 20
-0.9556000000000001
 30
0.0
 10
0.23636
 20
-0.9556000000000001
 30
0.0
 10
0.1754
 20
-0.8717800000000001
 30
0.0
 10
0.19064
 20
-0.69906
 30
0.0
 10
0.06872
 20
-0.65842
 30
0.0
 10
0.06872
 20
-0.65842
 30
0.0
 10
0.05348
 20
-0.7397
 30
0.0
 10
0.16016
 20
-0.7930400000000001
 30
0.0
 10
0.14492
 20
-0.8768600000000001
 30
0.0
 10
0.14492
 20
-0.8768600000000001
 30
0.0
 10
-0.04811
 20
-0.9022600000000001
 30
0.0
 10
-0.10907
 20
-0.61778
 30
0.0
 10
0.08396
 20
-0.5796800000000001
 30
0.0
  0
SPLINE
  5
53
100
AcDbEntity
  8
Ebene 1
 62
     7
100
AcDbSpline
210
0.0
220
0.0
230
1.0
 70
     1
 71
     3
 72
    20
 73
    16
 74
     0
 42
0.0000000001
 43
0.0000000001
 40
0.0
 40
0.0
 40
0.0
 40
0.0
 40
0.25
 40
0.25
 40
0.25
 40
0.25
 40
0.5
 40
0.5
 40
0.5
 40
0.5
 40
0.75
 40
0.75
 40
0.75
 40
0.75
 40
1.0
 40
1.0
 40
1.0
 40
1.0
 10
0.61482
 20
-0.65334
 30
0.0
 10
0.61482
 20
-0.65334
 30
0.0
 10
0.9297800000000001
 20
-0.67366
 30
0.0
 10
0.9297800000000001
 20
-0.67366
 30
0.0
 10
0.9297800000000001
 20
-0.67366
 30
0.0
 10
0.9907400000000001
 20
-0.7270000000000001
 30
0.0
 10
0.9755
 20
-0.84384
 30
0.0
 10
0.9450200000000001
 20
-0.90734
 30
0.0
 10
0.9450200000000001
 20
-0.90734
 30
0.0
 10
0.8104000000000001
 20
-0.9860800000000001
 30
0.0
 10
0.59958
 20
-0.8336800000000001
 30
0.0
 10
0.50814
 20
-0.9530600000000001
 30
0.0
 10
0.50814
 20
-0.9530600000000001
 30
0.0
 10
0.44718
 20
-0.8286000000000001
 30
0.0
 10
0.4319400000000001
 20
-0.65334
 30
0.0
 10
0.61482
 20
-0.65334
 30
0.0
  0
SPLINE
  5
54
100
AcDbEntity
  8
Ebene 1
 62
     7
100
AcDbSpline
210
0.0
220
0.0
230
1.0
 70
     1
 71
     3
 72
    24
 73
    20
 74
     0
 42
0.0000000001
 43
0.0000000001
 40
0.0
 40
0.0
 40
0.0
 40
0.0
 40
0.2
 40
0.2
 40
0.2
 40
0.2
 40
0.4
 40
0.4
 40
0.4
 40
0.4
 40
0.6000000000000001
 40
0.6000000000000001
 40
0.6000000000000001
 40
0.6000000000000001
 40
0.8
 40
0.8
 40
0.8
 40
0.8
 40
1.0
 40
1.0
 40
1.0
 40
1.0
 10
-1.07681
 20
-0.6685800000000001
 30
0.0
 10
-1.0310900000000001
 20
-0.67366
 30
0.0
 10
-0.9701300000000001
 20
-0.65334
 30
0.0
 10
-0.9396500000000001
 20
-0.7041400000000001
 30
0.0
 10
-0.9396500000000001
 20
-0.7041400000000001
 30
0.0
 10
-0.9853700000000001
 20
-1.1511800000000001
 30
0.0
 10
-0.74407
 20
-1.5575800000000002
 30
0.0
 10
-0.6678700000000001
 20
-1.9944600000000001
 30
0.0
 10
-0.6678700000000001
 20
-1.9944600000000001
 30
0.0
 10
-0.7288300000000001
 20
-1.9360400000000002
 30
0.0
 10
-0.8202700000000001
 20
-1.9360400000000002
 30
0.0
 10
-0.8939300000000001
 20
-1.9639800000000001
 30
0.0
 10
-0.8939300000000001
 20
-1.9639800000000001
 30
0.0
 10
-0.9548900000000001
 20
-1.6464800000000002
 30
0.0
 10
-1.1504700000000001
 20
-1.3239000000000001
 30
0.0
 10
-1.0615700000000001
 20
-0.9860800000000001
 30
0.0
 10
-1.0615700000000001
 20
-0.9860800000000001
 30
0.0
 10
-1.1072900000000001
 20
-0.8921000000000001
 30
0.0
 10
-1.1072900000000001
 20
-0.7701800000000001
 30
0.0
 10
-1.07681
 20
-0.6685800000000001
 30
0.0
  0
SPLINE
  5
55
100
AcDbEntity
  8
Ebene 1
 62
     7
100
AcDbSpline
210
0.0
220
0.0
230
1.0
 70
     1
 71
     3
 72
    40
 73
    36
 74
     0
 42
0.0000000001
 43
0.0000000001
 40
0.0
 40
0.0
 40
0.0
 40
0.0
 40
0.1111111111111111
 40
0.1111111111111111
 40
0.1111111111111111
 40
0.1111111111111111
 40
0.2222222222222222
 40
0.2222222222222222
 40
0.2222222222222222
 40
0.2222222222222222
 40
0.3333333333333333
 40
0.3333333333333333
 40
0.3333333333333333
 40
0.3333333333333333
 40
0.4444444444444444
 40
0.4444444444444444
 40
0.4444444444444444
 40
0.4444444444444444
 40
0.5555555555555556
 40
0.5555555555555556
 40
0.5555555555555556
 40
0.5555555555555556
 40
0.6666666666666667
 40
0.6666666666666667
 40
0.6666666666666667
 40
0.6666666666666667
 40
0.7777777777777779
 40
0.7777777777777779
 40
0.7777777777777779
 40
0.7777777777777779
 40
0.8888888888888891
 40
0.8888888888888891
 40
0.8888888888888891
 40
0.8888888888888891
 40
1.0
 40
1.0
 40
1.0
 40
1.0
 10
-3.3882100000000004
 20
-0.6838200000000001
 30
0.0
 10
-3.3882100000000004
 20
-0.6838200000000001
 30
0.0
 10
-3.2510500000000002
 20
-0.8362200000000001
 30
0.0
 10
-3.2510500000000002
 20
-0.8362200000000001
 30
0.0
 10
-3.2510500000000002
 20
-0.8362200000000001
 30
0.0
 10
-3.2510500000000002
 20
-1.6871200000000002
 30
0.0
 10
-3.2739100000000003
 20
-2.5177
 30
0.0
 10
-3.0656300000000001
 20
-3.3101800000000003
 30
0.0
 10
-3.0656300000000001
 20
-3.3101800000000003
 30
0.0
 10
-3.0173700000000001
 20
-3.3863800000000004
 30
0.0
 10
-2.8954500000000003
 20
-3.3228800000000001
 30
0.0
 10
-2.85989
 20
-3.4194000000000004
 30
0.0
 10
-2.85989
 20
-3.4194000000000004
 30
0.0
 10
-2.85989
 20
-3.4194000000000004
 30
0.0
 10
-2.9386300000000003
 20
-4.8189400000000004
 30
0.0
 10
-2.9386300000000003
 20
-4.8189400000000004
 30
0.0
 10
-2.9386300000000003
 20
-4.8189400000000004
 30
0.0
 10
-3.0402300000000002
 20
-4.5700200000000004
 30
0.0
 10
-3.0427700000000004
 20
-4.1864800000000004
 30
0.0
 10
-3.0910300000000004
 20
-3.9172400000000005
 30
0.0
 10
-3.0910300000000004
 20
-3.9172400000000005
 30
0.0
 10
-3.1723100000000004
 20
-3.4651200000000002
 30
0.0
 10
-3.3374100000000002
 20
-3.1425400000000003
 30
0.0
 10
-3.3221700000000003
 20
-2.6675600000000004
 30
0.0
 10
-3.3221700000000003
 20
-2.6675600000000004
 30
0.0
 10
-3.3501100000000004
 20
-2.7209000000000003
 30
0.0
 10
-3.3958300000000001
 20
-2.8733000000000004
 30
0.0
 10
-3.4796500000000004
 20
-2.7234400000000001
 30
0.0
 10
-3.4796500000000004
 20
-2.7234400000000001
 30
0.0
 10
-3.4948900000000003
 20
-2.0833600000000003
 30
0.0
 10
-3.3882100000000004
 20
-1.3442200000000002
 30
0.0
 10
-3.6447500000000002
 20
-0.7447800000000001
 30
0.0
 10
-3.6447500000000002
 20
-0.7447800000000001
 30
0.0
 10
-3.6447500000000002
 20
-0.7447800000000001
 30
0.0
 10
-3.3882100000000004
 20
-0.6838200000000001
 30
0.0
 10
-3.3882100000000004
 20
-0.6838200000000001
 30
0.0
  0
SPLINE
  5
56
100
AcDbEntity
  8
Ebene 1
 62
     7
100
AcDbSpline
210
0.0
220
0.0
230
1.0
 70
     1
 71
     3
 72
    16
 73
    12
 74
     0
 42
0.0000000001
 43
0.0000000001
 40
0.0
 40
0.0
 40
0.0
 40
0.0
 40
0.3333333333333333
 40
0.3333333333333333
 40
0.3333333333333333
 40
0.3333333333333333
 40
0.6666666666666666
 40
0.6666666666666666
 40
0.6666666666666666
 40
0.6666666666666666
 40
1.0
 40
1.0
 40
1.0
 40
1.0
 10
-0.74407
 20
-0.97084
 30
0.0
 10
-0.54849
 20
-1.16896
 30
0.0
 10
-0.47229
 20
-1.45852
 30
0.0
 10
-0.4265700000000001
 20
-1.7226800000000002
 30
0.0
 10
-0.4265700000000001
 20
-1.7226800000000002
 30
0.0
 10
-0.4265700000000001
 20
-1.7226800000000002
 30
0.0
 10
-0.5789700000000001
 20
-1.8192000000000002
 30
0.0
 10
-0.5789700000000001
 20
-1.8192000000000002
 30
0.0
 10
-0.5789700000000001
 20
-1.8192000000000002
 30
0.0
 10
-0.65263
 20
-1.5550400000000002
 30
0.0
 10
-0.80503
 20
-1.25278
 30
0.0
 10
-0.74407
 20
-0.97084
 30
0.0
  0
SPLINE
  5
57
100
AcDbEntity
  8
Ebene 1
 62
     7
100
AcDbSpline
210
0.0
220
0.0
230
1.0
 70
     1
 71
     3
 72
    20
 73
    16
 74
     0
 42
0.0000000001
 43
0.0000000001
 40
0.0
 40
0.0
 40
0.0
 40
0.0
 40
0.25
 40
0.25
 40
0.25
 40
0.25
 40
0.5
 40
0.5
 40
0.5
 40
0.5
 40
0.75
 40
0.75
 40
0.75
 40
0.75
 40
1.0
 40
1.0
 40
1.0
 40
1.0
 10
-0.21575
 20
-1.0318000000000001
 30
0.0
 10
-0.21575
 20
-1.0318000000000001
 30
0.0
 10
-0.17003
 20
-1.03434
 30
0.0
 10
-0.17003
 20
-1.03434
 30
0.0
 10
-0.17003
 20
-1.03434
 30
0.0
 10
-0.10907
 20
-1.16642
 30
0.0
 10
-0.04811
 20
-1.3086600000000002
 30
0.0
 10
-0.03287
 20
-1.4509000000000001
 30
0.0
 10
-0.03287
 20
-1.4509000000000001
 30
0.0
 10
-0.03287
 20
-1.4509000000000001
 30
0.0
 10
-0.10907
 20
-1.4813800000000001
 30
0.0
 10
-0.10907
 20
-1.4813800000000001
 30
0.0
 10
-0.10907
 20
-1.4813800000000001
 30
0.0
 10
-0.13955
 20
-1.33406
 30
0.0
 10
-0.21575
 20
-1.1918200000000001
 30
0.0
 10
-0.21575
 20
-1.0318000000000001
 30
0.0
  0
SPLINE
  5
58
100
AcDbEntity
  8
Ebene 1
 62
     7
100
AcDbSpline
210
0.0
220
0.0
230
1.0
 70
     1
 71
     3
 72
    16
 73
    12
 74
     0
 42
0.0000000001
 43
0.0000000001
 40
0.0
 40
0.0
 40
0.0
 40
0.0
 40
0.3333333333333333
 40
0.3333333333333333
 40
0.3333333333333333
 40
0.3333333333333333
 40
0.6666666666666666
 40
0.6666666666666666
 40
0.6666666666666666
 40
0.6666666666666666
 40
1.0
 40
1.0
 40
1.0
 40
1.0
 10
-0.47229
 20
-1.07752
 30
0.0
 10
-0.29195
 20
-1.1359400000000002
 30
0.0
 10
-0.26147
 20
-1.4102600000000001
 30
0.0
 10
-0.20051
 20
-1.5702800000000001
 30
0.0
 10
-0.20051
 20
-1.5702800000000001
 30
0.0
 10
-0.20051
 20
-1.5702800000000001
 30
0.0
 10
-0.33513
 20
-1.63124
 30
0.0
 10
-0.33513
 20
-1.63124
 30
0.0
 10
-0.33513
 20
-1.63124
 30
0.0
 10
-0.33513
 20
-1.63124
 30
0.0
 10
-0.47229
 20
-1.07752
 30
0.0
 10
-0.47229
 20
-1.07752
 30
0.0
  0
SPLINE
  5
59
100
AcDbEntity
  8
Ebene 1
 62
     7
100
AcDbSpline
210
0.0
220
0.0
230
1.0
 70
     1
 71
     3
 72
    16
 73
    12
 74
     0
 42
0.0000000001
 43
0.0000000001
 40
0.0
 40
0.0
 40
0.0
 40
0.0
 40
0.3333333333333333
 40
0.3333333333333333
 40
0.3333333333333333
 40
0.3333333333333333
 40
0.6666666666666666
 40
0.6666666666666666
 40
0.6666666666666666
 40
0.6666666666666666
 40
1.0
 40
1.0
 40
1.0
 40
1.0
 10
-0.06335
 20
-1.5321800000000001
 30
0.0
 10
0.023
 20
-1.5321800000000001
 30
0.0
 10
0.05348
 20
-1.6617200000000001
 30
0.0
 10
0.023
 20
-1.7277600000000002
 30
0.0
 10
0.023
 20
-1.7277600000000002
 30
0.0
 10
0.05348
 20
-1.7912600000000001
 30
0.0
 10
0.08396
 20
-1.8852400000000002
 30
0.0
 10
0.05348
 20
-1.9487400000000001
 30
0.0
 10
0.05348
 20
-1.9487400000000001
 30
0.0
 10
-0.09383
 20
-1.9055600000000001
 30
0.0
 10
-0.06335
 20
-1.6566400000000001
 30
0.0
 10
-0.06335
 20
-1.5321800000000001
 30
0.0
  0
SPLINE
  5
5A
100
AcDbEntity
  8
Ebene 1
 62
     7
100
AcDbSpline
210
0.0
220
0.0
230
1.0
 70
     1
 71
     3
 72
    16
 73
    12
 74
     0
 42
0.0000000001
 43
0.0000000001
 40
0.0
 40
0.0
 40
0.0
 40
0.0
 40
0.3333333333333333
 40
0.3333333333333333
 40
0.3333333333333333
 40
0.3333333333333333
 40
0.6666666666666666
 40
0.6666666666666666
 40
0.6666666666666666
 40
0.6666666666666666
 40
1.0
 40
1.0
 40
1.0
 40
1.0
 10
-0.24623
 20
-1.6363200000000002
 30
0.0
 10
-0.07859
 20
-1.7531600000000001
 30
0.0
 10
-0.17003
 20
-2.0706600000000002
 30
0.0
 10
-0.26147
 20
-2.2103600000000001
 30
0.0
 10
-0.26147
 20
-2.2103600000000001
 30
0.0
 10
-0.27671
 20
-2.2078200000000003
 30
0.0
 10
-0.29195
 20
-2.1951200000000002
 30
0.0
 10
-0.29195
 20
-2.1798800000000003
 30
0.0
 10
-0.29195
 20
-2.1798800000000003
 30
0.0
 10
-0.23099
 20
-1.9944600000000001
 30
0.0
 10
-0.4265700000000001
 20
-1.7887200000000001
 30
0.0
 10
-0.24623
 20
-1.6363200000000002
 30
0.0
  0
SPLINE
  5
5B
100
AcDbEntity
  8
Ebene 1
 62
     7
100
AcDbSpline
210
0.0
220
0.0
230
1.0
 70
     1
 71
     3
 72
    16
 73
    12
 74
     0
 42
0.0000000001
 43
0.0000000001
 40
0.0
 40
0.0
 40
0.0
 40
0.0
 40
0.3333333333333333
 40
0.3333333333333333
 40
0.3333333333333333
 40
0.3333333333333333
 40
0.6666666666666666
 40
0.6666666666666666
 40
0.6666666666666666
 40
0.6666666666666666
 40
1.0
 40
1.0
 40
1.0
 40
1.0
 10
-0.48753
 20
-1.8192000000000002
 30
0.0
 10
-0.48753
 20
-1.8192000000000002
 30
0.0
 10
-0.44181
 20
-1.8217400000000001
 30
0.0
 10
-0.44181
 20
-1.8217400000000001
 30
0.0
 10
-0.44181
 20
-1.8217400000000001
 30
0.0
 10
-0.38085
 20
-1.9741400000000002
 30
0.0
 10
-0.29195
 20
-2.1849600000000002
 30
0.0
 10
-0.3960900000000001
 20
-2.31704
 30
0.0
 10
-0.3960900000000001
 20
-2.31704
 30
0.0
 10
-0.5180100000000001
 20
-2.2078200000000003
 30
0.0
 10
-0.65263
 20
-1.9436600000000002
 30
0.0
 10
-0.48753
 20
-1.8192000000000002
 30
0.0
  0
SPLINE
  5
5C
100
AcDbEntity
  8
Ebene 1
 62
     7
100
AcDbSpline
210
0.0
220
0.0
230
1.0
 70
     1
 71
     3
 72
    12
 73
     8
 74
     0
 42
0.0000000001
 43
0.0000000001
 40
0.0
 40
0.0
 40
0.0
 40
0.0
 40
0.5
 40
0.5
 40
0.5
 40
0.5
 40
1.0
 40
1.0
 40
1.0
 40
1.0
 10
-3.0249900000000003
 20
-1.9385800000000002
 30
0.0
 10
-2.9335500000000003
 20
-2.1214600000000003
 30
0.0
 10
-2.90307
 20
-2.4338800000000003
 30
0.0
 10
-3.0808700000000004
 20
-2.5837400000000001
 30
0.0
 10
-3.0808700000000004
 20
-2.5837400000000001
 30
0.0
 10
-3.1037300000000001
 20
-2.3805400000000003
 30
0.0
 10
-3.0529300000000004
 20
-2.1468600000000002
 30
0.0
 10
-3.0249900000000003
 20
-1.9385800000000002
 30
0.0
  0
SPLINE
  5
5D
100
AcDbEntity
  8
Ebene 1
 62
     7
100
AcDbSpline
210
0.0
220
0.0
230
1.0
 70
     1
 71
     3
 72
    12
 73
     8
 74
     0
 42
0.0000000001
 43
0.0000000001
 40
0.0
 40
0.0
 40
0.0
 40
0.0
 40
0.5
 40
0.5
 40
0.5
 40
0.5
 40
1.0
 40
1.0
 40
1.0
 40
1.0
 10
-0.8202700000000001
 20
-1.9995400000000001
 30
0.0
 10
-0.59421
 20
-2.0097
 30
0.0
 10
-0.5637300000000001
 20
-2.3678400000000002
 30
0.0
 10
-0.6678700000000001
 20
-2.5126200000000001
 30
0.0
 10
-0.6678700000000001
 20
-2.5126200000000001
 30
0.0
 10
-0.80503
 20
-2.4110200000000002
 30
0.0
 10
-0.9244100000000001
 20
-2.1570200000000002
 30
0.0
 10
-0.8202700000000001
 20
-1.9995400000000001
 30
0.0
  0
SPLINE
  5
5E
100
AcDbEntity
  8
Ebene 1
 62
     7
100
AcDbSpline
210
0.0
220
0.0
230
1.0
 70
     1
 71
     3
 72
    20
 73
    16
 74
     0
 42
0.0000000001
 43
0.0000000001
 40
0.0
 40
0.0
 40
0.0
 40
0.0
 40
0.25
 40
0.25
 40
0.25
 40
0.25
 40
0.5
 40
0.5
 40
0.5
 40
0.5
 40
0.75
 40
0.75
 40
0.75
 40
0.75
 40
1.0
 40
1.0
 40
1.0
 40
1.0
 10
-1.7118100000000001
 20
-2.0909800000000001
 30
0.0
 10
-1.6051300000000002
 20
-2.1595600000000004
 30
0.0
 10
-1.5594100000000002
 20
-2.3322800000000004
 30
0.0
 10
-1.42225
 20
-2.3957800000000002
 30
0.0
 10
-1.42225
 20
-2.3957800000000002
 30
0.0
 10
-1.3943100000000002
 20
-2.56088
 30
0.0
 10
-1.3943100000000002
 20
-2.7513800000000002
 30
0.0
 10
-1.4527300000000001
 20
-2.90124
 30
0.0
 10
-1.4527300000000001
 20
-2.90124
 30
0.0
 10
-1.7118100000000001
 20
-2.7640800000000003
 30
0.0
 10
-1.7753100000000002
 20
-2.4338800000000003
 30
0.0
 10
-1.7956300000000001
 20
-2.1697200000000003
 30
0.0
 10
-1.7956300000000001
 20
-2.1697200000000003
 30
0.0
 10
-1.7956300000000001
 20
-2.1697200000000003
 30
0.0
 10
-1.7118100000000001
 20
-2.0909800000000001
 30
0.0
 10
-1.7118100000000001
 20
-2.0909800000000001
 30
0.0
  0
SPLINE
  5
5F
100
AcDbEntity
  8
Ebene 1
 62
     7
100
AcDbSpline
210
0.0
220
0.0
230
1.0
 70
     1
 71
     3
 72
    16
 73
    12
 74
     0
 42
0.0000000001
 43
0.0000000001
 40
0.0
 40
0.0
 40
0.0
 40
0.0
 40
0.3333333333333333
 40
0.3333333333333333
 40
0.3333333333333333
 40
0.3333333333333333
 40
0.6666666666666666
 40
0.6666666666666666
 40
0.6666666666666666
 40
0.6666666666666666
 40
1.0
 40
1.0
 40
1.0
 40
1.0
 10
-2.8294100000000002
 20
-2.10622
 30
0.0
 10
-2.8294100000000002
 20
-2.10622
 30
0.0
 10
-2.7557500000000004
 20
-2.1087600000000002
 30
0.0
 10
-2.7557500000000004
 20
-2.1087600000000002
 30
0.0
 10
-2.7557500000000004
 20
-2.1087600000000002
 30
0.0
 10
-2.5804900000000002
 20
-2.3297400000000001
 30
0.0
 10
-2.7430500000000002
 20
-2.5761200000000004
 30
0.0
 10
-2.8700500000000004
 20
-2.7640800000000003
 30
0.0
 10
-2.8700500000000004
 20
-2.7640800000000003
 30
0.0
 10
-2.90307
 20
-2.5583400000000003
 30
0.0
 10
-2.8979900000000001
 20
-2.3018000000000001
 30
0.0
 10
-2.8294100000000002
 20
-2.10622
 30
0.0
  0
SPLINE
  5
60
100
AcDbEntity
  8
Ebene 1
 62
     7
100
AcDbSpline
210
0.0
220
0.0
230
1.0
 70
     1
 71
     3
 72
    20
 73
    16
 74
     0
 42
0.0000000001
 43
0.0000000001
 40
0.0
 40
0.0
 40
0.0
 40
0.0
 40
0.25
 40
0.25
 40
0.25
 40
0.25
 40
0.5
 40
0.5
 40
0.5
 40
0.5
 40
0.75
 40
0.75
 40
0.75
 40
0.75
 40
1.0
 40
1.0
 40
1.0
 40
1.0
 10
-2.3645900000000002
 20
-3.0358600000000004
 30
0.0
 10
-2.3645900000000002
 20
-3.0358600000000004
 30
0.0
 10
-2.5119100000000003
 20
-3.1019000000000001
 30
0.0
 10
-2.5119100000000003
 20
-3.1019000000000001
 30
0.0
 10
-2.5119100000000003
 20
-3.1019000000000001
 30
0.0
 10
-2.6643100000000004
 20
-2.9825200000000001
 30
0.0
 10
-2.6668500000000002
 20
-2.7183600000000001
 30
0.0
 10
-2.5881100000000004
 20
-2.5583400000000003
 30
0.0
 10
-2.5881100000000004
 20
-2.5583400000000003
 30
0.0
 10
-2.5855700000000001
 20
-2.4110200000000002
 30
0.0
 10
-2.5931900000000003
 20
-2.2586200000000001
 30
0.0
 10
-2.5525500000000001
 20
-2.1240000000000001
 30
0.0
 10
-2.5525500000000001
 20
-2.1240000000000001
 30
0.0
 10
-2.4280900000000001
 20
-2.2179800000000003
 30
0.0
 10
-2.4103100000000004
 20
-2.8250400000000004
 30
0.0
 10
-2.3645900000000002
 20
-3.0358600000000004
 30
0.0
  0
SPLINE
  5
61
100
AcDbEntity
  8
Ebene 1
 62
     7
100
AcDbSpline
210
0.0
220
0.0
230
1.0
 70
     1
 71
     3
 72
    20
 73
    16
 74
     0
 42
0.0000000001
 43
0.0000000001
 40
0.0
 40
0.0
 40
0.0
 40
0.0
 40
0.25
 40
0.25
 40
0.25
 40
0.25
 40
0.5
 40
0.5
 40
0.5
 40
0.5
 40
0.75
 40
0.75
 40
0.75
 40
0.75
 40
1.0
 40
1.0
 40
1.0
 40
1.0
 10
-2.1766300000000003
 20
-2.2052800000000001
 30
0.0
 10
-1.9810500000000002
 20
-2.3322800000000004
 30
0.0
 10
-1.7829300000000001
 20
-2.8098000000000001
 30
0.0
 10
-1.8184900000000002
 20
-3.0358600000000004
 30
0.0
 10
-1.8184900000000002
 20
-3.0358600000000004
 30
0.0
 10
-1.9302500000000002
 20
-3.0942800000000004
 30
0.0
 10
-2.0496300000000001
 20
-3.1374600000000004
 30
0.0
 10
-2.1740900000000001
 20
-3.1273000000000004
 30
0.0
 10
-2.1740900000000001
 20
-3.1273000000000004
 30
0.0
 10
-2.2629900000000003
 20
-2.86314
 30
0.0
 10
-2.2147300000000003
 20
-2.5786600000000002
 30
0.0
 10
-2.2553700000000001
 20
-2.3018000000000001
 30
0.0
 10
-2.2553700000000001
 20
-2.3018000000000001
 30
0.0
 10
-2.2553700000000001
 20
-2.3018000000000001
 30
0.0
 10
-2.1766300000000003
 20
-2.2052800000000001
 30
0.0
 10
-2.1766300000000003
 20
-2.2052800000000001
 30
0.0
  0
SPLINE
  5
62
100
AcDbEntity
  8
Ebene 1
 62
     7
100
AcDbSpline
210
0.0
220
0.0
230
1.0
 70
     1
 71
     3
 72
    12
 73
     8
 74
     0
 42
0.0000000001
 43
0.0000000001
 40
0.0
 40
0.0
 40
0.0
 40
0.0
 40
0.5
 40
0.5
 40
0.5
 40
0.5
 40
1.0
 40
1.0
 40
1.0
 40
1.0
 10
-1.16571
 20
-2.1646400000000003
 30
0.0
 10
-0.8939300000000001
 20
-2.2078200000000003
 30
0.0
 10
-0.86599
 20
-2.5888200000000001
 30
0.0
 10
-1.0310900000000001
 20
-2.7539200000000004
 30
0.0
 10
-1.0310900000000001
 20
-2.7539200000000004
 30
0.0
 10
-1.1809500000000002
 20
-2.6116800000000002
 30
0.0
 10
-1.4095500000000001
 20
-2.3246600000000002
 30
0.0
 10
-1.16571
 20
-2.1646400000000003
 30
0.0
  0
SPLINE
  5
63
100
AcDbEntity
  8
Ebene 1
 62
     7
100
AcDbSpline
210
0.0
220
0.0
230
1.0
 70
     1
 71
     3
 72
   152
 73
   148
 74
     0
 42
0.0000000001
 43
0.0000000001
 40
0.0
 40
0.0
 40
0.0
 40
0.0
 40
0.027027027027027
 40
0.027027027027027
 40
0.027027027027027
 40
0.027027027027027
 40
0.0540540540540541
 40
0.0540540540540541
 40
0.0540540540540541
 40
0.0540540540540541
 40
0.0810810810810811
 40
0.0810810810810811
 40
0.0810810810810811
 40
0.0810810810810811
 40
0.1081081081081081
 40
0.1081081081081081
 40
0.1081081081081081
 40
0.1081081081081081
 40
0.1351351351351351
 40
0.1351351351351351
 40
0.1351351351351351
 40
0.1351351351351351
 40
0.1621621621621622
 40
0.1621621621621622
 40
0.1621621621621622
 40
0.1621621621621622
 40
0.1891891891891892
 40
0.1891891891891892
 40
0.1891891891891892
 40
0.1891891891891892
 40
0.2162162162162162
 40
0.2162162162162162
 40
0.2162162162162162
 40
0.2162162162162162
 40
0.2432432432432433
 40
0.2432432432432433
 40
0.2432432432432433
 40
0.2432432432432433
 40
0.2702702702702703
 40
0.2702702702702703
 40
0.2702702702702703
 40
0.2702702702702703
 40
0.2972972972972973
 40
0.2972972972972973
 40
0.2972972972972973
 40
0.2972972972972973
 40
0.3243243243243243
 40
0.3243243243243243
 40
0.3243243243243243
 40
0.3243243243243243
 40
0.3513513513513514
 40
0.3513513513513514
 40
0.3513513513513514
 40
0.3513513513513514
 40
0.3783783783783784
 40
0.3783783783783784
 40
0.3783783783783784
 40
0.3783783783783784
 40
0.4054054054054054
 40
0.4054054054054054
 40
0.4054054054054054
 40
0.4054054054054054
 40
0.4324324324324325
 40
0.4324324324324325
 40
0.4324324324324325
 40
0.4324324324324325
 40
0.4594594594594595
 40
0.4594594594594595
 40
0.4594594594594595
 40
0.4594594594594595
 40
0.4864864864864865
 40
0.4864864864864865
 40
0.4864864864864865
 40
0.4864864864864865
 40
0.5135135135135136
 40
0.5135135135135136
 40
0.5135135135135136
 40
0.5135135135135136
 40
0.5405405405405406
 40
0.5405405405405406
 40
0.5405405405405406
 40
0.5405405405405406
 40
0.5675675675675675
 40
0.5675675675675675
 40
0.5675675675675675
 40
0.5675675675675675
 40
0.5945945945945945
 40
0.5945945945945945
 40
0.5945945945945945
 40
0.5945945945945945
 40
0.6216216216216215
 40
0.6216216216216215
 40
0.6216216216216215
 40
0.6216216216216215
 40
0.6486486486486485
 40
0.6486486486486485
 40
0.6486486486486485
 40
0.6486486486486485
 40
0.6756756756756754
 40
0.6756756756756754
 40
0.6756756756756754
 40
0.6756756756756754
 40
0.7027027027027024
 40
0.7027027027027024
 40
0.7027027027027024
 40
0.7027027027027024
 40
0.7297297297297294
 40
0.7297297297297294
 40
0.7297297297297294
 40
0.7297297297297294
 40
0.7567567567567564
 40
0.7567567567567564
 40
0.7567567567567564
 40
0.7567567567567564
 40
0.7837837837837833
 40
0.7837837837837833
 40
0.7837837837837833
 40
0.7837837837837833
 40
0.8108108108108103
 40
0.8108108108108103
 40
0.8108108108108103
 40
0.8108108108108103
 40
0.8378378378378373
 40
0.8378378378378373
 40
0.8378378378378373
 40
0.8378378378378373
 40
0.8648648648648643
 40
0.8648648648648643
 40
0.8648648648648643
 40
0.8648648648648643
 40
0.8918918918918912
 40
0.8918918918918912
 40
0.8918918918918912
 40
0.8918918918918912
 40
0.9189189189189182
 40
0.9189189189189182
 40
0.9189189189189182
 40
0.9189189189189182
 40
0.9459459459459452
 40
0.9459459459459452
 40
0.9459459459459452
 40
0.9459459459459452
 40
0.9729729729729721
 40
0.9729729729729721
 40
0.9729729729729721
 40
0.9729729729729721
 40
1.0
 40
1.0
 40
1.0
 40
1.0
 10
-2.05471
 20
-4.4760400000000002
 30
0.0
 10
-1.9988300000000001
 20
-4.7529000000000003
 30
0.0
 10
-1.9302500000000002
 20
-4.5700200000000004
 30
0.0
 10
-1.9505700000000001
 20
-4.4760400000000002
 30
0.0
 10
-1.9505700000000001
 20
-4.4760400000000002
 30
0.0
 10
-1.9226300000000001
 20
-4.3287200000000006
 30
0.0
 10
-2.0750300000000004
 20
-4.0620200000000004
 30
0.0
 10
-1.8184900000000002
 20
-4.1306000000000003
 30
0.0
 10
-1.8184900000000002
 20
-4.1306000000000003
 30
0.0
 10
-1.7422900000000001
 20
-3.8613600000000003
 30
0.0
 10
-1.7270500000000002
 20
-4.2855400000000001
 30
0.0
 10
-1.7118100000000001
 20
-4.3896800000000002
 30
0.0
 10
-1.7118100000000001
 20
-4.3896800000000002
 30
0.0
 10
-1.7118100000000001
 20
-4.3896800000000002
 30
0.0
 10
-1.6813300000000002
 20
-4.4735000000000005
 30
0.0
 10
-1.6813300000000002
 20
-4.4735000000000005
 30
0.0
 10
-1.6813300000000002
 20
-4.4735000000000005
 30
0.0
 10
-1.6051300000000002
 20
-4.2906200000000005
 30
0.0
 10
-1.7651500000000002
 20
-4.0391600000000007
 30
0.0
 10
-1.6762500000000002
 20
-3.8816800000000002
 30
0.0
 10
-1.6762500000000002
 20
-3.8816800000000002
 30
0.0
 10
-1.7346700000000002
 20
-3.6454600000000004
 30
0.0
 10
-1.7270500000000002
 20
-3.3076400000000001
 30
0.0
 10
-1.6203700000000001
 20
-3.0866600000000002
 30
0.0
 10
-1.6203700000000001
 20
-3.0866600000000002
 30
0.0
 10
-1.4984500000000001
 20
-3.1704800000000004
 30
0.0
 10
-1.4527300000000001
 20
-3.3330400000000004
 30
0.0
 10
-1.3943100000000002
 20
-3.4651200000000002
 30
0.0
 10
-1.3943100000000002
 20
-3.4651200000000002
 30
0.0
 10
-1.3181100000000001
 20
-3.5743400000000003
 30
0.0
 10
-1.3638300000000001
 20
-3.7369000000000003
 30
0.0
 10
-1.4984500000000001
 20
-3.7369000000000003
 30
0.0
 10
-1.4984500000000001
 20
-3.7369000000000003
 30
0.0
 10
-1.6356100000000002
 20
-3.7191200000000002
 30
0.0
 10
-1.7118100000000001
 20
-3.8537400000000002
 30
0.0
 10
-1.5289300000000001
 20
-3.8283400000000003
 30
0.0
 10
-1.5289300000000001
 20
-3.8283400000000003
 30
0.0
 10
-1.3638300000000001
 20
-3.7851600000000003
 30
0.0
 10
-1.2723900000000001
 20
-3.7750000000000004
 30
0.0
 10
-1.3181100000000001
 20
-3.9782000000000002
 30
0.0
 10
-1.3181100000000001
 20
-3.9782000000000002
 30
0.0
 10
-1.3181100000000001
 20
-3.9782000000000002
 30
0.0
 10
-1.33335
 20
-4.1636200000000008
 30
0.0
 10
-1.33335
 20
-4.1636200000000008
 30
0.0
 10
-1.33335
 20
-4.1636200000000008
 30
0.0
 10
-1.21143
 20
-4.3896800000000002
 30
0.0
 10
-1.2419100000000001
 20
-3.2390600000000003
 30
0.0
 10
-1.07681
 20
-3.7826200000000001
 30
0.0
 10
-1.07681
 20
-3.7826200000000001
 30
0.0
 10
-1.07681
 20
-3.7826200000000001
 30
0.0
 10
-1.0920500000000002
 20
-3.9782000000000002
 30
0.0
 10
-1.0920500000000002
 20
-3.9782000000000002
 30
0.0
 10
-1.0920500000000002
 20
-3.9782000000000002
 30
0.0
 10
-1.0920500000000002
 20
-3.9782000000000002
 30
0.0
 10
-1.0920500000000002
 20
-4.2906200000000005
 30
0.0
 10
-1.0920500000000002
 20
-4.2906200000000005
 30
0.0
 10
-1.0920500000000002
 20
-4.2906200000000005
 30
0.0
 10
-1.04633
 20
-4.2880800000000008
 30
0.0
 10
-1.0615700000000001
 20
-4.1941000000000006
 30
0.0
 10
-1.04633
 20
-4.1483800000000004
 30
0.0
 10
-1.04633
 20
-4.1483800000000004
 30
0.0
 10
-1.04633
 20
-4.1483800000000004
 30
0.0
 10
-1.0158500000000001
 20
-3.9629600000000003
 30
0.0
 10
-1.0158500000000001
 20
-3.9629600000000003
 30
0.0
 10
-1.0158500000000001
 20
-3.9629600000000003
 30
0.0
 10
-0.9548900000000001
 20
-3.7038800000000003
 30
0.0
 10
-1.1072900000000001
 20
-3.3508200000000001
 30
0.0
 10
-0.74407
 20
-3.3609800000000001
 30
0.0
 10
-0.74407
 20
-3.3609800000000001
 30
0.0
 10
-0.6678700000000001
 20
-3.5718000000000001
 30
0.0
 10
-0.6831100000000001
 20
-3.8080200000000004
 30
0.0
 10
-0.6678700000000001
 20
-4.0340800000000003
 30
0.0
 10
-0.6678700000000001
 20
-4.0340800000000003
 30
0.0
 10
-0.5027700000000001
 20
-3.7699200000000004
 30
0.0
 10
-0.8202700000000001
 20
-3.2314400000000001
 30
0.0
 10
-0.48753
 20
-3.1019000000000001
 30
0.0
 10
-0.48753
 20
-3.1019000000000001
 30
0.0
 10
-0.3656100000000001
 20
-3.2136600000000004
 30
0.0
 10
-0.53325
 20
-3.6759400000000002
 30
0.0
 10
-0.3656100000000001
 20
-3.6149800000000001
 30
0.0
 10
-0.3656100000000001
 20
-3.6149800000000001
 30
0.0
 10
-0.38085
 20
-3.3178000000000001
 30
0.0
 10
-0.30719
 20
-2.6777200000000003
 30
0.0
 10
-0.20051
 20
-3.2797000000000001
 30
0.0
 10
-0.20051
 20
-3.2797000000000001
 30
0.0
 10
-0.18527
 20
-3.2543000000000002
 30
0.0
 10
-0.17003
 20
-3.2060400000000002
 30
0.0
 10
-0.12431
 20
-3.1933400000000001
 30
0.0
 10
-0.12431
 20
-3.1933400000000001
 30
0.0
 10
-0.12431
 20
-3.1933400000000001
 30
0.0
 10
-0.07859
 20
-3.3305000000000002
 30
0.0
 10
-0.07859
 20
-3.3305000000000002
 30
0.0
 10
-0.07859
 20
-3.3305000000000002
 30
0.0
 10
-0.04811
 20
-3.1196800000000002
 30
0.0
 10
-0.03287
 20
-2.9190200000000002
 30
0.0
 10
-0.01763
 20
-2.7132800000000001
 30
0.0
 10
-0.01763
 20
-2.7132800000000001
 30
0.0
 10
0.023
 20
-2.8301200000000004
 30
0.0
 10
0.12968
 20
-2.9622000000000002
 30
0.0
 10
0.26684
 20
-2.9622000000000002
 30
0.0
 10
0.26684
 20
-2.9622000000000002
 30
0.0
 10
0.23636
 20
-2.8098000000000001
 30
0.0
 10
0.37098
 20
-2.6828000000000003
 30
0.0
 10
0.4167
 20
-2.5380200000000004
 30
0.0
 10
0.4167
 20
-2.5380200000000004
 30
0.0
 10
0.4167
 20
-2.5380200000000004
 30
0.0
 10
0.5843400000000001
 20
-2.1849600000000002
 30
0.0
 10
0.5843400000000001
 20
-2.1849600000000002
 30
0.0
 10
0.5843400000000001
 20
-2.1849600000000002
 30
0.0
 10
0.87136
 20
-2.81488
 30
0.0
 10
0.38622
 20
-3.6581600000000001
 30
0.0
 10
-0.33513
 20
-3.6657800000000003
 30
0.0
 10
-0.33513
 20
-3.6657800000000003
 30
0.0
 10
-0.10907
 20
-4.4811200000000007
 30
0.0
 10
-1.0310900000000001
 20
-5.2659800000000008
 30
0.0
 10
-1.7880100000000001
 20
-4.9154600000000004
 30
0.0
 10
-1.7880100000000001
 20
-4.9154600000000004
 30
0.0
 10
-1.8692900000000001
 20
-4.9180000000000001
 30
0.0
 10
-1.9556500000000001
 20
-4.9205400000000008
 30
0.0
 10
-2.0293100000000002
 20
-4.8849800000000005
 30
0.0
 10
-2.0293100000000002
 20
-4.8849800000000005
 30
0.0
 10
-2.0293100000000002
 20
-4.8849800000000005
 30
0.0
 10
-2.09789
 20
-4.8875200000000003
 30
0.0
 10
-2.09789
 20
-4.8875200000000003
 30
0.0
 10
-2.09789
 20
-4.8875200000000003
 30
0.0
 10
-2.1334500000000003
 20
-4.9510200000000006
 30
0.0
 10
-2.01661
 20
-4.9180000000000001
 30
0.0
 10
-2.0318500000000004
 20
-4.9713400000000005
 30
0.0
 10
-2.0318500000000004
 20
-4.9713400000000005
 30
0.0
 10
-2.36205
 20
-4.9180000000000001
 30
0.0
 10
-2.4204700000000003
 20
-4.4938200000000004
 30
0.0
 10
-2.5449300000000004
 20
-4.2398199999999999
 30
0.0
 10
-2.5449300000000004
 20
-4.2398199999999999
 30
0.0
 10
-2.6770100000000001
 20
-4.0010600000000007
 30
0.0
 10
-2.7938500000000004
 20
-3.7115000000000005
 30
0.0
 10
-2.6897100000000003
 20
-3.4371800000000001
 30
0.0
 10
-2.6897100000000003
 20
-3.4371800000000001
 30
0.0
 10
-2.6338300000000001
 20
-3.5057600000000004
 30
0.0
 10
-2.6795500000000003
 20
-3.6353000000000004
 30
0.0
 10
-2.6211300000000004
 20
-3.7115000000000005
 30
0.0
 10
-2.6211300000000004
 20
-3.7115000000000005
 30
0.0
 10
-2.57287
 20
-3.8105600000000002
 30
0.0
 10
-2.4458700000000002
 20
-3.8283400000000003
 30
0.0
 10
-2.3493500000000003
 20
-3.8461200000000004
 30
0.0
 10
-2.3493500000000003
 20
-3.8461200000000004
 30
0.0
 10
-2.3823700000000003
 20
-4.2195
 30
0.0
 10
-2.1486900000000002
 20
-4.0925000000000002
 30
0.0
 10
-2.05471
 20
-4.4760400000000002
 30
0.0
  0
SPLINE
  5
64
100
AcDbEntity
  8
Ebene 1
 62
     7
100
AcDbSpline
210
0.0
220
0.0
230
1.0
 70
     1
 71
     3
 72
    12
 73
     8
 74
     0
 42
0.0000000001
 43
0.0000000001
 40
0.0
 40
0.0
 40
0.0
 40
0.0
 40
0.5
 40
0.5
 40
0.5
 40
0.5
 40
1.0
 40
1.0
 40
1.0
 40
1.0
 10
-0.10907
 20
-2.2713200000000002
 30
0.0
 10
-0.00239
 20
-2.2967200000000001
 30
0.0
 10
-0.07859
 20
-2.4567400000000004
 30
0.0
 10
-0.13955
 20
-2.4821400000000002
 30
0.0
 10
-0.13955
 20
-2.4821400000000002
 30
0.0
 10
-0.21575
 20
-2.4288000000000003
 30
0.0
 10
-0.13955
 20
-2.3297400000000001
 30
0.0
 10
-0.10907
 20
-2.2713200000000002
 30
0.0
  0
SPLINE
  5
65
100
AcDbEntity
  8
Ebene 1
 62
     7
100
AcDbSpline
210
0.0
220
0.0
230
1.0
 70
     1
 71
     3
 72
    24
 73
    20
 74
     0
 42
0.0000000001
 43
0.0000000001
 40
0.0
 40
0.0
 40
0.0
 40
0.0
 40
0.2
 40
0.2
 40
0.2
 40
0.2
 40
0.4
 40
0.4
 40
0.4
 40
0.4
 40
0.6000000000000001
 40
0.6000000000000001
 40
0.6000000000000001
 40
0.6000000000000001
 40
0.8
 40
0.8
 40
0.8
 40
0.8
 40
1.0
 40
1.0
 40
1.0
 40
1.0
 10
-0.3224300000000001
 20
-2.4211800000000001
 30
0.0
 10
-0.3224300000000001
 20
-2.4211800000000001
 30
0.0
 10
-0.27671
 20
-2.4262600000000001
 30
0.0
 10
-0.27671
 20
-2.4262600000000001
 30
0.0
 10
-0.27671
 20
-2.4262600000000001
 30
0.0
 10
-0.27671
 20
-2.5685000000000002
 30
0.0
 10
-0.20051
 20
-2.7513800000000002
 30
0.0
 10
-0.29195
 20
-2.8707600000000002
 30
0.0
 10
-0.29195
 20
-2.8707600000000002
 30
0.0
 10
-0.29195
 20
-2.8707600000000002
 30
0.0
 10
-0.3224300000000001
 20
-2.8326600000000002
 30
0.0
 10
-0.3224300000000001
 20
-2.8326600000000002
 30
0.0
 10
-0.3224300000000001
 20
-2.8326600000000002
 30
0.0
 10
-0.3224300000000001
 20
-2.8326600000000002
 30
0.0
 10
-0.3656100000000001
 20
-2.8402800000000004
 30
0.0
 10
-0.3656100000000001
 20
-2.8402800000000004
 30
0.0
 10
-0.3656100000000001
 20
-2.8402800000000004
 30
0.0
 10
-0.3960900000000001
 20
-2.7107400000000004
 30
0.0
 10
-0.38085
 20
-2.5431000000000004
 30
0.0
 10
-0.3224300000000001
 20
-2.4211800000000001
 30
0.0
  0
SPLINE
  5
66
100
AcDbEntity
  8
Ebene 1
 62
     7
100
AcDbSpline
210
0.0
220
0.0
230
1.0
 70
     1
 71
     3
 72
    20
 73
    16
 74
     0
 42
0.0000000001
 43
0.0000000001
 40
0.0
 40
0.0
 40
0.0
 40
0.0
 40
0.25
 40
0.25
 40
0.25
 40
0.25
 40
0.5
 40
0.5
 40
0.5
 40
0.5
 40
0.75
 40
0.75
 40
0.75
 40
0.75
 40
1.0
 40
1.0
 40
1.0
 40
1.0
 10
-0.63739
 20
-2.6345400000000003
 30
0.0
 10
-0.63739
 20
-2.6345400000000003
 30
0.0
 10
-0.5789700000000001
 20
-2.6370800000000001
 30
0.0
 10
-0.5789700000000001
 20
-2.6370800000000001
 30
0.0
 10
-0.5789700000000001
 20
-2.6370800000000001
 30
0.0
 10
-0.5027700000000001
 20
-2.7463000000000002
 30
0.0
 10
-0.5027700000000001
 20
-2.8961600000000001
 30
0.0
 10
-0.47229
 20
-3.0231600000000003
 30
0.0
 10
-0.47229
 20
-3.0231600000000003
 30
0.0
 10
-0.47229
 20
-3.0231600000000003
 30
0.0
 10
-0.6221500000000001
 20
-3.0866600000000002
 30
0.0
 10
-0.6221500000000001
 20
-3.0866600000000002
 30
0.0
 10
-0.6221500000000001
 20
-3.0866600000000002
 30
0.0
 10
-0.6831100000000001
 20
-2.9622000000000002
 30
0.0
 10
-0.6831100000000001
 20
-2.7717000000000001
 30
0.0
 10
-0.63739
 20
-2.6345400000000003
 30
0.0
  0
SPLINE
  5
67
100
AcDbEntity
  8
Ebene 1
 62
     7
100
AcDbSpline
210
0.0
220
0.0
230
1.0
 70
     1
 71
     3
 72
    12
 73
     8
 74
     0
 42
0.0000000001
 43
0.0000000001
 40
0.0
 40
0.0
 40
0.0
 40
0.0
 40
0.5
 40
0.5
 40
0.5
 40
0.5
 40
1.0
 40
1.0
 40
1.0
 40
1.0
 10
-0.13955
 20
-2.6497800000000002
 30
0.0
 10
-0.07859
 20
-2.6878800000000003
 30
0.0
 10
-0.07859
 20
-2.8021800000000003
 30
0.0
 10
-0.13955
 20
-2.8402800000000004
 30
0.0
 10
-0.13955
 20
-2.8402800000000004
 30
0.0
 10
-0.17003
 20
-2.7844000000000002
 30
0.0
 10
-0.17003
 20
-2.7056600000000004
 30
0.0
 10
-0.13955
 20
-2.6497800000000002
 30
0.0
  0
SPLINE
  5
68
100
AcDbEntity
  8
Ebene 1
 62
     7
100
AcDbSpline
210
0.0
220
0.0
230
1.0
 70
     1
 71
     3
 72
    20
 73
    16
 74
     0
 42
0.0000000001
 43
0.0000000001
 40
0.0
 40
0.0
 40
0.0
 40
0.0
 40
0.25
 40
0.25
 40
0.25
 40
0.25
 40
0.5
 40
0.5
 40
0.5
 40
0.5
 40
0.75
 40
0.75
 40
0.75
 40
0.75
 40
1.0
 40
1.0
 40
1.0
 40
1.0
 10
-0.9396500000000001
 20
-2.73868
 30
0.0
 10
-0.9396500000000001
 20
-2.73868
 30
0.0
 10
-0.8939300000000001
 20
-2.7437600000000004
 30
0.0
 10
-0.8939300000000001
 20
-2.7437600000000004
 30
0.0
 10
-0.8939300000000001
 20
-2.7437600000000004
 30
0.0
 10
-0.8507500000000001
 20
-2.8555200000000003
 30
0.0
 10
-0.8355100000000001
 20
-2.9698200000000003
 30
0.0
 10
-0.75931
 20
-3.0714200000000003
 30
0.0
 10
-0.75931
 20
-3.0714200000000003
 30
0.0
 10
-0.74407
 20
-3.19842
 30
0.0
 10
-0.8202700000000001
 20
-3.3762200000000004
 30
0.0
 10
-0.9548900000000001
 20
-3.3736800000000002
 30
0.0
 10
-0.9548900000000001
 20
-3.3736800000000002
 30
0.0
 10
-1.07681
 20
-3.1958800000000003
 30
0.0
 10
-1.00061
 20
-2.9342600000000001
 30
0.0
 10
-0.9396500000000001
 20
-2.73868
 30
0.0
  0
SPLINE
  5
69
100
AcDbEntity
  8
Ebene 1
 62
     7
100
AcDbSpline
210
0.0
220
0.0
230
1.0
 70
     1
 71
     3
 72
    16
 73
    12
 74
     0
 42
0.0000000001
 43
0.0000000001
 40
0.0
 40
0.0
 40
0.0
 40
0.0
 40
0.3333333333333333
 40
0.3333333333333333
 40
0.3333333333333333
 40
0.3333333333333333
 40
0.6666666666666666
 40
0.6666666666666666
 40
0.6666666666666666
 40
0.6666666666666666
 40
1.0
 40
1.0
 40
1.0
 40
1.0
 10
-1.2571500000000002
 20
-2.8301200000000004
 30
0.0
 10
-1.2419100000000001
 20
-2.8301200000000004
 30
0.0
 10
-1.2266700000000001
 20
-2.8275800000000002
 30
0.0
 10
-1.2266700000000001
 20
-2.8453600000000003
 30
0.0
 10
-1.2266700000000001
 20
-2.8453600000000003
 30
0.0
 10
-1.21143
 20
-3.0841200000000004
 30
0.0
 10
-0.9396500000000001
 20
-3.4219400000000002
 30
0.0
 10
-1.21143
 20
-3.6022800000000004
 30
0.0
 10
-1.21143
 20
-3.6022800000000004
 30
0.0
 10
-1.3943100000000002
 20
-3.3940000000000001
 30
0.0
 10
-1.33335
 20
-3.0714200000000003
 30
0.0
 10
-1.2571500000000002
 20
-2.8301200000000004
 30
0.0
  0
SPLINE
  5
6A
100
AcDbEntity
  8
Ebene 1
 62
     7
100
AcDbSpline
210
0.0
220
0.0
230
1.0
 70
     1
 71
     3
 72
    12
 73
     8
 74
     0
 42
0.0000000001
 43
0.0000000001
 40
0.0
 40
0.0
 40
0.0
 40
0.0
 40
0.5
 40
0.5
 40
0.5
 40
0.5
 40
1.0
 40
1.0
 40
1.0
 40
1.0
 10
-2.85989
 20
-3.0866600000000002
 30
0.0
 10
-2.8116300000000001
 20
-3.1273000000000004
 30
0.0
 10
-2.7887700000000004
 20
-3.2263600000000001
 30
0.0
 10
-2.81671
 20
-3.2797000000000001
 30
0.0
 10
-2.81671
 20
-3.2797000000000001
 30
0.0
 10
-2.8776700000000002
 20
-3.2466800000000005
 30
0.0
 10
-2.8725900000000002
 20
-3.1425400000000003
 30
0.0
 10
-2.85989
 20
-3.0866600000000002
 30
0.0
  0
SPLINE
  5
6B
100
AcDbEntity
  8
Ebene 1
 62
     7
100
AcDbSpline
210
0.0
220
0.0
230
1.0
 70
     1
 71
     3
 72
    16
 73
    12
 74
     0
 42
0.0000000001
 43
0.0000000001
 40
0.0
 40
0.0
 40
0.0
 40
0.0
 40
0.3333333333333333
 40
0.3333333333333333
 40
0.3333333333333333
 40
0.3333333333333333
 40
0.6666666666666666
 40
0.6666666666666666
 40
0.6666666666666666
 40
0.6666666666666666
 40
1.0
 40
1.0
 40
1.0
 40
1.0
 10
-2.6338300000000001
 20
-3.1323800000000004
 30
0.0
 10
-2.61097
 20
-3.1323800000000004
 30
0.0
 10
-2.5881100000000004
 20
-3.1323800000000004
 30
0.0
 10
-2.5754100000000002
 20
-3.1501600000000001
 30
0.0
 10
-2.5754100000000002
 20
-3.1501600000000001
 30
0.0
 10
-2.5398500000000004
 20
-3.3584400000000003
 30
0.0
 10
-2.3722100000000004
 20
-3.5540200000000004
 30
0.0
 10
-2.4103100000000004
 20
-3.7623000000000002
 30
0.0
 10
-2.4103100000000004
 20
-3.7623000000000002
 30
0.0
 10
-2.69733
 20
-3.7470600000000003
 30
0.0
 10
-2.6160500000000004
 20
-3.3457400000000002
 30
0.0
 10
-2.6338300000000001
 20
-3.1323800000000004
 30
0.0
  0
SPLINE
  5
6C
100
AcDbEntity
  8
Ebene 1
 62
     7
100
AcDbSpline
210
0.0
220
0.0
230
1.0
 70
     1
 71
     3
 72
    20
 73
    16
 74
     0
 42
0.0000000001
 43
0.0000000001
 40
0.0
 40
0.0
 40
0.0
 40
0.0
 40
0.25
 40
0.25
 40
0.25
 40
0.25
 40
0.5
 40
0.5
 40
0.5
 40
0.5
 40
0.75
 40
0.75
 40
0.75
 40
0.75
 40
1.0
 40
1.0
 40
1.0
 40
1.0
 10
-1.8464300000000002
 20
-3.1781000000000001
 30
0.0
 10
-1.8261100000000001
 20
-3.1730200000000002
 30
0.0
 10
-1.8057900000000002
 20
-3.1882600000000001
 30
0.0
 10
-1.8032500000000002
 20
-3.2085800000000004
 30
0.0
 10
-1.8032500000000002
 20
-3.2085800000000004
 30
0.0
 10
-1.8464300000000002
 20
-3.4829000000000003
 30
0.0
 10
-1.7499100000000001
 20
-3.8410400000000005
 30
0.0
 10
-1.9226300000000001
 20
-4.0544000000000002
 30
0.0
 10
-1.9226300000000001
 20
-4.0544000000000002
 30
0.0
 10
-2.05979
 20
-3.8385000000000002
 30
0.0
 10
-2.0318500000000004
 20
-3.5413200000000002
 30
0.0
 10
-2.11313
 20
-3.3025600000000002
 30
0.0
 10
-2.11313
 20
-3.3025600000000002
 30
0.0
 10
-2.11313
 20
-3.3025600000000002
 30
0.0
 10
-1.8464300000000002
 20
-3.1781000000000001
 30
0.0
 10
-1.8464300000000002
 20
-3.1781000000000001
 30
0.0
  0
SPLINE
  5
6D
100
AcDbEntity
  8
Ebene 1
 62
     7
100
AcDbSpline
210
0.0
220
0.0
230
1.0
 70
     1
 71
     3
 72
    12
 73
     8
 74
     0
 42
0.0000000001
 43
0.0000000001
 40
0.0
 40
0.0
 40
0.0
 40
0.0
 40
0.5
 40
0.5
 40
0.5
 40
0.5
 40
1.0
 40
1.0
 40
1.0
 40
1.0
 10
-2.3747500000000001
 20
-3.2695400000000001
 30
0.0
 10
-2.1182100000000004
 20
-3.3432000000000004
 30
0.0
 10
-2.1918700000000002
 20
-3.7369000000000003
 30
0.0
 10
-2.1817100000000003
 20
-3.9451800000000001
 30
0.0
 10
-2.1817100000000003
 20
-3.9451800000000001
 30
0.0
 10
-2.2629900000000003
 20
-3.7369000000000003
 30
0.0
 10
-2.3645900000000002
 20
-3.4905200000000001
 30
0.0
 10
-2.3747500000000001
 20
-3.2695400000000001
 30
0.0
  0
ENDSEC
  0
SECTION
  2
OBJECTS
  0
DICTIONARY
  5
19
100
AcDbDictionary
280
     0
281
     1
  3
ACAD_GROUP
350
1A
  3
ACAD_MLINESTYLE
350
1B
  3
ACAD_LAYOUT
350
1E
  3
ACAD_PLOTSETTINGS
350
22
  3
ACAD_PLOTSTYLENAME
350
1F
  3
ACAD_WIPEOUT_VARS
350
23
  0
DICTIONARY
  5
1A
102
{ACAD_REACTORS
330
19
102
}
100
AcDbDictionary
280
     0
281
     1
  0
DICTIONARY
  5
1B
102
{ACAD_REACTORS
330
19
102
}
100
AcDbDictionary
280
     0
281
     1
  3
Standard
350
1C
  0
MLINESTYLE
  5
1C
102
{ACAD_REACTORS
330
1B
102
}
100
AcDbMlineStyle
  2
Standard
 70
     0
  3

 62
     0
 51
90.0
 52
90.0
 71
     2
 49
0.5
 62
   256
  6
BYLAYER
 49
-0.5
 62
   256
  6
BYLAYER
  0
ACDBDICTIONARYWDFLT
  5
1F
102
{ACAD_REACTORS
330
19
102
}
100
AcDbDictionary
281
     1
  3
Normal
350
1D
100
AcDbDictionaryWithDefault
340
1D
  0
ACDBPLACEHOLDER
  5
1D
102
{ACAD_REACTORS
330
1F
102
}
  0
LAYOUT
  5
20
102
{ACAD_REACTORS
330
1E
102
}
100
AcDbPlotSettings
  1

  2

  4

  6

 40
0.0
 41
0.0
 42
0.0
 43
0.0
 44
0.0
 45
0.0
 46
0.0
 47
0.0
 48
0.0
 49
0.0
140
0.0
141
0.0
142
1.0
143
1.0
 70
  1024
 72
     0
 73
     0
 74
     0
  7

 75
     0
147
1.0
148
0.0
149
0.0
100
AcDbLayout
  1
Model
 70
     0
 71
     0
 10
0.0
 20
0.0
 11
0.0
 21
0.0
 12
0.0
 22
0.0
 32
0.0
 14
0.0
 24
0.0
 34
0.0
 15
0.0
 25
0.0
 35
0.0
146
0.0
 13
0.0
 23
0.0
 33
0.0
 16
0.0
 26
0.0
 36
0.0
 17
0.0
 27
0.0
 37
0.0
 76
     0
330
A
331
0
345
0
346
0
  0
LAYOUT
  5
21
102
{ACAD_REACTORS
330
1E
102
}
100
AcDbPlotSettings
  1

  2

  4

  6

 40
0.0
 41
0.0
 42
0.0
 43
0.0
 44
0.0
 45
0.0
 46
0.0
 47
0.0
 48
0.0
 49
0.0
140
0.0
141
0.0
142
1.0
143
1.0
 70
     0
 72
     0
 73
     0
 74
     0
  7

 75
     0
147
1.0
148
0.0
149
0.0
100
AcDbLayout
  1
Layout1
 70
     0
 71
     0
 10
0.0
 20
0.0
 11
0.0
 21
0.0
 12
0.0
 22
0.0
 32
0.0
 14
0.0
 24
0.0
 34
0.0
 15
0.0
 25
0.0
 35
0.0
146
0.0
 13
0.0
 23
0.0
 33
0.0
 16
0.0
 26
0.0
 36
0.0
 17
0.0
 27
0.0
 37
0.0
 76
     0
330
B
331
0
345
0
346
0
  0
DICTIONARY
  5
1E
102
{ACAD_REACTORS
330
19
102
}
100
AcDbDictionary
280
     0
281
     1
  3
Layout1
350
21
  3
Model
350
20
  0
DICTIONARY
  5
22
102
{ACAD_REACTORS
330
19
102
}
100
AcDbDictionary
280
     0
281
     1
  0
WIPEOUTVARIABLES
  5
23
100
AcDbWipeoutVariables
 70
     1
  0
ENDSEC
  0
EOF
