  0
SECTION
  2
HEADER
  9
$ACADVER
  1
AC1015
  9
$ACADMAINTVER
 70
     6
  9
$DWGCODEPAGE
  3
DOS850
  9
$INSBASE
 10
0.0
 20
0.0
 30
0.0
  9
$EXTMIN
 10
-4.44739
 20
-6.57662
 30
1.000000E+20
  9
$EXTMAX
 10
4.45418
 20
6.56877
 30
-1.000000E+20
  9
$LIMMIN
 10
0.0
 20
0.0
  9
$LIMMAX
 10
0.0
 20
0.0
  9
$ORTHOMODE
 70
     0
  9
$REGENMODE
 70
     1
  9
$FILLMODE
 70
     1
  9
$QTEXTMODE
 70
     0
  9
$MIRRTEXT
 70
     1
  9
$LTSCALE
 40
1.0
  9
$ATTMODE
 70
     1
  9
$TEXTSIZE
 40
0.2
  9
$TRACEWID
 40
0.05
  9
$TEXTSTYLE
  7
Standard
  9
$CLAYER
  8
0
  9
$CELTYPE
  6
Continuous
  9
$CECOLOR
 62
   256
  9
$CELTSCALE
 40
1.0
  9
$DISPSILH
 70
     0
  9
$DIMSCALE
 40
1.0
  9
$DIMASZ
 40
0.18
  9
$DIMEXO
 40
0.0625
  9
$DIMDLI
 40
0.38
  9
$DIMRND
 40
0.0
  9
$DIMDLE
 40
0.0
  9
$DIMEXE
 40
0.18
  9
$DIMTP
 40
0.0
  9
$DIMTM
 40
0.0
  9
$DIMTXT
 40
0.18
  9
$DIMCEN
 40
0.09
  9
$DIMTSZ
 40
0.0
  9
$DIMTOL
 70
     0
  9
$DIMLIM
 70
     0
  9
$DIMTIH
 70
     1
  9
$DIMTOH
 70
     1
  9
$DIMSE1
 70
     0
  9
$DIMSE2
 70
     0
  9
$DIMTAD
 70
     0
  9
$DIMZIN
 70
     0
  9
$DIMBLK
  1

  9
$DIMASO
 70
     1
  9
$DIMSHO
 70
     1
  9
$DIMPOST
  1

  9
$DIMAPOST
  1

  9
$DIMALT
 70
     0
  9
$DIMALTD
 70
     2
  9
$DIMALTF
 40
25.4
  9
$DIMLFAC
 40
1.0
  9
$DIMTOFL
 70
     0
  9
$DIMTVP
 40
0.0
  9
$DIMTIX
 70
     0
  9
$DIMSOXD
 70
     0
  9
$DIMSAH
 70
     0
  9
$DIMBLK1
  1

  9
$DIMBLK2
  1

  9
$DIMSTYLE
  2
Standard
  9
$DIMCLRD
 70
     0
  9
$DIMCLRE
 70
     0
  9
$DIMCLRT
 70
     0
  9
$DIMTFAC
 40
1.0
  9
$DIMGAP
 40
0.09
  9
$DIMJUST
 70
     0
  9
$DIMSD1
 70
     0
  9
$DIMSD2
 70
     0
  9
$DIMTOLJ
 70
     1
  9
$DIMTZIN
 70
     0
  9
$DIMALTZ
 70
     0
  9
$DIMALTTZ
 70
     0
  9
$DIMUPT
 70
     0
  9
$DIMDEC
 70
     4
  9
$DIMTDEC
 70
     4
  9
$DIMALTU
 70
     2
  9
$DIMALTTD
 70
     2
  9
$DIMTXSTY
  7
Standard
  9
$DIMAUNIT
 70
     0
  9
$DIMADEC
 70
     0
  9
$DIMALTRND
 40
0.0
  9
$DIMAZIN
 70
     0
  9
$DIMDSEP
 70
     0
  9
$DIMATFIT
 70
     3
  9
$DIMFRAC
 70
     0
  9
$DIMLDRBLK
  1

  9
$DIMLUNIT
 70
     2
  9
$DIMLWD
 70
     0
  9
$DIMLWE
 70
     0
  9
$DIMTMOVE
 70
     0
  9
$LUNITS
 70
     2
  9
$LUPREC
 70
     4
  9
$SKETCHINC
 40
0.1
  9
$FILLETRAD
 40
0.0
  9
$AUNITS
 70
     0
  9
$AUPREC
 70
     0
  9
$MENU
  1
acad
  9
$ELEVATION
 40
0.0
  9
$PELEVATION
 40
0.0
  9
$THICKNESS
 40
0.0
  9
$LIMCHECK
 70
     0
  9
$CHAMFERA
 40
0.0
  9
$CHAMFERB
 40
0.0
  9
$CHAMFERC
 40
0.0
  9
$CHAMFERD
 40
0.0
  9
$SKPOLY
 70
     0
  9
$TDCREATE
 40
0.000000000
  9
$TDUCREATE
 40
0.000000000
  9
$TDUPDATE
 40
0.000000000
  9
$TDUUPDATE
 40
0.000000000
  9
$TDINDWG
 40
0.0000000000
  9
$TDUSRTIMER
 40
0.0000000000
  9
$USRTIMER
 70
     1
  9
$ANGBASE
 50
0.0
  9
$ANGDIR
 70
     0
  9
$PDMODE
 70
     0
  9
$PDSIZE
 40
0.0
  9
$PLINEWID
 40
0.0
  9
$SPLFRAME
 70
     0
  9
$SPLINETYPE
 70
     6
  9
$SPLINESEGS
 70
     8
  9
$HANDSEED
  5
3F
  9
$SURFTAB1
 70
     6
  9
$SURFTAB2
 70
     6
  9
$SURFTYPE
 70
     6
  9
$SURFU
 70
     6
  9
$SURFV
 70
     6
  9
$UCSBASE
  2

  9
$UCSNAME
  2

  9
$UCSORG
 10
0.0
 20
0.0
 30
0.0
  9
$UCSXDIR
 10
1.0
 20
0.0
 30
0.0
  9
$UCSYDIR
 10
0.0
 20
1.0
 30
0.0
  9
$UCSORTHOREF
  2

  9
$UCSORTHOVIEW
 70
     0
  9
$UCSORGTOP
 10
0.0
 20
0.0
 30
0.0
  9
$UCSORGBOTTOM
 10
0.0
 20
0.0
 30
0.0
  9
$UCSORGLEFT
 10
0.0
 20
0.0
 30
0.0
  9
$UCSORGRIGHT
 10
0.0
 20
0.0
 30
0.0
  9
$UCSORGFRONT
 10
0.0
 20
0.0
 30
0.0
  9
$UCSORGBACK
 10
0.0
 20
0.0
 30
0.0
  9
$PUCSBASE
  2

  9
$PUCSNAME
  2

  9
$PUCSORG
 10
0.0
 20
0.0
 30
0.0
  9
$PUCSXDIR
 10
1.0
 20
0.0
 30
0.0
  9
$PUCSYDIR
 10
0.0
 20
1.0
 30
0.0
  9
$PUCSORTHOREF
  2

  9
$PUCSORTHOVIEW
 70
     0
  9
$PUCSORGTOP
 10
0.0
 20
0.0
 30
0.0
  9
$PUCSORGBOTTOM
 10
0.0
 20
0.0
 30
0.0
  9
$PUCSORGLEFT
 10
0.0
 20
0.0
 30
0.0
  9
$PUCSORGRIGHT
 10
0.0
 20
0.0
 30
0.0
  9
$PUCSORGFRONT
 10
0.0
 20
0.0
 30
0.0
  9
$PUCSORGBACK
 10
0.0
 20
0.0
 30
0.0
  9
$USERI1
 70
     0
  9
$USERI2
 70
     0
  9
$USERI3
 70
     0
  9
$USERI4
 70
     0
  9
$USERI5
 70
     0
  9
$USERR1
 40
0.0
  9
$USERR2
 40
0.0
  9
$USERR3
 40
0.0
  9
$USERR4
 40
0.0
  9
$USERR5
 40
0.0
  9
$WORLDVIEW
 70
     1
  9
$SHADEDGE
 70
     3
  9
$SHADEDIF
 70
    70
  9
$TILEMODE
 70
     1
  9
$MAXACTVP
 70
    16
  9
$PINSBASE
 10
0.0
 20
0.0
 30
0.0
  9
$PLIMCHECK
 70
     0
  9
$PEXTMIN
 10
1.000000E+20
 20
1.000000E+20
 30
1.000000E+20
  9
$PEXTMAX
 10
-1.000000E+20
 20
-1.000000E+20
 30
-1.000000E+20
  9
$PLIMMIN
 10
0.0
 20
0.0
  9
$PLIMMAX
 10
12.0
 20
9.0
  9
$UNITMODE
 70
     0
  9
$VISRETAIN
 70
     0
  9
$PLINEGEN
 70
     1
  9
$PSLTSCALE
 70
     0
  9
$TREEDEPTH
 70
  3020
  9
$CMLSTYLE
  2
Standard
  9
$CMLJUST
 70
     0
  9
$CMLSCALE
 40
1.0
  9
$PROXYGRAPHICS
 70
     0
  9
$MEASUREMENT
 70
     0
  9
$CELWEIGHT
370
     0
  9
$ENDCAPS
280
     0
  9
$JOINSTYLE
280
     0
  9
$LWDISPLAY
290
     0
  9
$INSUNITS
 70
     5
  9
$HYPERLINKBASE
  1

  9
$XEDIT
290
     1
  9
$CEPSNTYPE
380
     0
  9
$PSTYLEMODE
290
     1
  9
$FINGERPRINTGUID
  2

  9
$VERSIONGUID
  2

  9
$EXTNAMES
290
     1
  9
$PSVPSCALE
 40
0.0
  0
ENDSEC
  0
SECTION
  2
CLASSES
  0
CLASS
  1
LWPOLYLINE
  2
AcDbPolyline
  3
AutoCAD 2000
 90
    32768
280
     0
281
     1
  0
CLASS
  1
IMAGE
  2
AcDbRasterImage
  3
ISM
 90
    32895
280
     0
281
     1
  0
CLASS
  1
OLE2FRAME
  2
AcDbOle2Frame
  3
AutoCAD 2000
 90
    32768
280
     0
281
     1
  0
CLASS
  1
HATCH
  2
AcDbHatch
  3
AutoCAD 2000
 90
    32768
280
     0
281
     1
  0
CLASS
  1
DICTIONARYVAR
  2
AcDbDictionaryVar
  3
AutoCAD 2000
 90
    32768
280
     0
281
     0
  0
CLASS
  1
RASTERVARIABLES
  2
AcDbRasterVariables
  3
ISM
 90
    32768
280
     0
281
     0
  0
CLASS
  1
IMAGEDEF
  2
AcDbRasterImageDef
  3
ISM
 90
    32768
280
     0
281
     0
  0
CLASS
  1
IMAGEDEF_REACTOR
  2
AcDbRasterImageDefReactor
  3
ISM
 90
    32769
280
     0
281
     0
  0
CLASS
  1
IDBUFFER
  2
AcDbIdBuffer
  3
AutoCAD 2000
 90
    32768
280
     0
281
     0
  0
CLASS
  1
SPATIAL_FILTER
  2
AcDbSpatialFilter
  3
AutoCAD 2000
 90
    32768
280
     0
281
     0
  0
CLASS
  1
XRECORD
  2
AcDbXrecord
  3
AutoCAD 2000
 90
    32768
280
     0
281
     0
  0
CLASS
  1
SORTENTSTABLE
  2
AcDbSortentsTable
  3
AutoCAD 2000
 90
    32768
280
     0
281
     0
  0
CLASS
  1
LAYER_INDEX
  2
AcDbLayerIndex
  3
AutoCAD 2000
 90
    32768
280
     0
281
     0
  0
CLASS
  1
SPATIAL_INDEX
  2
AcDbSpatialIndex
  3
AutoCAD 2000
 90
    32768
280
     0
281
     0
  0
CLASS
  1
OBJECT_PTR
  2
CAseDLPNTableRecord
  3
"ASE-LPNTableRecord"
 90
    32769
280
     0
281
     0
  0
CLASS
  1
LAYOUT
  2
AcDbLayout
  3
AutoCAD 2000
 90
        0
280
     0
281
     0
  0
CLASS
  1
PLOTSETTINGS
  2
AcDbPlotSettings
  3
AutoCAD 2000
 90
    32768
280
     0
281
     0
  0
CLASS
  1
ACDBDICTIONARYWDFLT
  2
AcDbDictionaryWithDefault
  3
AutoCAD 2000
 90
        0
280
     0
281
     0
  0
CLASS
  1
ACDBPLACEHOLDER
  2
AcDbPlaceHolder
  3
AutoCAD 2000
 90
        0
280
     0
281
     0
  0
CLASS
  1
VBA_PROJECT
  2
AcDbVbaProject
  3
acadvba
 90
    32768
280
     0
281
     0
  0
CLASS
  1
WIPEOUT
  2
AcDbWipeout
  3
WipeOut|AutoCAD Express Tool|expresstools@autodesk.com
 90
    32895
280
     0
281
     1
  0
CLASS
  1
WIPEOUTVARIABLES
  2
AcDbWipeoutVariables
  3
WipeOut|AutoCAD Express Tool|expresstools@autodesk.com
 90
        0
280
     0
281
     0
  0
CLASS
  1
RTEXT
  2
RText
  3
RText|AutoCAD Express Tool|expresstools@autodesk.com
 90
    32768
280
     0
281
     1
  0
CLASS
  1
ARCALIGNEDTEXT
  2
AcDbArcAlignedText
  3
ATEXT|AutoCAD Express Tool|expresstools@autodesk.com
 90
    32768
280
     0
281
     1
  0
ENDSEC
  0
SECTION
  2
TABLES
  0
TABLE
  2
VPORT
  5
7
100
AcDbSymbolTable
 70
     1
  0
VPORT
  5
15
100
AcDbSymbolTableRecord
100
AcDbViewportTableRecord
  2
*ACTIVE
 70
     0
 10
0.0
 20
0.0
 11
1.0
 21
1.0
 12
6.591288
 22
4.579184
 13
0.0
 23
0.0
 14
1.0
 24
1.0
 15
0.0
 25
0.0
 16
0.0
 26
0.0
 36
1.0
 17
0.0
 27
0.0
 37
0.0
 40
9.158369
 41
0.688564
 42
50.0
 43
0.0
 44
0.0
 50
0.0
 51
0.0
 71
     0
 72
   100
 73
     1
 74
     1
 75
     0
 76
     0
 77
     0
 78
     0
281
     0
 65
     0
110
0.0
120
0.0
130
0.0
111
1.0
121
0.0
131
0.0
112
0.0
122
1.0
132
0.0
345
0
346
0
 79
     0
146
0.0
  0
ENDTAB
  0
TABLE
  2
LTYPE
  5
4
100
AcDbSymbolTable
 70
     3
  0
LTYPE
  5
11
100
AcDbSymbolTableRecord
100
AcDbLinetypeTableRecord
  2
ByBlock
 70
    64
  3

 72
    65
 73
     0
 40
0.0
  0
LTYPE
  5
12
100
AcDbSymbolTableRecord
100
AcDbLinetypeTableRecord
  2
ByLayer
 70
    64
  3

 72
    65
 73
     0
 40
0.0
  0
LTYPE
  5
13
100
AcDbSymbolTableRecord
100
AcDbLinetypeTableRecord
  2
Continuous
 70
    64
  3
Solid line
 72
    65
 73
     0
 40
0.0
  0
ENDTAB
  0
TABLE
  2
LAYER
  5
2
100
AcDbSymbolTable
 70
     2
  0
LAYER
  5
14
100
AcDbSymbolTableRecord
100
AcDbLayerTableRecord
  2
0
 70
     0
 62
     7
  6
Continuous
290
     1
370
    -3
390
1D
  0
LAYER
  5
24
100
AcDbSymbolTableRecord
100
AcDbLayerTableRecord
  2
Ebene 1
 70
     0
 62
     7
  6
Continuous
290
     1
370
    -3
390
1F
  0
ENDTAB
  0
TABLE
  2
STYLE
  5
3
100
AcDbSymbolTable
 70
     1
  0
STYLE
  5
17
100
AcDbSymbolTableRecord
100
AcDbTextStyleTableRecord
  2
Standard
 70
     0
 40
0.0
 41
1.0
 50
0.0
 71
     0
 42
0.0
  3
txt
  4

  0
ENDTAB
  0
TABLE
  2
VIEW
  5
5
100
AcDbSymbolTable
 70
     0
  0
ENDTAB
  0
TABLE
  2
UCS
  5
6
100
AcDbSymbolTable
 70
     0
  0
ENDTAB
  0
TABLE
  2
APPID
  5
8
100
AcDbSymbolTable
 70
     1
  0
APPID
  5
16
100
AcDbSymbolTableRecord
100
AcDbRegAppTableRecord
  2
ACAD
 70
     0
  0
ENDTAB
  0
TABLE
  2
DIMSTYLE
  5
9
100
AcDbSymbolTable
 70
     1
100
AcDbDimStyleTable
 71
     0
  0
DIMSTYLE
105
18
100
AcDbSymbolTableRecord
100
AcDbDimStyleTableRecord
  2
Standard
 70
     0
  3

  4

 40
1.0
 41
0.18
 42
0.0625
 43
0.38
 44
0.18
 45
0.0
 46
0.0
 47
0.0
 48
0.0
 71
     0
 72
     0
 73
     1
 74
     1
 75
     0
 76
     0
 77
     0
 78
     0
 79
     0
140
0.18
141
0.09
142
0.0
143
25.4
144
1.0
145
0.0
146
1.0
147
0.09
148
0.0
170
     0
171
     2
172
     0
173
     0
174
     0
175
     0
176
     0
177
     0
178
     0
179
     0
271
     4
272
     4
273
     2
274
     2
275
     0
276
     0
277
     2
278
    46
279
     0
280
     0
281
     0
282
     0
283
     1
284
     0
285
     0
286
     0
288
     0
340
17
341
0
342
0
343
0
344
0
371
    -2
372
    -2
  0
ENDTAB
  0
TABLE
  2
BLOCK_RECORD
  5
1
100
AcDbSymbolTable
 70
     0
  0
BLOCK_RECORD
  5
A
100
AcDbSymbolTableRecord
100
AcDbBlockTableRecord
  2
*MODEL_SPACE
340
20
  0
BLOCK_RECORD
  5
B
100
AcDbSymbolTableRecord
100
AcDbBlockTableRecord
  2
*PAPER_SPACE
340
21
  0
ENDTAB
  0
ENDSEC
  0
SECTION
  2
BLOCKS
  0
BLOCK
  5
D
100
AcDbEntity
  8
0
100
AcDbBlockBegin
  2
*MODEL_SPACE
 70
     0
 10
0.0
 20
0.0
 30
0.0
  3
*MODEL_SPACE
  1

  0
ENDBLK
  5
E
100
AcDbEntity
  8
0
100
AcDbBlockEnd
  0
BLOCK
  5
F
100
AcDbEntity
 67
     1
  8
0
100
AcDbBlockBegin
  2
*PAPER_SPACE
 70
     0
 10
0.0
 20
0.0
 30
0.0
  3
*PAPER_SPACE
  1

  0
ENDBLK
  5
10
100
AcDbEntity
 67
     1
  8
0
100
AcDbBlockEnd
  0
ENDSEC
  0
SECTION
  2
ENTITIES
  0
SPLINE
  5
25
100
AcDbEntity
  8
Ebene 1
100
AcDbSpline
210
0.0
220
0.0
230
1.0
 70
     1
 71
     3
 72
   176
 73
   172
 74
     0
 42
0.0000000001
 43
0.0000000001
 40
0.0
 40
0.0
 40
0.0
 40
0.0
 40
0.0232558139534884
 40
0.0232558139534884
 40
0.0232558139534884
 40
0.0232558139534884
 40
0.0465116279069767
 40
0.0465116279069767
 40
0.0465116279069767
 40
0.0465116279069767
 40
0.0697674418604651
 40
0.0697674418604651
 40
0.0697674418604651
 40
0.0697674418604651
 40
0.0930232558139535
 40
0.0930232558139535
 40
0.0930232558139535
 40
0.0930232558139535
 40
0.1162790697674419
 40
0.1162790697674419
 40
0.1162790697674419
 40
0.1162790697674419
 40
0.1395348837209302
 40
0.1395348837209302
 40
0.1395348837209302
 40
0.1395348837209302
 40
0.1627906976744186
 40
0.1627906976744186
 40
0.1627906976744186
 40
0.1627906976744186
 40
0.186046511627907
 40
0.186046511627907
 40
0.186046511627907
 40
0.186046511627907
 40
0.2093023255813953
 40
0.2093023255813953
 40
0.2093023255813953
 40
0.2093023255813953
 40
0.2325581395348837
 40
0.2325581395348837
 40
0.2325581395348837
 40
0.2325581395348837
 40
0.2558139534883721
 40
0.2558139534883721
 40
0.2558139534883721
 40
0.2558139534883721
 40
0.2790697674418604
 40
0.2790697674418604
 40
0.2790697674418604
 40
0.2790697674418604
 40
0.3023255813953488
 40
0.3023255813953488
 40
0.3023255813953488
 40
0.3023255813953488
 40
0.3255813953488371
 40
0.3255813953488371
 40
0.3255813953488371
 40
0.3255813953488371
 40
0.3488372093023255
 40
0.3488372093023255
 40
0.3488372093023255
 40
0.3488372093023255
 40
0.3720930232558138
 40
0.3720930232558138
 40
0.3720930232558138
 40
0.3720930232558138
 40
0.3953488372093022
 40
0.3953488372093022
 40
0.3953488372093022
 40
0.3953488372093022
 40
0.4186046511627906
 40
0.4186046511627906
 40
0.4186046511627906
 40
0.4186046511627906
 40
0.4418604651162789
 40
0.4418604651162789
 40
0.4418604651162789
 40
0.4418604651162789
 40
0.4651162790697673
 40
0.4651162790697673
 40
0.4651162790697673
 40
0.4651162790697673
 40
0.4883720930232556
 40
0.4883720930232556
 40
0.4883720930232556
 40
0.4883720930232556
 40
0.511627906976744
 40
0.511627906976744
 40
0.511627906976744
 40
0.511627906976744
 40
0.5348837209302324
 40
0.5348837209302324
 40
0.5348837209302324
 40
0.5348837209302324
 40
0.5581395348837208
 40
0.5581395348837208
 40
0.5581395348837208
 40
0.5581395348837208
 40
0.5813953488372092
 40
0.5813953488372092
 40
0.5813953488372092
 40
0.5813953488372092
 40
0.6046511627906976
 40
0.6046511627906976
 40
0.6046511627906976
 40
0.6046511627906976
 40
0.6279069767441861
 40
0.6279069767441861
 40
0.6279069767441861
 40
0.6279069767441861
 40
0.6511627906976745
 40
0.6511627906976745
 40
0.6511627906976745
 40
0.6511627906976745
 40
0.6744186046511629
 40
0.6744186046511629
 40
0.6744186046511629
 40
0.6744186046511629
 40
0.6976744186046513
 40
0.6976744186046513
 40
0.6976744186046513
 40
0.6976744186046513
 40
0.7209302325581397
 40
0.7209302325581397
 40
0.7209302325581397
 40
0.7209302325581397
 40
0.7441860465116281
 40
0.7441860465116281
 40
0.7441860465116281
 40
0.7441860465116281
 40
0.7674418604651165
 40
0.7674418604651165
 40
0.7674418604651165
 40
0.7674418604651165
 40
0.790697674418605
 40
0.790697674418605
 40
0.790697674418605
 40
0.790697674418605
 40
0.8139534883720934
 40
0.8139534883720934
 40
0.8139534883720934
 40
0.8139534883720934
 40
0.8372093023255818
 40
0.8372093023255818
 40
0.8372093023255818
 40
0.8372093023255818
 40
0.8604651162790702
 40
0.8604651162790702
 40
0.8604651162790702
 40
0.8604651162790702
 40
0.8837209302325586
 40
0.8837209302325586
 40
0.8837209302325586
 40
0.8837209302325586
 40
0.906976744186047
 40
0.906976744186047
 40
0.906976744186047
 40
0.906976744186047
 40
0.9302325581395354
 40
0.9302325581395354
 40
0.9302325581395354
 40
0.9302325581395354
 40
0.9534883720930238
 40
0.9534883720930238
 40
0.9534883720930238
 40
0.9534883720930238
 40
0.9767441860465123
 40
0.9767441860465123
 40
0.9767441860465123
 40
0.9767441860465123
 40
1.0
 40
1.0
 40
1.0
 40
1.0
 10
-0.54849
 20
6.5653300000000003
 30
0.0
 10
-1.9531100000000001
 20
6.6085100000000008
 30
0.0
 10
-3.0427700000000004
 20
6.2503700000000002
 30
0.0
 10
-4.2289500000000002
 20
5.6788700000000008
 30
0.0
 10
-4.2289500000000002
 20
5.6788700000000008
 30
0.0
 10
-3.7793700000000001
 20
5.3639100000000006
 30
0.0
 10
-3.2612100000000002
 20
5.0083100000000007
 30
0.0
 10
-2.9614900000000004
 20
4.5104700000000006
 30
0.0
 10
-2.9614900000000004
 20
4.5104700000000006
 30
0.0
 10
-2.8395700000000001
 20
4.3529900000000001
 30
0.0
 10
-2.7582900000000001
 20
4.17265
 30
0.0
 10
-2.6617700000000002
 20
4.0075500000000002
 30
0.0
 10
-2.6617700000000002
 20
4.0075500000000002
 30
0.0
 10
-2.6338300000000001
 20
3.9440500000000003
 30
0.0
 10
-2.5804900000000002
 20
3.8805500000000004
 30
0.0
 10
-2.5652500000000003
 20
3.8170500000000005
 30
0.0
 10
-2.5652500000000003
 20
3.8170500000000005
 30
0.0
 10
-3.0986500000000001
 20
4.3148900000000001
 30
0.0
 10
-3.7539700000000003
 20
4.7365300000000001
 30
0.0
 10
-4.4473900000000004
 20
4.8305100000000003
 30
0.0
 10
-4.4473900000000004
 20
4.8305100000000003
 30
0.0
 10
-4.3381700000000007
 20
4.6755700000000004
 30
0.0
 10
-4.3254700000000001
 20
4.34537
 30
0.0
 10
-4.0943300000000002
 20
4.2996500000000006
 30
0.0
 10
-4.0943300000000002
 20
4.2996500000000006
 30
0.0
 10
-4.0943300000000002
 20
4.2996500000000006
 30
0.0
 10
-3.5482300000000002
 20
4.1675700000000004
 30
0.0
 10
-3.5482300000000002
 20
4.1675700000000004
 30
0.0
 10
-3.5482300000000002
 20
4.1675700000000004
 30
0.0
 10
-3.0986500000000001
 20
3.9770700000000003
 30
0.0
 10
-2.6211300000000004
 20
3.7078300000000004
 30
0.0
 10
-2.3747500000000001
 20
3.2658700000000001
 30
0.0
 10
-2.3747500000000001
 20
3.2658700000000001
 30
0.0
 10
-2.8675100000000002
 20
2.9991700000000003
 30
0.0
 10
-2.9310100000000001
 20
2.7121500000000003
 30
0.0
 10
-3.1799300000000001
 20
2.33623
 30
0.0
 10
-3.1799300000000001
 20
2.33623
 30
0.0
 10
-3.2078700000000002
 20
1.6707500000000002
 30
0.0
 10
-3.1367500000000001
 20
1.0890900000000001
 30
0.0
 10
-3.5329900000000003
 20
0.51759
 30
0.0
 10
-3.5329900000000003
 20
0.51759
 30
0.0
 10
-3.1494500000000003
 20
-0.47046
 30
0.0
 10
-3.6168100000000001
 20
-1.5626600000000002
 30
0.0
 10
-3.5329900000000003
 20
-2.6320000000000001
 30
0.0
 10
-3.5329900000000003
 20
-2.6320000000000001
 30
0.0
 10
-3.4110700000000005
 20
-2.6015200000000003
 30
0.0
 10
-3.3704300000000003
 20
-2.4465800000000004
 30
0.0
 10
-3.3018500000000004
 20
-2.3627600000000002
 30
0.0
 10
-3.3018500000000004
 20
-2.3627600000000002
 30
0.0
 10
-3.2764500000000001
 20
-2.56088
 30
0.0
 10
-3.0986500000000001
 20
-2.8453600000000003
 30
0.0
 10
-3.0707100000000001
 20
-2.4745200000000001
 30
0.0
 10
-3.0707100000000001
 20
-2.4745200000000001
 30
0.0
 10
-2.98943
 20
-3.0155400000000001
 30
0.0
 10
-2.8243300000000002
 20
-2.3729200000000001
 30
0.0
 10
-2.8116300000000001
 20
-2.1290800000000001
 30
0.0
 10
-2.8116300000000001
 20
-2.1290800000000001
 30
0.0
 10
-2.7836900000000004
 20
-2.3373600000000003
 30
0.0
 10
-2.5804900000000002
 20
-2.9317200000000003
 30
0.0
 10
-2.4712700000000001
 20
-2.3907000000000003
 30
0.0
 10
-2.4712700000000001
 20
-2.3907000000000003
 30
0.0
 10
-2.3747500000000001
 20
-2.5837400000000001
 30
0.0
 10
-2.3341100000000004
 20
-2.8529800000000001
 30
0.0
 10
-2.1436100000000002
 20
-2.9901400000000002
 30
0.0
 10
-2.1436100000000002
 20
-2.9901400000000002
 30
0.0
 10
-2.0750300000000004
 20
-2.8758400000000002
 30
0.0
 10
-2.18425
 20
-2.5532600000000003
 30
0.0
 10
-2.0750300000000004
 20
-2.52786
 30
0.0
 10
-2.0750300000000004
 20
-2.52786
 30
0.0
 10
-1.9531100000000001
 20
-3.1196800000000002
 30
0.0
 10
-1.6940300000000001
 20
-2.5964400000000003
 30
0.0
 10
-1.7626100000000002
 20
-2.2383000000000002
 30
0.0
 10
-1.7626100000000002
 20
-2.2383000000000002
 30
0.0
 10
-1.7473700000000001
 20
-1.8166600000000002
 30
0.0
 10
-1.6381500000000002
 20
-2.5380200000000004
 30
0.0
 10
-1.50353
 20
-2.6497800000000002
 30
0.0
 10
-1.50353
 20
-2.6497800000000002
 30
0.0
 10
-1.3663700000000001
 20
-2.52786
 30
0.0
 10
-1.46035
 20
-2.23068
 30
0.0
 10
-1.46035
 20
-2.0503400000000003
 30
0.0
 10
-1.46035
 20
-2.0503400000000003
 30
0.0
 10
-1.33843
 20
-2.0833600000000003
 30
0.0
 10
-1.29779
 20
-2.3678400000000002
 30
0.0
 10
-1.1352300000000002
 20
-2.3729200000000001
 30
0.0
 10
-1.1352300000000002
 20
-2.3729200000000001
 30
0.0
 10
-1.1072900000000001
 20
-2.2941800000000003
 30
0.0
 10
-1.2292100000000001
 20
-1.9462000000000002
 30
0.0
 10
-1.11999
 20
-2.0986000000000002
 30
0.0
 10
-1.11999
 20
-2.0986000000000002
 30
0.0
 10
-0.92949
 20
-2.4161000000000001
 30
0.0
 10
-0.78471
 20
-2.2535400000000001
 30
0.0
 10
-0.86599
 20
-1.9563600000000001
 30
0.0
 10
-0.86599
 20
-1.9563600000000001
 30
0.0
 10
-0.8786900000000001
 20
-1.8954000000000002
 30
0.0
 10
-0.9015500000000001
 20
-1.8293600000000001
 30
0.0
 10
-0.8990100000000001
 20
-1.7658600000000002
 30
0.0
 10
-0.8990100000000001
 20
-1.7658600000000002
 30
0.0
 10
-0.15479
 20
-2.4669000000000003
 30
0.0
 10
-1.50353
 20
-0.6762
 30
0.0
 10
-0.65771
 20
-0.8082800000000001
 30
0.0
 10
-0.65771
 20
-0.8082800000000001
 30
0.0
 10
-0.53071
 20
-0.82098
 30
0.0
 10
-0.4164100000000001
 20
-0.88448
 30
0.0
 10
-0.33513
 20
-0.9886200000000001
 30
0.0
 10
-0.33513
 20
-0.9886200000000001
 30
0.0
 10
-0.18781
 20
-1.20452
 30
0.0
 10
-0.17765
 20
-1.4763000000000002
 30
0.0
 10
-0.01255
 20
-1.6769600000000002
 30
0.0
 10
-0.01255
 20
-1.6769600000000002
 30
0.0
 10
0.7773800000000001
 20
-1.67188
 30
0.0
 10
1.7171800000000002
 20
-1.8928600000000002
 30
0.0
 10
2.4868000000000001
 20
-1.5321800000000001
 30
0.0
 10
2.4868000000000001
 20
-1.5321800000000001
 30
0.0
 10
2.3547200000000004
 20
-2.5380200000000004
 30
0.0
 10
2.9770200000000004
 20
-3.4270200000000002
 30
0.0
 10
2.67984
 20
-4.3947600000000007
 30
0.0
 10
2.67984
 20
-4.3947600000000007
 30
0.0
 10
2.8017600000000003
 20
-4.4328600000000007
 30
0.0
 10
2.8246200000000004
 20
-4.2271200000000002
 30
0.0
 10
2.8957400000000004
 20
-4.1636200000000008
 30
0.0
 10
2.8957400000000004
 20
-4.1636200000000008
 30
0.0
 10
3.0430600000000001
 20
-4.2220400000000007
 30
0.0
 10
3.0710000000000002
 20
-4.6081200000000004
 30
0.0
 10
3.0278200000000002
 20
-4.7960800000000008
 30
0.0
 10
3.0278200000000002
 20
-4.7960800000000008
 30
0.0
 10
2.8932000000000002
 20
-5.3929800000000006
 30
0.0
 10
2.6290400000000003
 20
-5.7612800000000002
 30
0.0
 10
2.7763600000000004
 20
-6.5766200000000001
 30
0.0
 10
2.7763600000000004
 20
-6.5766200000000001
 30
0.0
 10
2.7839800000000001
 20
-6.2743600000000006
 30
0.0
 10
3.1573600000000002
 20
-5.3142400000000007
 30
0.0
 10
3.3046800000000003
 20
-5.6444400000000003
 30
0.0
 10
3.3046800000000003
 20
-5.6444400000000003
 30
0.0
 10
3.7085400000000002
 20
-4.6919400000000007
 30
0.0
 10
3.9854000000000003
 20
-4.2322000000000006
 30
0.0
 10
3.0786200000000004
 20
-3.0536400000000001
 30
0.0
 10
3.0786200000000004
 20
-3.0536400000000001
 30
0.0
 10
3.2310200000000004
 20
-2.8479000000000001
 30
0.0
 10
2.9313000000000002
 20
-2.7412200000000002
 30
0.0
 10
3.0075000000000003
 20
-2.5253200000000002
 30
0.0
 10
3.0075000000000003
 20
-2.5253200000000002
 30
0.0
 10
3.0760800000000001
 20
-2.2002000000000002
 30
0.0
 10
3.1192600000000001
 20
-1.8700000000000001
 30
0.0
 10
3.2437200000000002
 20
-1.5601200000000002
 30
0.0
 10
3.2437200000000002
 20
-1.5601200000000002
 30
0.0
 10
4.71692
 20
0.08579
 30
0.0
 10
4.9074200000000001
 20
2.7654900000000002
 30
0.0
 10
3.4723200000000003
 20
4.4799900000000008
 30
0.0
 10
3.4723200000000003
 20
4.4799900000000008
 30
0.0
 10
3.3656400000000004
 20
4.4495100000000001
 30
0.0
 10
3.5332800000000004
 20
4.1751900000000006
 30
0.0
 10
3.4189800000000004
 20
4.1574100000000005
 30
0.0
 10
3.4189800000000004
 20
4.1574100000000005
 30
0.0
 10
3.0252800000000004
 20
5.4959900000000008
 30
0.0
 10
1.4809600000000001
 20
6.2224300000000001
 30
0.0
 10
0.24144
 20
6.5526300000000006
 30
0.0
 10
0.24144
 20
6.5526300000000006
 30
0.0
 10
0.24906
 20
6.4230900000000002
 30
0.0
 10
0.4827400000000001
 20
6.2859300000000005
 30
0.0
 10
0.4725800000000001
 20
6.1309900000000006
 30
0.0
 10
0.4725800000000001
 20
6.1309900000000006
 30
0.0
 10
0.33796
 20
6.2351300000000007
 30
0.0
 10
0.22366
 20
6.4713500000000002
 30
0.0
 10
0.02554
 20
6.4840500000000008
 30
0.0
 10
0.02554
 20
6.4840500000000008
 30
0.0
 10
0.09666
 20
6.3164100000000003
 30
0.0
 10
0.26684
 20
6.1335300000000004
 30
0.0
 10
0.29732
 20
5.9557300000000009
 30
0.0
 10
0.29732
 20
5.9557300000000009
 30
0.0
 10
0.04332
 20
6.1868700000000008
 30
0.0
 10
-0.18527
 20
6.5526300000000006
 30
0.0
 10
-0.54849
 20
6.5653300000000003
 30
0.0
  0
SPLINE
  5
26
100
AcDbEntity
  8
Ebene 1
 62
     7
100
AcDbSpline
210
0.0
220
0.0
230
1.0
 70
     1
 71
     3
 72
   356
 73
   352
 74
     0
 42
0.0000000001
 43
0.0000000001
 40
0.0
 40
0.0
 40
0.0
 40
0.0
 40
0.0113636363636364
 40
0.0113636363636364
 40
0.0113636363636364
 40
0.0113636363636364
 40
0.0227272727272727
 40
0.0227272727272727
 40
0.0227272727272727
 40
0.0227272727272727
 40
0.0340909090909091
 40
0.0340909090909091
 40
0.0340909090909091
 40
0.0340909090909091
 40
0.0454545454545455
 40
0.0454545454545455
 40
0.0454545454545455
 40
0.0454545454545455
 40
0.0568181818181818
 40
0.0568181818181818
 40
0.0568181818181818
 40
0.0568181818181818
 40
0.0681818181818182
 40
0.0681818181818182
 40
0.0681818181818182
 40
0.0681818181818182
 40
0.0795454545454546
 40
0.0795454545454546
 40
0.0795454545454546
 40
0.0795454545454546
 40
0.0909090909090909
 40
0.0909090909090909
 40
0.0909090909090909
 40
0.0909090909090909
 40
0.1022727272727273
 40
0.1022727272727273
 40
0.1022727272727273
 40
0.1022727272727273
 40
0.1136363636363637
 40
0.1136363636363637
 40
0.1136363636363637
 40
0.1136363636363637
 40
0.125
 40
0.125
 40
0.125
 40
0.125
 40
0.1363636363636364
 40
0.1363636363636364
 40
0.1363636363636364
 40
0.1363636363636364
 40
0.1477272727272727
 40
0.1477272727272727
 40
0.1477272727272727
 40
0.1477272727272727
 40
0.1590909090909091
 40
0.1590909090909091
 40
0.1590909090909091
 40
0.1590909090909091
 40
0.1704545454545454
 40
0.1704545454545454
 40
0.1704545454545454
 40
0.1704545454545454
 40
0.1818181818181818
 40
0.1818181818181818
 40
0.1818181818181818
 40
0.1818181818181818
 40
0.1931818181818182
 40
0.1931818181818182
 40
0.1931818181818182
 40
0.1931818181818182
 40
0.2045454545454545
 40
0.2045454545454545
 40
0.2045454545454545
 40
0.2045454545454545
 40
0.2159090909090909
 40
0.2159090909090909
 40
0.2159090909090909
 40
0.2159090909090909
 40
0.2272727272727272
 40
0.2272727272727272
 40
0.2272727272727272
 40
0.2272727272727272
 40
0.2386363636363636
 40
0.2386363636363636
 40
0.2386363636363636
 40
0.2386363636363636
 40
0.2499999999999999
 40
0.2499999999999999
 40
0.2499999999999999
 40
0.2499999999999999
 40
0.2613636363636363
 40
0.2613636363636363
 40
0.2613636363636363
 40
0.2613636363636363
 40
0.2727272727272727
 40
0.2727272727272727
 40
0.2727272727272727
 40
0.2727272727272727
 40
0.284090909090909
 40
0.284090909090909
 40
0.284090909090909
 40
0.284090909090909
 40
0.2954545454545454
 40
0.2954545454545454
 40
0.2954545454545454
 40
0.2954545454545454
 40
0.3068181818181817
 40
0.3068181818181817
 40
0.3068181818181817
 40
0.3068181818181817
 40
0.3181818181818181
 40
0.3181818181818181
 40
0.3181818181818181
 40
0.3181818181818181
 40
0.3295454545454544
 40
0.3295454545454544
 40
0.3295454545454544
 40
0.3295454545454544
 40
0.3409090909090908
 40
0.3409090909090908
 40
0.3409090909090908
 40
0.3409090909090908
 40
0.3522727272727271
 40
0.3522727272727271
 40
0.3522727272727271
 40
0.3522727272727271
 40
0.3636363636363635
 40
0.3636363636363635
 40
0.3636363636363635
 40
0.3636363636363635
 40
0.3749999999999998
 40
0.3749999999999998
 40
0.3749999999999998
 40
0.3749999999999998
 40
0.3863636363636362
 40
0.3863636363636362
 40
0.3863636363636362
 40
0.3863636363636362
 40
0.3977272727272725
 40
0.3977272727272725
 40
0.3977272727272725
 40
0.3977272727272725
 40
0.4090909090909089
 40
0.4090909090909089
 40
0.4090909090909089
 40
0.4090909090909089
 40
0.4204545454545453
 40
0.4204545454545453
 40
0.4204545454545453
 40
0.4204545454545453
 40
0.4318181818181816
 40
0.4318181818181816
 40
0.4318181818181816
 40
0.4318181818181816
 40
0.443181818181818
 40
0.443181818181818
 40
0.443181818181818
 40
0.443181818181818
 40
0.4545454545454543
 40
0.4545454545454543
 40
0.4545454545454543
 40
0.4545454545454543
 40
0.4659090909090907
 40
0.4659090909090907
 40
0.4659090909090907
 40
0.4659090909090907
 40
0.477272727272727
 40
0.477272727272727
 40
0.477272727272727
 40
0.477272727272727
 40
0.4886363636363634
 40
0.4886363636363634
 40
0.4886363636363634
 40
0.4886363636363634
 40
0.4999999999999997
 40
0.4999999999999997
 40
0.4999999999999997
 40
0.4999999999999997
 40
0.5113636363636361
 40
0.5113636363636361
 40
0.5113636363636361
 40
0.5113636363636361
 40
0.5227272727272725
 40
0.5227272727272725
 40
0.5227272727272725
 40
0.5227272727272725
 40
0.5340909090909088
 40
0.5340909090909088
 40
0.5340909090909088
 40
0.5340909090909088
 40
0.5454545454545452
 40
0.5454545454545452
 40
0.5454545454545452
 40
0.5454545454545452
 40
0.5568181818181816
 40
0.5568181818181816
 40
0.5568181818181816
 40
0.5568181818181816
 40
0.5681818181818179
 40
0.5681818181818179
 40
0.5681818181818179
 40
0.5681818181818179
 40
0.5795454545454543
 40
0.5795454545454543
 40
0.5795454545454543
 40
0.5795454545454543
 40
0.5909090909090906
 40
0.5909090909090906
 40
0.5909090909090906
 40
0.5909090909090906
 40
0.602272727272727
 40
0.602272727272727
 40
0.602272727272727
 40
0.602272727272727
 40
0.6136363636363633
 40
0.6136363636363633
 40
0.6136363636363633
 40
0.6136363636363633
 40
0.6249999999999997
 40
0.6249999999999997
 40
0.6249999999999997
 40
0.6249999999999997
 40
0.636363636363636
 40
0.636363636363636
 40
0.636363636363636
 40
0.636363636363636
 40
0.6477272727272724
 40
0.6477272727272724
 40
0.6477272727272724
 40
0.6477272727272724
 40
0.6590909090909087
 40
0.6590909090909087
 40
0.6590909090909087
 40
0.6590909090909087
 40
0.6704545454545451
 40
0.6704545454545451
 40
0.6704545454545451
 40
0.6704545454545451
 40
0.6818181818181814
 40
0.6818181818181814
 40
0.6818181818181814
 40
0.6818181818181814
 40
0.6931818181818178
 40
0.6931818181818178
 40
0.6931818181818178
 40
0.6931818181818178
 40
0.7045454545454541
 40
0.7045454545454541
 40
0.7045454545454541
 40
0.7045454545454541
 40
0.7159090909090905
 40
0.7159090909090905
 40
0.7159090909090905
 40
0.7159090909090905
 40
0.7272727272727269
 40
0.7272727272727269
 40
0.7272727272727269
 40
0.7272727272727269
 40
0.7386363636363632
 40
0.7386363636363632
 40
0.7386363636363632
 40
0.7386363636363632
 40
0.7499999999999996
 40
0.7499999999999996
 40
0.7499999999999996
 40
0.7499999999999996
 40
0.7613636363636359
 40
0.7613636363636359
 40
0.7613636363636359
 40
0.7613636363636359
 40
0.7727272727272723
 40
0.7727272727272723
 40
0.7727272727272723
 40
0.7727272727272723
 40
0.7840909090909086
 40
0.7840909090909086
 40
0.7840909090909086
 40
0.7840909090909086
 40
0.795454545454545
 40
0.795454545454545
 40
0.795454545454545
 40
0.795454545454545
 40
0.8068181818181813
 40
0.8068181818181813
 40
0.8068181818181813
 40
0.8068181818181813
 40
0.8181818181818177
 40
0.8181818181818177
 40
0.8181818181818177
 40
0.8181818181818177
 40
0.829545454545454
 40
0.829545454545454
 40
0.829545454545454
 40
0.829545454545454
 40
0.8409090909090904
 40
0.8409090909090904
 40
0.8409090909090904
 40
0.8409090909090904
 40
0.8522727272727267
 40
0.8522727272727267
 40
0.8522727272727267
 40
0.8522727272727267
 40
0.8636363636363631
 40
0.8636363636363631
 40
0.8636363636363631
 40
0.8636363636363631
 40
0.8749999999999994
 40
0.8749999999999994
 40
0.8749999999999994
 40
0.8749999999999994
 40
0.8863636363636358
 40
0.8863636363636358
 40
0.8863636363636358
 40
0.8863636363636358
 40
0.8977272727272722
 40
0.8977272727272722
 40
0.8977272727272722
 40
0.8977272727272722
 40
0.9090909090909085
 40
0.9090909090909085
 40
0.9090909090909085
 40
0.9090909090909085
 40
0.9204545454545449
 40
0.9204545454545449
 40
0.9204545454545449
 40
0.9204545454545449
 40
0.9318181818181812
 40
0.9318181818181812
 40
0.9318181818181812
 40
0.9318181818181812
 40
0.9431818181818176
 40
0.9431818181818176
 40
0.9431818181818176
 40
0.9431818181818176
 40
0.9545454545454539
 40
0.9545454545454539
 40
0.9545454545454539
 40
0.9545454545454539
 40
0.9659090909090903
 40
0.9659090909090903
 40
0.9659090909090903
 40
0.9659090909090903
 40
0.9772727272727266
 40
0.9772727272727266
 40
0.9772727272727266
 40
0.9772727272727266
 40
0.988636363636363
 40
0.988636363636363
 40
0.988636363636363
 40
0.988636363636363
 40
1.0
 40
1.0
 40
1.0
 40
1.0
 10
-2.4992100000000002
 20
6.0624100000000007
 30
0.0
 10
-2.4992100000000002
 20
6.0624100000000007
 30
0.0
 10
-2.2248900000000003
 20
5.6306100000000008
 30
0.0
 10
-2.2248900000000003
 20
5.6306100000000008
 30
0.0
 10
-2.2248900000000003
 20
5.6306100000000008
 30
0.0
 10
-2.6693900000000004
 20
6.0039900000000008
 30
0.0
 10
-3.0656300000000001
 20
6.2275100000000005
 30
0.0
 10
-3.4948900000000003
 20
5.9252500000000001
 30
0.0
 10
-3.4948900000000003
 20
5.9252500000000001
 30
0.0
 10
-3.0402300000000002
 20
5.5493300000000003
 30
0.0
 10
-2.4712700000000001
 20
5.1073700000000004
 30
0.0
 10
-2.3899900000000001
 20
4.6273100000000005
 30
0.0
 10
-2.3899900000000001
 20
4.6273100000000005
 30
0.0
 10
-2.7303500000000001
 20
5.1149900000000006
 30
0.0
 10
-3.1519900000000001
 20
5.5417100000000001
 30
0.0
 10
-3.6447500000000002
 20
5.8566700000000003
 30
0.0
 10
-3.6447500000000002
 20
5.8566700000000003
 30
0.0
 10
-3.7666700000000004
 20
5.8541300000000005
 30
0.0
 10
-3.8606500000000001
 20
5.77285
 30
0.0
 10
-3.9698700000000002
 20
5.7169700000000008
 30
0.0
 10
-3.9698700000000002
 20
5.7169700000000008
 30
0.0
 10
-3.1799300000000001
 20
5.0667300000000006
 30
0.0
 10
-2.5525500000000001
 20
4.1955100000000005
 30
0.0
 10
-2.2248900000000003
 20
3.2430100000000004
 30
0.0
 10
-2.2248900000000003
 20
3.2430100000000004
 30
0.0
 10
-1.6940300000000001
 20
3.5757500000000002
 30
0.0
 10
-1.1072900000000001
 20
3.8576900000000003
 30
0.0
 10
-0.49769
 20
3.9796100000000005
 30
0.0
 10
-0.49769
 20
3.9796100000000005
 30
0.0
 10
-0.5002300000000001
 20
4.0558100000000001
 30
0.0
 10
-0.63485
 20
4.2386900000000001
 30
0.0
 10
-0.5662700000000001
 20
4.2463100000000003
 30
0.0
 10
-0.5662700000000001
 20
4.2463100000000003
 30
0.0
 10
-0.3325900000000001
 20
3.7154500000000001
 30
0.0
 10
-0.33767
 20
4.2742500000000003
 30
0.0
 10
-0.6043700000000001
 20
4.5180899999999999
 30
0.0
 10
-0.6043700000000001
 20
4.5180899999999999
 30
0.0
 10
-0.6043700000000001
 20
4.5180899999999999
 30
0.0
 10
-0.7364500000000001
 20
4.8990900000000002
 30
0.0
 10
-0.7364500000000001
 20
4.8990900000000002
 30
0.0
 10
-0.7364500000000001
 20
4.8990900000000002
 30
0.0
 10
-0.45451
 20
4.6679500000000003
 30
0.0
 10
-0.35545
 20
4.2742500000000003
 30
0.0
 10
-0.18527
 20
3.9796100000000005
 30
0.0
 10
-0.18527
 20
3.9796100000000005
 30
0.0
 10
-0.19035
 20
4.4901500000000008
 30
0.0
 10
-0.6094500000000001
 20
4.9524300000000006
 30
0.0
 10
-0.82535
 20
5.3766100000000003
 30
0.0
 10
-0.82535
 20
5.3766100000000003
 30
0.0
 10
-0.39863
 20
4.9752900000000002
 30
0.0
 10
-0.09383
 20
4.5663500000000008
 30
0.0
 10
-0.02779
 20
4.0532700000000004
 30
0.0
 10
-0.02779
 20
4.0532700000000004
 30
0.0
 10
0.9221600000000001
 20
4.1320100000000002
 30
0.0
 10
1.4682600000000001
 20
3.9796100000000005
 30
0.0
 10
1.9940400000000003
 20
3.6519500000000003
 30
0.0
 10
1.9940400000000003
 20
3.6519500000000003
 30
0.0
 10
2.0626200000000003
 20
3.9186500000000004
 30
0.0
 10
1.9915000000000003
 20
4.2412300000000007
 30
0.0
 10
2.0270600000000001
 20
4.4799900000000008
 30
0.0
 10
2.0270600000000001
 20
4.4799900000000008
 30
0.0
 10
2.0397600000000002
 20
4.7263700000000002
 30
0.0
 10
2.0829400000000002
 20
4.2666300000000001
 30
0.0
 10
2.0956400000000004
 20
4.1802700000000002
 30
0.0
 10
2.0956400000000004
 20
4.1802700000000002
 30
0.0
 10
2.1134200000000001
 20
3.9923100000000002
 30
0.0
 10
2.0550000000000002
 20
3.7713300000000003
 30
0.0
 10
2.1312000000000002
 20
3.6113100000000005
 30
0.0
 10
2.1312000000000002
 20
3.6113100000000005
 30
0.0
 10
2.2023200000000003
 20
3.9389700000000003
 30
0.0
 10
2.16168
 20
4.3021900000000004
 30
0.0
 10
2.09056
 20
4.6171500000000005
 30
0.0
 10
2.09056
 20
4.6171500000000005
 30
0.0
 10
1.9940400000000003
 20
5.0362500000000008
 30
0.0
 10
2.0626200000000003
 20
4.9727500000000004
 30
0.0
 10
2.1413600000000002
 20
4.6273100000000005
 30
0.0
 10
2.1413600000000002
 20
4.6273100000000005
 30
0.0
 10
2.1413600000000002
 20
4.6273100000000005
 30
0.0
 10
2.2175600000000002
 20
4.2894900000000007
 30
0.0
 10
2.2175600000000002
 20
4.2894900000000007
 30
0.0
 10
2.2175600000000002
 20
4.2894900000000007
 30
0.0
 10
2.2404200000000003
 20
4.1853500000000006
 30
0.0
 10
2.24804
 20
4.07613
 30
0.0
 10
2.2429600000000001
 20
3.9618300000000004
 30
0.0
 10
2.2429600000000001
 20
3.9618300000000004
 30
0.0
 10
2.2429600000000001
 20
3.9618300000000004
 30
0.0
 10
2.24804
 20
3.5427300000000002
 30
0.0
 10
2.24804
 20
3.5427300000000002
 30
0.0
 10
2.24804
 20
3.5427300000000002
 30
0.0
 10
2.3979000000000004
 20
3.8703900000000004
 30
0.0
 10
2.3648800000000003
 20
4.2996500000000006
 30
0.0
 10
2.30138
 20
4.6552500000000006
 30
0.0
 10
2.30138
 20
4.6552500000000006
 30
0.0
 10
2.4029800000000003
 20
4.6019100000000002
 30
0.0
 10
2.3725000000000001
 20
4.4037900000000008
 30
0.0
 10
2.4080600000000003
 20
4.2894900000000007
 30
0.0
 10
2.4080600000000003
 20
4.2894900000000007
 30
0.0
 10
2.4283800000000002
 20
4.1472500000000005
 30
0.0
 10
2.4182200000000003
 20
4.0100899999999999
 30
0.0
 10
2.4080600000000003
 20
3.8653100000000005
 30
0.0
 10
2.4080600000000003
 20
3.8653100000000005
 30
0.0
 10
2.42076
 20
3.7078300000000004
 30
0.0
 10
2.38774
 20
3.5630500000000005
 30
0.0
 10
2.3547200000000004
 20
3.4157300000000004
 30
0.0
 10
2.3547200000000004
 20
3.4157300000000004
 30
0.0
 10
2.4385400000000002
 20
3.3319100000000001
 30
0.0
 10
2.5350600000000001
 20
3.2480900000000004
 30
0.0
 10
2.6290400000000003
 20
3.1744300000000001
 30
0.0
 10
2.6290400000000003
 20
3.1744300000000001
 30
0.0
 10
2.7357200000000002
 20
3.2785700000000002
 30
0.0
 10
2.67476
 20
3.5122500000000003
 30
0.0
 10
2.7306400000000002
 20
3.6468700000000003
 30
0.0
 10
2.7306400000000002
 20
3.6468700000000003
 30
0.0
 10
2.79922
 20
3.4589100000000004
 30
0.0
 10
2.7230200000000004
 20
3.2607900000000001
 30
0.0
 10
2.7382600000000004
 20
3.0652100000000004
 30
0.0
 10
2.7382600000000004
 20
3.0652100000000004
 30
0.0
 10
2.9059000000000004
 20
2.88741
 30
0.0
 10
3.0430600000000001
 20
2.6664300000000001
 30
0.0
 10
3.1878400000000005
 20
2.46577
 30
0.0
 10
3.1878400000000005
 20
2.46577
 30
0.0
 10
3.1878400000000005
 20
2.46577
 30
0.0
 10
3.3707200000000004
 20
3.0423500000000003
 30
0.0
 10
3.3707200000000004
 20
3.0423500000000003
 30
0.0
 10
3.3707200000000004
 20
3.0423500000000003
 30
0.0
 10
3.4367600000000005
 20
2.8391500000000001
 30
0.0
 10
3.1980000000000004
 20
2.1127100000000003
 30
0.0
 10
3.4189800000000004
 20
2.46069
 30
0.0
 10
3.4189800000000004
 20
2.46069
 30
0.0
 10
3.4799400000000005
 20
2.5826100000000003
 30
0.0
 10
3.5485200000000003
 20
2.71469
 30
0.0
 10
3.5688400000000002
 20
2.8543900000000004
 30
0.0
 10
3.5688400000000002
 20
2.8543900000000004
 30
0.0
 10
3.5688400000000002
 20
2.8543900000000004
 30
0.0
 10
3.6323400000000001
 20
3.0448900000000001
 30
0.0
 10
3.6323400000000001
 20
3.0448900000000001
 30
0.0
 10
3.6323400000000001
 20
3.0448900000000001
 30
0.0
 10
3.7364800000000002
 20
2.5546700000000002
 30
0.0
 10
3.2284800000000002
 20
2.1228700000000003
 30
0.0
 10
3.5815400000000004
 20
1.6859900000000001
 30
0.0
 10
3.5815400000000004
 20
1.6859900000000001
 30
0.0
 10
3.6628200000000004
 20
1.7545700000000002
 30
0.0
 10
3.7491800000000004
 20
1.8358500000000002
 30
0.0
 10
3.8025200000000003
 20
1.9272900000000002
 30
0.0
 10
3.8025200000000003
 20
1.9272900000000002
 30
0.0
 10
3.8914200000000001
 20
2.0593700000000004
 30
0.0
 10
3.9752400000000003
 20
2.1965300000000001
 30
0.0
 10
4.0438200000000002
 20
2.3387700000000002
 30
0.0
 10
4.0438200000000002
 20
2.3387700000000002
 30
0.0
 10
4.0895400000000004
 20
2.4048100000000003
 30
0.0
 10
4.0717600000000003
 20
2.5597500000000002
 30
0.0
 10
4.1632000000000007
 20
2.5546700000000002
 30
0.0
 10
4.1632000000000007
 20
2.5546700000000002
 30
0.0
 10
4.0768400000000007
 20
2.1584300000000001
 30
0.0
 10
3.8634800000000005
 20
1.7901300000000002
 30
0.0
 10
3.6069400000000003
 20
1.4675500000000001
 30
0.0
 10
3.6069400000000003
 20
1.4675500000000001
 30
0.0
 10
3.9142800000000002
 20
0.6445900000000001
 30
0.0
 10
3.6374200000000001
 20
-0.1174
 30
0.0
 10
3.2792800000000004
 20
-0.7778000000000001
 30
0.0
 10
3.2792800000000004
 20
-0.7778000000000001
 30
0.0
 10
2.9541600000000003
 20
-1.37978
 30
0.0
 10
2.5477600000000002
 20
-1.8776200000000001
 30
0.0
 10
2.6849200000000004
 20
-2.5634200000000003
 30
0.0
 10
2.6849200000000004
 20
-2.5634200000000003
 30
0.0
 10
2.7585800000000003
 20
-2.2992600000000003
 30
0.0
 10
2.7636600000000002
 20
-1.9766800000000002
 30
0.0
 10
2.88558
 20
-1.7201400000000002
 30
0.0
 10
2.88558
 20
-1.7201400000000002
 30
0.0
 10
2.9440000000000004
 20
-1.7480800000000001
 30
0.0
 10
2.8881200000000002
 20
-1.8573000000000002
 30
0.0
 10
2.88558
 20
-1.9131800000000001
 30
0.0
 10
2.88558
 20
-1.9131800000000001
 30
0.0
 10
2.8728800000000003
 20
-1.9690600000000003
 30
0.0
 10
2.8678000000000003
 20
-2.0274800000000002
 30
0.0
 10
2.8703400000000001
 20
-2.0884400000000003
 30
0.0
 10
2.8703400000000001
 20
-2.0884400000000003
 30
0.0
 10
2.8703400000000001
 20
-2.0884400000000003
 30
0.0
 10
2.8449400000000002
 20
-2.2383000000000002
 30
0.0
 10
2.8449400000000002
 20
-2.2383000000000002
 30
0.0
 10
2.8449400000000002
 20
-2.2383000000000002
 30
0.0
 10
2.8449400000000002
 20
-2.2383000000000002
 30
0.0
 10
2.8449400000000002
 20
-2.3754600000000003
 30
0.0
 10
2.8449400000000002
 20
-2.3754600000000003
 30
0.0
 10
2.8449400000000002
 20
-2.3754600000000003
 30
0.0
 10
2.8322400000000001
 20
-2.5202400000000003
 30
0.0
 10
2.8652600000000001
 20
-2.65232
 30
0.0
 10
2.9008200000000004
 20
-2.7818600000000004
 30
0.0
 10
2.9008200000000004
 20
-2.7818600000000004
 30
0.0
 10
2.8500200000000002
 20
-2.4669000000000003
 30
0.0
 10
3.1751400000000003
 20
-1.8065000000000002
 30
0.0
 10
2.9694000000000003
 20
-1.7506200000000001
 30
0.0
 10
2.9694000000000003
 20
-1.7506200000000001
 30
0.0
 10
3.4774000000000003
 20
-1.0953000000000002
 30
0.0
 10
3.9904800000000002
 20
-0.3841000000000001
 30
0.0
 10
4.1759000000000004
 20
0.42869
 30
0.0
 10
4.1759000000000004
 20
0.42869
 30
0.0
 10
4.04636
 20
0.38551
 30
0.0
 10
3.8838000000000004
 20
0.26867
 30
0.0
 10
3.7618800000000001
 20
0.30423
 30
0.0
 10
3.7618800000000001
 20
0.30423
 30
0.0
 10
3.9549200000000004
 20
0.39821
 30
0.0
 10
4.2444800000000003
 20
0.4845700000000001
 30
0.0
 10
4.2724200000000003
 20
0.7284100000000001
 30
0.0
 10
4.2724200000000003
 20
0.7284100000000001
 30
0.0
 10
4.1581200000000003
 20
0.68523
 30
0.0
 10
3.9981000000000004
 20
0.5277500000000001
 30
0.0
 10
3.9041200000000003
 20
0.55823
 30
0.0
 10
3.9041200000000003
 20
0.55823
 30
0.0
 10
4.2724200000000003
 20
0.7741300000000001
 30
0.0
 10
4.3206800000000003
 20
1.0027300000000001
 30
0.0
 10
4.3308400000000002
 20
1.39897
 30
0.0
 10
4.3308400000000002
 20
1.39897
 30
0.0
 10
4.3460800000000006
 20
1.8764900000000002
 30
0.0
 10
4.3181400000000005
 20
2.55213
 30
0.0
 10
4.1911400000000008
 20
2.9356700000000004
 30
0.0
 10
4.1911400000000008
 20
2.9356700000000004
 30
0.0
 10
4.0184200000000008
 20
2.6562700000000001
 30
0.0
 10
3.9168200000000004
 20
2.2854300000000003
 30
0.0
 10
3.7060000000000004
 20
2.04413
 30
0.0
 10
3.7060000000000004
 20
2.04413
 30
0.0
 10
3.7060000000000004
 20
2.04413
 30
0.0
 10
3.7949000000000002
 20
2.2346300000000001
 30
0.0
 10
3.7949000000000002
 20
2.2346300000000001
 30
0.0
 10
3.7949000000000002
 20
2.2346300000000001
 30
0.0
 10
3.8965000000000005
 20
2.5343500000000003
 30
0.0
 10
4.0920800000000002
 20
2.8315300000000003
 30
0.0
 10
4.1073200000000005
 20
3.14141
 30
0.0
 10
4.1073200000000005
 20
3.14141
 30
0.0
 10
3.9676200000000001
 20
2.8975700000000004
 30
0.0
 10
3.9219000000000004
 20
2.5546700000000002
 30
0.0
 10
3.7060000000000004
 20
2.3565500000000004
 30
0.0
 10
3.7060000000000004
 20
2.3565500000000004
 30
0.0
 10
3.7060000000000004
 20
2.4073500000000001
 30
0.0
 10
3.7314000000000003
 20
2.46069
 30
0.0
 10
3.7542600000000004
 20
2.5064100000000002
 30
0.0
 10
3.7542600000000004
 20
2.5064100000000002
 30
0.0
 10
3.7542600000000004
 20
2.5064100000000002
 30
0.0
 10
3.8482400000000001
 20
2.7400900000000004
 30
0.0
 10
3.8482400000000001
 20
2.7400900000000004
 30
0.0
 10
3.8482400000000001
 20
2.7400900000000004
 30
0.0
 10
4.16066
 20
3.1947500000000004
 30
0.0
 10
3.9066600000000005
 20
3.6951300000000002
 30
0.0
 10
3.5688400000000002
 20
4.0558100000000001
 30
0.0
 10
3.5688400000000002
 20
4.0558100000000001
 30
0.0
 10
3.5688400000000002
 20
4.0558100000000001
 30
0.0
 10
3.3935800000000005
 20
3.5630500000000005
 30
0.0
 10
3.3935800000000005
 20
3.5630500000000005
 30
0.0
 10
3.3935800000000005
 20
3.5630500000000005
 30
0.0
 10
3.3046800000000003
 20
3.3344500000000004
 30
0.0
 10
3.2792800000000004
 20
3.5173300000000003
 30
0.0
 10
3.3351600000000001
 20
3.6621100000000002
 30
0.0
 10
3.3351600000000001
 20
3.6621100000000002
 30
0.0
 10
3.3859600000000003
 20
3.9719900000000004
 30
0.0
 10
3.3351600000000001
 20
4.3047300000000002
 30
0.0
 10
3.1192600000000001
 20
4.5333300000000003
 30
0.0
 10
3.1192600000000001
 20
4.5333300000000003
 30
0.0
 10
3.1192600000000001
 20
4.5333300000000003
 30
0.0
 10
3.0913200000000001
 20
4.0024700000000006
 30
0.0
 10
3.0913200000000001
 20
4.0024700000000006
 30
0.0
 10
3.0913200000000001
 20
4.0024700000000006
 30
0.0
 10
3.0684600000000004
 20
3.7891100000000004
 30
0.0
 10
2.9821000000000004
 20
3.8145100000000003
 30
0.0
 10
3.0176600000000002
 20
4.0177100000000001
 30
0.0
 10
3.0176600000000002
 20
4.0177100000000001
 30
0.0
 10
3.0049600000000001
 20
4.3174300000000008
 30
0.0
 10
3.0786200000000004
 20
4.6654100000000005
 30
0.0
 10
2.8881200000000002
 20
4.8990900000000002
 30
0.0
 10
2.8881200000000002
 20
4.8990900000000002
 30
0.0
 10
2.9135200000000001
 20
4.6044500000000008
 30
0.0
 10
2.9592400000000003
 20
4.4012500000000001
 30
0.0
 10
2.8982800000000002
 20
4.1142300000000001
 30
0.0
 10
2.8982800000000002
 20
4.1142300000000001
 30
0.0
 10
2.9643200000000003
 20
3.8068900000000001
 30
0.0
 10
2.7738200000000002
 20
3.9618300000000004
 30
0.0
 10
2.8017600000000003
 20
4.2310700000000008
 30
0.0
 10
2.8017600000000003
 20
4.2310700000000008
 30
0.0
 10
2.8373200000000001
 20
4.5739700000000001
 30
0.0
 10
2.7433400000000003
 20
4.97783
 30
0.0
 10
2.7306400000000002
 20
5.0362500000000008
 30
0.0
 10
2.7306400000000002
 20
5.0362500000000008
 30
0.0
 10
2.3801200000000002
 20
5.3664500000000004
 30
0.0
 10
1.9788000000000001
 20
5.7068100000000008
 30
0.0
 10
1.5114400000000001
 20
5.8693700000000009
 30
0.0
 10
1.5114400000000001
 20
5.8693700000000009
 30
0.0
 10
1.5114400000000001
 20
5.8693700000000009
 30
0.0
 10
1.5901800000000001
 20
5.4350300000000002
 30
0.0
 10
1.5901800000000001
 20
5.4350300000000002
 30
0.0
 10
1.5901800000000001
 20
5.4350300000000002
 30
0.0
 10
1.6257400000000002
 20
5.3232700000000008
 30
0.0
 10
1.6587600000000002
 20
4.9498900000000008
 30
0.0
 10
1.5851000000000002
 20
5.2419900000000004
 30
0.0
 10
1.5851000000000002
 20
5.2419900000000004
 30
0.0
 10
1.5597000000000001
 20
5.38931
 30
0.0
 10
1.5317600000000002
 20
5.5417100000000001
 30
0.0
 10
1.4682600000000001
 20
5.6788700000000008
 30
0.0
 10
1.4682600000000001
 20
5.6788700000000008
 30
0.0
 10
1.3692000000000002
 20
5.9658900000000008
 30
0.0
 10
1.2015600000000002
 20
6.2884700000000002
 30
0.0
 10
0.8561200000000001
 20
6.2910100000000009
 30
0.0
 10
0.8561200000000001
 20
6.2910100000000009
 30
0.0
 10
1.0390000000000001
 20
5.9354100000000001
 30
0.0
 10
1.1380600000000001
 20
5.5544100000000007
 30
0.0
 10
1.19394
 20
5.1632500000000006
 30
0.0
 10
1.19394
 20
5.1632500000000006
 30
0.0
 10
1.19394
 20
5.1632500000000006
 30
0.0
 10
1.19648
 20
5.0845100000000008
 30
0.0
 10
1.19648
 20
5.0845100000000008
 30
0.0
 10
1.19648
 20
5.0845100000000008
 30
0.0
 10
1.0110600000000001
 20
5.5010700000000003
 30
0.0
 10
1.0085200000000001
 20
6.2300500000000003
 30
0.0
 10
0.48782
 20
6.3875300000000008
 30
0.0
 10
0.48782
 20
6.3875300000000008
 30
0.0
 10
0.48782
 20
6.3875300000000008
 30
0.0
 10
0.59704
 20
6.0928900000000006
 30
0.0
 10
0.59704
 20
6.0928900000000006
 30
0.0
 10
0.59704
 20
6.0928900000000006
 30
0.0
 10
0.6300600000000001
 20
5.8871500000000001
 30
0.0
 10
0.8332600000000001
 20
5.6966500000000009
 30
0.0
 10
0.76722
 20
5.4934500000000002
 30
0.0
 10
0.76722
 20
5.4934500000000002
 30
0.0
 10
0.68086
 20
5.6052100000000005
 30
0.0
 10
0.63514
 20
5.8312700000000008
 30
0.0
 10
0.51576
 20
5.9709700000000003
 30
0.0
 10
0.51576
 20
5.9709700000000003
 30
0.0
 10
0.4167
 20
6.0852700000000004
 30
0.0
 10
0.3278
 20
6.2071900000000007
 30
0.0
 10
0.21604
 20
6.3037100000000006
 30
0.0
 10
0.21604
 20
6.3037100000000006
 30
0.0
 10
0.36336
 20
5.8922300000000005
 30
0.0
 10
0.64276
 20
5.5036100000000001
 30
0.0
 10
0.6732400000000001
 20
5.0565700000000007
 30
0.0
 10
0.6732400000000001
 20
5.0565700000000007
 30
0.0
 10
0.6199
 20
5.0362500000000008
 30
0.0
 10
0.61482
 20
5.1073700000000004
 30
0.0
 10
0.59704
 20
5.1378500000000003
 30
0.0
 10
0.59704
 20
5.1378500000000003
 30
0.0
 10
0.44464
 20
5.6687100000000008
 30
0.0
 10
0.04078
 20
6.0979700000000001
 30
0.0
 10
-0.40117
 20
6.4281700000000006
 30
0.0
 10
-0.40117
 20
6.4281700000000006
 30
0.0
 10
-1.0920500000000002
 20
6.5653300000000003
 30
0.0
 10
-1.8286500000000001
 20
6.4154700000000009
 30
0.0
 10
-2.4839700000000002
 20
6.2376700000000005
 30
0.0
 10
-2.4839700000000002
 20
6.2376700000000005
 30
0.0
 10
-2.31379
 20
6.0014500000000002
 30
0.0
 10
-2.0572500000000002
 20
5.8312700000000008
 30
0.0
 10
-1.9048500000000002
 20
5.5798100000000002
 30
0.0
 10
-1.9048500000000002
 20
5.5798100000000002
 30
0.0
 10
-1.3714500000000001
 20
4.7136700000000005
 30
0.0
 10
-2.4763500000000001
 20
6.0471700000000004
 30
0.0
 10
-2.4992100000000002
 20
6.0624100000000007
 30
0.0
  0
SPLINE
  5
27
100
AcDbEntity
  8
Ebene 1
 62
     7
100
AcDbSpline
210
0.0
220
0.0
230
1.0
 70
     1
 71
     3
 72
    16
 73
    12
 74
     0
 42
0.0000000001
 43
0.0000000001
 40
0.0
 40
0.0
 40
0.0
 40
0.0
 40
0.3333333333333333
 40
0.3333333333333333
 40
0.3333333333333333
 40
0.3333333333333333
 40
0.6666666666666666
 40
0.6666666666666666
 40
0.6666666666666666
 40
0.6666666666666666
 40
1.0
 40
1.0
 40
1.0
 40
1.0
 10
-3.9978100000000003
 20
4.5612700000000004
 30
0.0
 10
-3.9978100000000003
 20
4.5612700000000004
 30
0.0
 10
-3.9444700000000004
 20
4.4571300000000003
 30
0.0
 10
-3.9444700000000004
 20
4.4571300000000003
 30
0.0
 10
-3.9444700000000004
 20
4.4571300000000003
 30
0.0
 10
-3.9444700000000004
 20
4.4571300000000003
 30
0.0
 10
-3.3704300000000003
 20
4.2513900000000007
 30
0.0
 10
-3.3704300000000003
 20
4.2513900000000007
 30
0.0
 10
-3.3704300000000003
 20
4.2513900000000007
 30
0.0
 10
-3.5482300000000002
 20
4.3987100000000003
 30
0.0
 10
-3.7920700000000003
 20
4.4723700000000006
 30
0.0
 10
-3.9978100000000003
 20
4.5612700000000004
 30
0.0
  0
SPLINE
  5
28
100
AcDbEntity
  8
Ebene 1
 62
     7
100
AcDbSpline
210
0.0
220
0.0
230
1.0
 70
     1
 71
     3
 72
   184
 73
   180
 74
     0
 42
0.0000000001
 43
0.0000000001
 40
0.0
 40
0.0
 40
0.0
 40
0.0
 40
0.0222222222222222
 40
0.0222222222222222
 40
0.0222222222222222
 40
0.0222222222222222
 40
0.0444444444444444
 40
0.0444444444444444
 40
0.0444444444444444
 40
0.0444444444444444
 40
0.0666666666666667
 40
0.0666666666666667
 40
0.0666666666666667
 40
0.0666666666666667
 40
0.0888888888888889
 40
0.0888888888888889
 40
0.0888888888888889
 40
0.0888888888888889
 40
0.1111111111111111
 40
0.1111111111111111
 40
0.1111111111111111
 40
0.1111111111111111
 40
0.1333333333333333
 40
0.1333333333333333
 40
0.1333333333333333
 40
0.1333333333333333
 40
0.1555555555555556
 40
0.1555555555555556
 40
0.1555555555555556
 40
0.1555555555555556
 40
0.1777777777777778
 40
0.1777777777777778
 40
0.1777777777777778
 40
0.1777777777777778
 40
0.2
 40
0.2
 40
0.2
 40
0.2
 40
0.2222222222222222
 40
0.2222222222222222
 40
0.2222222222222222
 40
0.2222222222222222
 40
0.2444444444444445
 40
0.2444444444444445
 40
0.2444444444444445
 40
0.2444444444444445
 40
0.2666666666666667
 40
0.2666666666666667
 40
0.2666666666666667
 40
0.2666666666666667
 40
0.2888888888888889
 40
0.2888888888888889
 40
0.2888888888888889
 40
0.2888888888888889
 40
0.3111111111111111
 40
0.3111111111111111
 40
0.3111111111111111
 40
0.3111111111111111
 40
0.3333333333333333
 40
0.3333333333333333
 40
0.3333333333333333
 40
0.3333333333333333
 40
0.3555555555555555
 40
0.3555555555555555
 40
0.3555555555555555
 40
0.3555555555555555
 40
0.3777777777777777
 40
0.3777777777777777
 40
0.3777777777777777
 40
0.3777777777777777
 40
0.3999999999999999
 40
0.3999999999999999
 40
0.3999999999999999
 40
0.3999999999999999
 40
0.4222222222222221
 40
0.4222222222222221
 40
0.4222222222222221
 40
0.4222222222222221
 40
0.4444444444444443
 40
0.4444444444444443
 40
0.4444444444444443
 40
0.4444444444444443
 40
0.4666666666666665
 40
0.4666666666666665
 40
0.4666666666666665
 40
0.4666666666666665
 40
0.4888888888888887
 40
0.4888888888888887
 40
0.4888888888888887
 40
0.4888888888888887
 40
0.5111111111111109
 40
0.5111111111111109
 40
0.5111111111111109
 40
0.5111111111111109
 40
0.5333333333333331
 40
0.5333333333333331
 40
0.5333333333333331
 40
0.5333333333333331
 40
0.5555555555555554
 40
0.5555555555555554
 40
0.5555555555555554
 40
0.5555555555555554
 40
0.5777777777777776
 40
0.5777777777777776
 40
0.5777777777777776
 40
0.5777777777777776
 40
0.5999999999999999
 40
0.5999999999999999
 40
0.5999999999999999
 40
0.5999999999999999
 40
0.6222222222222221
 40
0.6222222222222221
 40
0.6222222222222221
 40
0.6222222222222221
 40
0.6444444444444444
 40
0.6444444444444444
 40
0.6444444444444444
 40
0.6444444444444444
 40
0.6666666666666666
 40
0.6666666666666666
 40
0.6666666666666666
 40
0.6666666666666666
 40
0.6888888888888889
 40
0.6888888888888889
 40
0.6888888888888889
 40
0.6888888888888889
 40
0.7111111111111111
 40
0.7111111111111111
 40
0.7111111111111111
 40
0.7111111111111111
 40
0.7333333333333334
 40
0.7333333333333334
 40
0.7333333333333334
 40
0.7333333333333334
 40
0.7555555555555557
 40
0.7555555555555557
 40
0.7555555555555557
 40
0.7555555555555557
 40
0.7777777777777779
 40
0.7777777777777779
 40
0.7777777777777779
 40
0.7777777777777779
 40
0.8000000000000002
 40
0.8000000000000002
 40
0.8000000000000002
 40
0.8000000000000002
 40
0.8222222222222224
 40
0.8222222222222224
 40
0.8222222222222224
 40
0.8222222222222224
 40
0.8444444444444447
 40
0.8444444444444447
 40
0.8444444444444447
 40
0.8444444444444447
 40
0.8666666666666669
 40
0.8666666666666669
 40
0.8666666666666669
 40
0.8666666666666669
 40
0.8888888888888892
 40
0.8888888888888892
 40
0.8888888888888892
 40
0.8888888888888892
 40
0.9111111111111114
 40
0.9111111111111114
 40
0.9111111111111114
 40
0.9111111111111114
 40
0.9333333333333337
 40
0.9333333333333337
 40
0.9333333333333337
 40
0.9333333333333337
 40
0.9555555555555559
 40
0.9555555555555559
 40
0.9555555555555559
 40
0.9555555555555559
 40
0.9777777777777782
 40
0.9777777777777782
 40
0.9777777777777782
 40
0.9777777777777782
 40
1.0
 40
1.0
 40
1.0
 40
1.0
 10
0.19826
 20
3.9618300000000004
 30
0.0
 10
-0.68057
 20
3.9542100000000002
 30
0.0
 10
-1.5289300000000001
 20
3.6316300000000004
 30
0.0
 10
-2.1969500000000002
 20
3.0652100000000004
 30
0.0
 10
-2.1969500000000002
 20
3.0652100000000004
 30
0.0
 10
-2.4839700000000002
 20
3.3293700000000004
 30
0.0
 10
-2.9741900000000001
 20
2.6207100000000003
 30
0.0
 10
-3.0986500000000001
 20
2.2828900000000001
 30
0.0
 10
-3.0986500000000001
 20
2.2828900000000001
 30
0.0
 10
-3.0707100000000001
 20
2.1406500000000004
 30
0.0
 10
-3.0173700000000001
 20
2.0034900000000002
 30
0.0
 10
-2.8929100000000001
 20
1.8891900000000001
 30
0.0
 10
-2.8929100000000001
 20
1.8891900000000001
 30
0.0
 10
-2.8929100000000001
 20
1.7901300000000002
 30
0.0
 10
-2.9487900000000002
 20
1.6656700000000002
 30
0.0
 10
-3.0021300000000002
 20
1.5666100000000001
 30
0.0
 10
-3.0021300000000002
 20
1.5666100000000001
 30
0.0
 10
-2.8243300000000002
 20
1.5539100000000001
 30
0.0
 10
-2.6338300000000001
 20
1.53105
 30
0.0
 10
-2.5931900000000003
 20
1.3303900000000002
 30
0.0
 10
-2.5931900000000003
 20
1.3303900000000002
 30
0.0
 10
-2.5931900000000003
 20
1.3303900000000002
 30
0.0
 10
-2.4179300000000001
 20
0.40329
 30
0.0
 10
-2.4179300000000001
 20
0.40329
 30
0.0
 10
-2.4179300000000001
 20
0.40329
 30
0.0
 10
-2.5119100000000003
 20
0.16453
 30
0.0
 10
-2.8116300000000001
 20
0.17469
 30
0.0
 10
-2.9081500000000005
 20
0.4007500000000001
 30
0.0
 10
-2.9081500000000005
 20
0.4007500000000001
 30
0.0
 10
-2.9081500000000005
 20
0.4007500000000001
 30
0.0
 10
-2.9614900000000004
 20
0.00705
 30
0.0
 10
-2.9614900000000004
 20
0.00705
 30
0.0
 10
-2.9614900000000004
 20
0.00705
 30
0.0
 10
-2.9614900000000004
 20
-0.05136
 30
0.0
 10
-2.9741900000000001
 20
-0.30536
 30
0.0
 10
-2.98943
 20
-0.23424
 30
0.0
 10
-2.98943
 20
-0.23424
 30
0.0
 10
-3.0300700000000003
 20
-0.07676
 30
0.0
 10
-2.9081500000000005
 20
0.31947
 30
0.0
 10
-3.0173700000000001
 20
0.31185
 30
0.0
 10
-3.0173700000000001
 20
0.31185
 30
0.0
 10
-3.0707100000000001
 20
0.25851
 30
0.0
 10
-3.1113500000000003
 20
0.29407
 30
0.0
 10
-3.1240500000000004
 20
0.3575700000000001
 30
0.0
 10
-3.1240500000000004
 20
0.3575700000000001
 30
0.0
 10
-3.1240500000000004
 20
0.3575700000000001
 30
0.0
 10
-3.0808700000000004
 20
0.5633100000000001
 30
0.0
 10
-3.0808700000000004
 20
0.5633100000000001
 30
0.0
 10
-3.0808700000000004
 20
0.5633100000000001
 30
0.0
 10
-3.0808700000000004
 20
0.5633100000000001
 30
0.0
 10
-3.1418300000000001
 20
0.7538100000000001
 30
0.0
 10
-3.1418300000000001
 20
0.7538100000000001
 30
0.0
 10
-3.1418300000000001
 20
0.7538100000000001
 30
0.0
 10
-3.2002500000000005
 20
0.4413900000000001
 30
0.0
 10
-3.3297900000000005
 20
0.10611
 30
0.0
 10
-3.2891500000000002
 20
-0.2317
 30
0.0
 10
-3.2891500000000002
 20
-0.2317
 30
0.0
 10
-3.2383500000000001
 20
-0.69652
 30
0.0
 10
-3.3856700000000002
 20
-1.1435600000000001
 30
0.0
 10
-3.4237700000000002
 20
-1.5804400000000001
 30
0.0
 10
-3.4237700000000002
 20
-1.5804400000000001
 30
0.0
 10
-3.4237700000000002
 20
-1.5804400000000001
 30
0.0
 10
-3.1291300000000004
 20
-1.3620000000000001
 30
0.0
 10
-3.1291300000000004
 20
-1.3620000000000001
 30
0.0
 10
-3.1291300000000004
 20
-1.3620000000000001
 30
0.0
 10
-3.1291300000000004
 20
-1.3620000000000001
 30
0.0
 10
-3.0986500000000001
 20
-1.1511800000000001
 30
0.0
 10
-3.0986500000000001
 20
-1.1511800000000001
 30
0.0
 10
-3.0986500000000001
 20
-1.1511800000000001
 30
0.0
 10
-3.0986500000000001
 20
-1.1511800000000001
 30
0.0
 10
-3.0707100000000001
 20
-1.20452
 30
0.0
 10
-3.0707100000000001
 20
-1.20452
 30
0.0
 10
-3.0707100000000001
 20
-1.20452
 30
0.0
 10
-3.1392900000000004
 20
-1.5575800000000002
 30
0.0
 10
-2.8522700000000003
 20
-1.37216
 30
0.0
 10
-2.7430500000000002
 20
-1.6769600000000002
 30
0.0
 10
-2.7430500000000002
 20
-1.6769600000000002
 30
0.0
 10
-2.7430500000000002
 20
-1.6769600000000002
 30
0.0
 10
-2.7684500000000001
 20
-1.20198
 30
0.0
 10
-2.7684500000000001
 20
-1.20198
 30
0.0
 10
-2.7684500000000001
 20
-1.20198
 30
0.0
 10
-2.7811500000000002
 20
-1.16388
 30
0.0
 10
-2.7303500000000001
 20
-1.0267200000000001
 30
0.0
 10
-2.7024100000000004
 20
-1.08006
 30
0.0
 10
-2.7024100000000004
 20
-1.08006
 30
0.0
 10
-2.7024100000000004
 20
-1.08006
 30
0.0
 10
-2.6871700000000001
 20
-1.6007600000000002
 30
0.0
 10
-2.6871700000000001
 20
-1.6007600000000002
 30
0.0
 10
-2.6871700000000001
 20
-1.6007600000000002
 30
0.0
 10
-2.4687300000000003
 20
-1.9614400000000001
 30
0.0
 10
-2.6008100000000001
 20
-0.5187200000000001
 30
0.0
 10
-2.48651
 20
-1.2832600000000001
 30
0.0
 10
-2.48651
 20
-1.2832600000000001
 30
0.0
 10
-2.48651
 20
-1.2832600000000001
 30
0.0
 10
-2.5119100000000003
 20
-1.5296400000000001
 30
0.0
 10
-2.5119100000000003
 20
-1.5296400000000001
 30
0.0
 10
-2.5119100000000003
 20
-1.5296400000000001
 30
0.0
 10
-2.5119100000000003
 20
-1.5296400000000001
 30
0.0
 10
-2.4839700000000002
 20
-1.7379200000000001
 30
0.0
 10
-2.4839700000000002
 20
-1.7379200000000001
 30
0.0
 10
-2.4839700000000002
 20
-1.7379200000000001
 30
0.0
 10
-2.4839700000000002
 20
-1.8369800000000001
 30
0.0
 10
-2.3214100000000002
 20
-1.6287
 30
0.0
 10
-2.26553
 20
-1.7861800000000001
 30
0.0
 10
-2.26553
 20
-1.7861800000000001
 30
0.0
 10
-2.18425
 20
-1.7582400000000002
 30
0.0
 10
-2.2807700000000004
 20
-1.5169400000000002
 30
0.0
 10
-2.2248900000000003
 20
-1.4255000000000002
 30
0.0
 10
-2.2248900000000003
 20
-1.4255000000000002
 30
0.0
 10
-2.1385300000000003
 20
-1.25024
 30
0.0
 10
-2.14107
 20
-1.42042
 30
0.0
 10
-2.1486900000000002
 20
-1.62616
 30
0.0
 10
-2.1486900000000002
 20
-1.62616
 30
0.0
 10
-2.1588500000000002
 20
-1.8369800000000001
 30
0.0
 10
-2.0293100000000002
 20
-1.9436600000000002
 30
0.0
 10
-1.8438900000000003
 20
-1.8674600000000001
 30
0.0
 10
-1.8438900000000003
 20
-1.8674600000000001
 30
0.0
 10
-1.8438900000000003
 20
-1.8674600000000001
 30
0.0
 10
-1.9581900000000001
 20
-1.1562600000000001
 30
0.0
 10
-1.9581900000000001
 20
-1.1562600000000001
 30
0.0
 10
-1.9581900000000001
 20
-1.1562600000000001
 30
0.0
 10
-1.9581900000000001
 20
-1.1562600000000001
 30
0.0
 10
-1.8489700000000002
 20
-1.29342
 30
0.0
 10
-1.8489700000000002
 20
-1.29342
 30
0.0
 10
-1.8489700000000002
 20
-1.29342
 30
0.0
 10
-1.8616700000000002
 20
-1.49916
 30
0.0
 10
-1.8286500000000001
 20
-1.9792200000000002
 30
0.0
 10
-1.6381500000000002
 20
-1.6414000000000002
 30
0.0
 10
-1.6381500000000002
 20
-1.6414000000000002
 30
0.0
 10
-1.6381500000000002
 20
-1.6414000000000002
 30
0.0
 10
-1.6813300000000002
 20
-1.5398000000000001
 30
0.0
 10
-1.6813300000000002
 20
-1.5398000000000001
 30
0.0
 10
-1.6813300000000002
 20
-1.5398000000000001
 30
0.0
 10
-1.6813300000000002
 20
-1.5398000000000001
 30
0.0
 10
-1.6940300000000001
 20
-1.37978
 30
0.0
 10
-1.6940300000000001
 20
-1.37978
 30
0.0
 10
-1.6940300000000001
 20
-1.37978
 30
0.0
 10
-1.5289300000000001
 20
-1.5398000000000001
 30
0.0
 10
-1.62799
 20
-1.7582400000000002
 30
0.0
 10
-1.3943100000000002
 20
-1.5728200000000001
 30
0.0
 10
-1.3943100000000002
 20
-1.5728200000000001
 30
0.0
 10
-1.5568700000000002
 20
-0.9987800000000001
 30
0.0
 10
-1.8718300000000001
 20
-0.4222
 30
0.0
 10
-2.3468100000000001
 20
-0.03104
 30
0.0
 10
-2.3468100000000001
 20
-0.03104
 30
0.0
 10
-2.4306300000000003
 20
-0.01072
 30
0.0
 10
-2.4026900000000002
 20
-0.13518
 30
0.0
 10
-2.4560300000000002
 20
-0.14026
 30
0.0
 10
-2.4560300000000002
 20
-0.14026
 30
0.0
 10
-2.4560300000000002
 20
-0.14026
 30
0.0
 10
-2.4712700000000001
 20
-0.03104
 30
0.0
 10
-2.4712700000000001
 20
-0.03104
 30
0.0
 10
-2.4712700000000001
 20
-0.03104
 30
0.0
 10
-2.4712700000000001
 20
-0.03104
 30
0.0
 10
-2.4026900000000002
 20
0.06039
 30
0.0
 10
-2.4026900000000002
 20
0.06039
 30
0.0
 10
-2.4026900000000002
 20
0.06039
 30
0.0
 10
-1.8972300000000002
 20
-0.2063
 30
0.0
 10
-1.42225
 20
-1.2832600000000001
 30
0.0
 10
-0.7110500000000001
 20
-0.6863600000000001
 30
0.0
 10
-0.7110500000000001
 20
-0.6863600000000001
 30
0.0
 10
-0.39101
 20
-0.7397
 30
0.0
 10
-0.19797
 20
-0.9810000000000001
 30
0.0
 10
0.10682
 20
-1.0165600000000001
 30
0.0
 10
0.10682
 20
-1.0165600000000001
 30
0.0
 10
0.02808
 20
-1.1080000000000001
 30
0.0
 10
-0.16495
 20
-1.1511800000000001
 30
0.0
 10
-0.02779
 20
-1.37724
 30
0.0
 10
-0.02779
 20
-1.37724
 30
0.0
 10
0.11444
 20
-1.6642600000000001
 30
0.0
 10
0.37352
 20
-1.3950200000000001
 30
0.0
 10
0.5945
 20
-1.46106
 30
0.0
 10
0.5945
 20
-1.46106
 30
0.0
 10
1.5978000000000001
 20
-1.9462000000000002
 30
0.0
 10
2.9516200000000001
 20
-1.4483600000000001
 30
0.0
 10
3.3453200000000001
 20
-0.36632
 30
0.0
 10
3.3453200000000001
 20
-0.36632
 30
0.0
 10
4.2876600000000007
 20
1.7088500000000002
 30
0.0
 10
2.38774
 20
4.1345499999999999
 30
0.0
 10
0.19826
 20
3.9618300000000004
 30
0.0
  0
SPLINE
  5
29
100
AcDbEntity
  8
Ebene 1
100
AcDbSpline
210
0.0
220
0.0
230
1.0
 70
     1
 71
     3
 72
    36
 73
    32
 74
     0
 42
0.0000000001
 43
0.0000000001
 40
0.0
 40
0.0
 40
0.0
 40
0.0
 40
0.125
 40
0.125
 40
0.125
 40
0.125
 40
0.25
 40
0.25
 40
0.25
 40
0.25
 40
0.375
 40
0.375
 40
0.375
 40
0.375
 40
0.5
 40
0.5
 40
0.5
 40
0.5
 40
0.625
 40
0.625
 40
0.625
 40
0.625
 40
0.75
 40
0.75
 40
0.75
 40
0.75
 40
0.875
 40
0.875
 40
0.875
 40
0.875
 40
1.0
 40
1.0
 40
1.0
 40
1.0
 10
-1.03871
 20
2.7477100000000001
 30
0.0
 10
-1.3130300000000001
 20
2.7883500000000003
 30
0.0
 10
-1.5162300000000002
 20
2.6207100000000003
 30
0.0
 10
-1.7194300000000002
 20
2.4937100000000001
 30
0.0
 10
-1.7194300000000002
 20
2.4937100000000001
 30
0.0
 10
-1.7194300000000002
 20
2.4937100000000001
 30
0.0
 10
-1.9378700000000002
 20
2.4733900000000002
 30
0.0
 10
-1.9378700000000002
 20
2.4733900000000002
 30
0.0
 10
-1.9378700000000002
 20
2.4733900000000002
 30
0.0
 10
-1.9124700000000001
 20
2.3870300000000002
 30
0.0
 10
-1.7753100000000002
 20
2.3997300000000004
 30
0.0
 10
-1.7067300000000001
 20
2.41751
 30
0.0
 10
-1.7067300000000001
 20
2.41751
 30
0.0
 10
-1.6533900000000001
 20
2.4124300000000001
 30
0.0
 10
-1.6254500000000001
 20
2.4479900000000003
 30
0.0
 10
-1.5848100000000001
 20
2.46577
 30
0.0
 10
-1.5848100000000001
 20
2.46577
 30
0.0
 10
-1.1352300000000002
 20
2.8721700000000001
 30
0.0
 10
-0.5865900000000001
 20
2.4454500000000001
 30
0.0
 10
-0.24623
 20
2.0847700000000002
 30
0.0
 10
-0.24623
 20
2.0847700000000002
 30
0.0
 10
-0.24623
 20
2.0847700000000002
 30
0.0
 10
-0.06081
 20
2.0034900000000002
 30
0.0
 10
-0.06081
 20
2.0034900000000002
 30
0.0
 10
-0.06081
 20
2.0034900000000002
 30
0.0
 10
-0.08621
 20
2.1076300000000003
 30
0.0
 10
-0.20305
 20
2.16351
 30
0.0
 10
-0.27925
 20
2.2422500000000003
 30
0.0
 10
-0.27925
 20
2.2422500000000003
 30
0.0
 10
-0.5180100000000001
 20
2.4302100000000002
 30
0.0
 10
-0.7872500000000001
 20
2.5851500000000001
 30
0.0
 10
-1.03871
 20
2.7477100000000001
 30
0.0
  0
SPLINE
  5
2A
100
AcDbEntity
  8
Ebene 1
100
AcDbSpline
210
0.0
220
0.0
230
1.0
 70
     1
 71
     3
 72
    24
 73
    20
 74
     0
 42
0.0000000001
 43
0.0000000001
 40
0.0
 40
0.0
 40
0.0
 40
0.0
 40
0.2
 40
0.2
 40
0.2
 40
0.2
 40
0.4
 40
0.4
 40
0.4
 40
0.4
 40
0.6000000000000001
 40
0.6000000000000001
 40
0.6000000000000001
 40
0.6000000000000001
 40
0.8
 40
0.8
 40
0.8
 40
0.8
 40
1.0
 40
1.0
 40
1.0
 40
1.0
 10
-2.4839700000000002
 20
2.2701900000000004
 30
0.0
 10
-2.4839700000000002
 20
2.2701900000000004
 30
0.0
 10
-2.5398500000000004
 20
2.2676500000000002
 30
0.0
 10
-2.5398500000000004
 20
2.2676500000000002
 30
0.0
 10
-2.5398500000000004
 20
2.2676500000000002
 30
0.0
 10
-2.5804900000000002
 20
2.1025500000000004
 30
0.0
 10
-2.4839700000000002
 20
1.7875900000000002
 30
0.0
 10
-2.26553
 20
1.8891900000000001
 30
0.0
 10
-2.26553
 20
1.8891900000000001
 30
0.0
 10
-2.26553
 20
1.8891900000000001
 30
0.0
 10
-2.1715500000000003
 20
1.9018900000000001
 30
0.0
 10
-2.1715500000000003
 20
1.9018900000000001
 30
0.0
 10
-2.1715500000000003
 20
1.9018900000000001
 30
0.0
 10
-2.1715500000000003
 20
1.9171300000000002
 30
0.0
 10
-2.18425
 20
1.9272900000000002
 30
0.0
 10
-2.1969500000000002
 20
1.9298300000000002
 30
0.0
 10
-2.1969500000000002
 20
1.9298300000000002
 30
0.0
 10
-2.36205
 20
1.9095100000000003
 30
0.0
 10
-2.4839700000000002
 20
2.1279500000000002
 30
0.0
 10
-2.4839700000000002
 20
2.2701900000000004
 30
0.0
  0
SPLINE
  5
2B
100
AcDbEntity
  8
Ebene 1
100
AcDbSpline
210
0.0
220
0.0
230
1.0
 70
     1
 71
     3
 72
    60
 73
    56
 74
     0
 42
0.0000000001
 43
0.0000000001
 40
0.0
 40
0.0
 40
0.0
 40
0.0
 40
0.0714285714285714
 40
0.0714285714285714
 40
0.0714285714285714
 40
0.0714285714285714
 40
0.1428571428571429
 40
0.1428571428571429
 40
0.1428571428571429
 40
0.1428571428571429
 40
0.2142857142857143
 40
0.2142857142857143
 40
0.2142857142857143
 40
0.2142857142857143
 40
0.2857142857142857
 40
0.2857142857142857
 40
0.2857142857142857
 40
0.2857142857142857
 40
0.3571428571428571
 40
0.3571428571428571
 40
0.3571428571428571
 40
0.3571428571428571
 40
0.4285714285714285
 40
0.4285714285714285
 40
0.4285714285714285
 40
0.4285714285714285
 40
0.4999999999999999
 40
0.4999999999999999
 40
0.4999999999999999
 40
0.4999999999999999
 40
0.5714285714285713
 40
0.5714285714285713
 40
0.5714285714285713
 40
0.5714285714285713
 40
0.6428571428571427
 40
0.6428571428571427
 40
0.6428571428571427
 40
0.6428571428571427
 40
0.7142857142857141
 40
0.7142857142857141
 40
0.7142857142857141
 40
0.7142857142857141
 40
0.7857142857142855
 40
0.7857142857142855
 40
0.7857142857142855
 40
0.7857142857142855
 40
0.8571428571428569
 40
0.8571428571428569
 40
0.8571428571428569
 40
0.8571428571428569
 40
0.9285714285714283
 40
0.9285714285714283
 40
0.9285714285714283
 40
0.9285714285714283
 40
1.0
 40
1.0
 40
1.0
 40
1.0
 10
1.3844400000000001
 20
2.16351
 30
0.0
 10
1.2625200000000001
 20
2.2397100000000001
 30
0.0
 10
0.9882000000000001
 20
2.1711300000000002
 30
0.0
 10
0.76468
 20
2.0720700000000001
 30
0.0
 10
0.76468
 20
2.0720700000000001
 30
0.0
 10
0.43448
 20
1.9272900000000002
 30
0.0
 10
0.11952
 20
1.6021700000000001
 30
0.0
 10
0.27954
 20
1.2084700000000002
 30
0.0
 10
0.27954
 20
1.2084700000000002
 30
0.0
 10
0.27954
 20
1.2084700000000002
 30
0.0
 10
0.34812
 20
0.8808100000000001
 30
0.0
 10
0.34812
 20
0.8808100000000001
 30
0.0
 10
0.34812
 20
0.8808100000000001
 30
0.0
 10
0.35066
 20
0.7741300000000001
 30
0.0
 10
0.36082
 20
0.66491
 30
0.0
 10
0.30494
 20
0.5709300000000001
 30
0.0
 10
0.30494
 20
0.5709300000000001
 30
0.0
 10
0.15
 20
0.55315
 30
0.0
 10
0.0484
 20
0.7182500000000001
 30
0.0
 10
-0.09637
 20
0.7131700000000001
 30
0.0
 10
-0.09637
 20
0.7131700000000001
 30
0.0
 10
0.0103
 20
0.6115700000000001
 30
0.0
 10
0.10682
 20
0.46933
 30
0.0
 10
0.25414
 20
0.41599
 30
0.0
 10
0.25414
 20
0.41599
 30
0.0
 10
0.17286
 20
0.25343
 30
0.0
 10
0.08396
 20
0.09087
 30
0.0
 10
0.0484
 20
-0.08438
 30
0.0
 10
0.0484
 20
-0.08438
 30
0.0
 10
-0.02525
 20
-0.3536200000000001
 30
0.0
 10
0.0484
 20
-0.6482600000000001
 30
0.0
 10
0.24144
 20
-0.8362200000000001
 30
0.0
 10
0.24144
 20
-0.8362200000000001
 30
0.0
 10
0.24144
 20
-0.8362200000000001
 30
0.0
 10
0.1881
 20
-0.9810000000000001
 30
0.0
 10
0.1881
 20
-0.9810000000000001
 30
0.0
 10
0.1881
 20
-0.9810000000000001
 30
0.0
 10
0.1881
 20
-0.9810000000000001
 30
0.0
 10
0.31764
 20
-0.9937
 30
0.0
 10
0.31764
 20
-0.9937
 30
0.0
 10
0.31764
 20
-0.9937
 30
0.0
 10
0.3913
 20
-0.9251200000000001
 30
0.0
 10
0.3278
 20
-0.8159000000000001
 30
0.0
 10
0.30748
 20
-0.7397
 30
0.0
 10
0.30748
 20
-0.7397
 30
0.0
 10
-0.21321
 20
-0.28758
 30
0.0
 10
0.3659
 20
0.19247
 30
0.0
 10
0.5386200000000001
 20
0.62173
 30
0.0
 10
0.5386200000000001
 20
0.62173
 30
0.0
 10
0.5386200000000001
 20
0.62173
 30
0.0
 10
0.5386200000000001
 20
0.8681100000000001
 30
0.0
 10
0.5386200000000001
 20
0.8681100000000001
 30
0.0
 10
0.5386200000000001
 20
0.8681100000000001
 30
0.0
 10
0.11952
 20
1.6326500000000002
 30
0.0
 10
0.7900800000000001
 20
2.16859
 30
0.0
 10
1.3844400000000001
 20
2.16351
 30
0.0
  0
SPLINE
  5
2C
100
AcDbEntity
  8
Ebene 1
100
AcDbSpline
210
0.0
220
0.0
230
1.0
 70
     1
 71
     3
 72
    28
 73
    24
 74
     0
 42
0.0000000001
 43
0.0000000001
 40
0.0
 40
0.0
 40
0.0
 40
0.0
 40
0.1666666666666667
 40
0.1666666666666667
 40
0.1666666666666667
 40
0.1666666666666667
 40
0.3333333333333333
 40
0.3333333333333333
 40
0.3333333333333333
 40
0.3333333333333333
 40
0.5
 40
0.5
 40
0.5
 40
0.5
 40
0.6666666666666666
 40
0.6666666666666666
 40
0.6666666666666666
 40
0.6666666666666666
 40
0.8333333333333333
 40
0.8333333333333333
 40
0.8333333333333333
 40
0.8333333333333333
 40
1.0
 40
1.0
 40
1.0
 40
1.0
 10
1.9711800000000002
 20
2.1076300000000003
 30
0.0
 10
1.8441800000000002
 20
2.0974700000000004
 30
0.0
 10
1.6384400000000001
 20
2.1482700000000001
 30
0.0
 10
1.6054200000000001
 20
2.0034900000000002
 30
0.0
 10
1.6054200000000001
 20
2.0034900000000002
 30
0.0
 10
1.9940400000000003
 20
1.9933300000000003
 30
0.0
 10
2.42584
 20
1.9755500000000001
 30
0.0
 10
2.7230200000000004
 20
1.6885300000000001
 30
0.0
 10
2.7230200000000004
 20
1.6885300000000001
 30
0.0
 10
2.7230200000000004
 20
1.6885300000000001
 30
0.0
 10
2.8144600000000004
 20
1.6758300000000002
 30
0.0
 10
2.8144600000000004
 20
1.6758300000000002
 30
0.0
 10
2.8144600000000004
 20
1.6758300000000002
 30
0.0
 10
2.8449400000000002
 20
1.7418700000000003
 30
0.0
 10
2.7357200000000002
 20
1.8002900000000002
 30
0.0
 10
2.6849200000000004
 20
1.8383900000000002
 30
0.0
 10
2.6849200000000004
 20
1.8383900000000002
 30
0.0
 10
2.5858600000000003
 20
1.8917300000000001
 30
0.0
 10
2.4918800000000001
 20
1.9552300000000002
 30
0.0
 10
2.38266
 20
1.9882500000000001
 30
0.0
 10
2.38266
 20
1.9882500000000001
 30
0.0
 10
2.2556600000000002
 20
2.0542899999999999
 30
0.0
 10
2.1032600000000001
 20
2.0771500000000001
 30
0.0
 10
1.9711800000000002
 20
2.1076300000000003
 30
0.0
  0
SPLINE
  5
2D
100
AcDbEntity
  8
Ebene 1
 62
     7
100
AcDbSpline
210
0.0
220
0.0
230
1.0
 70
     1
 71
     3
 72
    12
 73
     8
 74
     0
 42
0.0000000001
 43
0.0000000001
 40
0.0
 40
0.0
 40
0.0
 40
0.0
 40
0.5
 40
0.5
 40
0.5
 40
0.5
 40
1.0
 40
1.0
 40
1.0
 40
1.0
 10
-3.0427700000000004
 20
1.8891900000000001
 30
0.0
 10
-3.0707100000000001
 20
1.8256900000000003
 30
0.0
 10
-3.0834100000000002
 20
1.7215500000000001
 30
0.0
 10
-3.0580100000000003
 20
1.6478900000000001
 30
0.0
 10
-3.0580100000000003
 20
1.6478900000000001
 30
0.0
 10
-2.9741900000000001
 20
1.7088500000000002
 30
0.0
 10
-3.0173700000000001
 20
1.8104500000000001
 30
0.0
 10
-3.0427700000000004
 20
1.8891900000000001
 30
0.0
  0
SPLINE
  5
2E
100
AcDbEntity
  8
Ebene 1
100
AcDbSpline
210
0.0
220
0.0
230
1.0
 70
     1
 71
     3
 72
    48
 73
    44
 74
     0
 42
0.0000000001
 43
0.0000000001
 40
0.0
 40
0.0
 40
0.0
 40
0.0
 40
0.0909090909090909
 40
0.0909090909090909
 40
0.0909090909090909
 40
0.0909090909090909
 40
0.1818181818181818
 40
0.1818181818181818
 40
0.1818181818181818
 40
0.1818181818181818
 40
0.2727272727272727
 40
0.2727272727272727
 40
0.2727272727272727
 40
0.2727272727272727
 40
0.3636363636363637
 40
0.3636363636363637
 40
0.3636363636363637
 40
0.3636363636363637
 40
0.4545454545454546
 40
0.4545454545454546
 40
0.4545454545454546
 40
0.4545454545454546
 40
0.5454545454545455
 40
0.5454545454545455
 40
0.5454545454545455
 40
0.5454545454545455
 40
0.6363636363636365
 40
0.6363636363636365
 40
0.6363636363636365
 40
0.6363636363636365
 40
0.7272727272727274
 40
0.7272727272727274
 40
0.7272727272727274
 40
0.7272727272727274
 40
0.8181818181818183
 40
0.8181818181818183
 40
0.8181818181818183
 40
0.8181818181818183
 40
0.9090909090909093
 40
0.9090909090909093
 40
0.9090909090909093
 40
0.9090909090909093
 40
1.0
 40
1.0
 40
1.0
 40
1.0
 10
-0.9447300000000001
 20
1.8612500000000001
 30
0.0
 10
-0.9447300000000001
 20
1.8612500000000001
 30
0.0
 10
-1.11999
 20
1.8612500000000001
 30
0.0
 10
-1.11999
 20
1.8612500000000001
 30
0.0
 10
-1.11999
 20
1.8612500000000001
 30
0.0
 10
-1.4476500000000001
 20
1.5488300000000002
 30
0.0
 10
-1.8438900000000003
 20
1.9425300000000001
 30
0.0
 10
-2.2121900000000001
 20
1.7520300000000002
 30
0.0
 10
-2.2121900000000001
 20
1.7520300000000002
 30
0.0
 10
-2.1563100000000004
 20
1.69615
 30
0.0
 10
-2.1436100000000002
 20
1.6275700000000002
 30
0.0
 10
-2.18425
 20
1.52597
 30
0.0
 10
-2.18425
 20
1.52597
 30
0.0
 10
-2.26553
 20
1.4751700000000001
 30
0.0
 10
-2.3468100000000001
 20
1.4269100000000001
 30
0.0
 10
-2.4026900000000002
 20
1.35833
 30
0.0
 10
-2.4026900000000002
 20
1.35833
 30
0.0
 10
-2.3214100000000002
 20
1.35833
 30
0.0
 10
-2.1715500000000003
 20
1.4370700000000001
 30
0.0
 10
-2.1156700000000002
 20
1.5208900000000001
 30
0.0
 10
-2.1156700000000002
 20
1.5208900000000001
 30
0.0
 10
-1.6660900000000001
 20
1.2262500000000001
 30
0.0
 10
-2.0496300000000001
 20
0.53283
 30
0.0
 10
-1.6127500000000001
 20
0.21533
 30
0.0
 10
-1.6127500000000001
 20
0.21533
 30
0.0
 10
-1.5975100000000002
 20
0.21279
 30
0.0
 10
-1.5695700000000001
 20
0.20771
 30
0.0
 10
-1.5695700000000001
 20
0.22549
 30
0.0
 10
-1.5695700000000001
 20
0.22549
 30
0.0
 10
-1.6381500000000002
 20
0.33471
 30
0.0
 10
-1.7626100000000002
 20
0.43377
 30
0.0
 10
-1.7626100000000002
 20
0.57855
 30
0.0
 10
-1.7626100000000002
 20
0.57855
 30
0.0
 10
-1.2571500000000002
 20
0.04515
 30
0.0
 10
-0.55357
 20
0.6699900000000001
 30
0.0
 10
-0.4367300000000001
 20
1.2186300000000001
 30
0.0
 10
-0.4367300000000001
 20
1.2186300000000001
 30
0.0
 10
-0.38847
 20
1.1652900000000002
 30
0.0
 10
-0.29957
 20
1.11449
 30
0.0
 10
-0.24877
 20
1.11195
 30
0.0
 10
-0.24877
 20
1.11195
 30
0.0
 10
-0.24877
 20
1.11195
 30
0.0
 10
-0.9447300000000001
 20
1.8612500000000001
 30
0.0
 10
-0.9447300000000001
 20
1.8612500000000001
 30
0.0
  0
SPLINE
  5
2F
100
AcDbEntity
  8
Ebene 1
 62
     7
100
AcDbSpline
210
0.0
220
0.0
230
1.0
 70
     1
 71
     3
 72
    12
 73
     8
 74
     0
 42
0.0000000001
 43
0.0000000001
 40
0.0
 40
0.0
 40
0.0
 40
0.0
 40
0.5
 40
0.5
 40
0.5
 40
0.5
 40
1.0
 40
1.0
 40
1.0
 40
1.0
 10
-1.1885700000000001
 20
1.4675500000000001
 30
0.0
 10
-1.2698500000000001
 20
1.4700900000000001
 30
0.0
 10
-1.3943100000000002
 20
1.40151
 30
0.0
 10
-1.3663700000000001
 20
1.32023
 30
0.0
 10
-1.3663700000000001
 20
1.32023
 30
0.0
 10
-1.2698500000000001
 20
1.2465700000000002
 30
0.0
 10
-1.0539500000000002
 20
1.40659
 30
0.0
 10
-1.1885700000000001
 20
1.4675500000000001
 30
0.0
  0
SPLINE
  5
30
100
AcDbEntity
  8
Ebene 1
100
AcDbSpline
210
0.0
220
0.0
230
1.0
 70
     1
 71
     3
 72
    24
 73
    20
 74
     0
 42
0.0000000001
 43
0.0000000001
 40
0.0
 40
0.0
 40
0.0
 40
0.0
 40
0.2
 40
0.2
 40
0.2
 40
0.2
 40
0.4
 40
0.4
 40
0.4
 40
0.4
 40
0.6000000000000001
 40
0.6000000000000001
 40
0.6000000000000001
 40
0.6000000000000001
 40
0.8
 40
0.8
 40
0.8
 40
0.8
 40
1.0
 40
1.0
 40
1.0
 40
1.0
 10
3.1294200000000001
 20
1.4523100000000002
 30
0.0
 10
3.0964
 20
1.4599300000000002
 30
0.0
 10
3.0608400000000002
 20
1.44723
 30
0.0
 10
3.0481400000000001
 20
1.4116700000000002
 30
0.0
 10
3.0481400000000001
 20
1.4116700000000002
 30
0.0
 10
3.0481400000000001
 20
1.4116700000000002
 30
0.0
 10
3.05322
 20
1.3761100000000002
 30
0.0
 10
3.05322
 20
1.3761100000000002
 30
0.0
 10
3.05322
 20
1.3761100000000002
 30
0.0
 10
3.2437200000000002
 20
1.2567300000000001
 30
0.0
 10
3.3123000000000005
 20
1.01797
 30
0.0
 10
3.3656400000000004
 20
0.8173100000000001
 30
0.0
 10
3.3656400000000004
 20
0.8173100000000001
 30
0.0
 10
3.3758000000000004
 20
0.8046100000000001
 30
0.0
 10
3.3859600000000003
 20
0.7944500000000001
 30
0.0
 10
3.4037400000000004
 20
0.7995300000000001
 30
0.0
 10
3.4037400000000004
 20
0.7995300000000001
 30
0.0
 10
3.4672400000000003
 20
1.0433700000000001
 30
0.0
 10
3.2818200000000002
 20
1.27197
 30
0.0
 10
3.1294200000000001
 20
1.4523100000000002
 30
0.0
  0
SPLINE
  5
31
100
AcDbEntity
  8
Ebene 1
 62
     7
100
AcDbSpline
210
0.0
220
0.0
230
1.0
 70
     1
 71
     3
 72
    16
 73
    12
 74
     0
 42
0.0000000001
 43
0.0000000001
 40
0.0
 40
0.0
 40
0.0
 40
0.0
 40
0.3333333333333333
 40
0.3333333333333333
 40
0.3333333333333333
 40
0.3333333333333333
 40
0.6666666666666666
 40
0.6666666666666666
 40
0.6666666666666666
 40
0.6666666666666666
 40
1.0
 40
1.0
 40
1.0
 40
1.0
 10
-3.1265900000000002
 20
0.9214500000000001
 30
0.0
 10
-3.0834100000000002
 20
1.06877
 30
0.0
 10
-3.0427700000000004
 20
1.2922900000000002
 30
0.0
 10
-3.0986500000000001
 20
1.4396100000000001
 30
0.0
 10
-3.0986500000000001
 20
1.4396100000000001
 30
0.0
 10
-3.1113500000000003
 20
1.4370700000000001
 30
0.0
 10
-3.1265900000000002
 20
1.4269100000000001
 30
0.0
 10
-3.1265900000000002
 20
1.4116700000000002
 30
0.0
 10
-3.1265900000000002
 20
1.4116700000000002
 30
0.0
 10
-3.1265900000000002
 20
1.4116700000000002
 30
0.0
 10
-3.1265900000000002
 20
0.9214500000000001
 30
0.0
 10
-3.1265900000000002
 20
0.9214500000000001
 30
0.0
  0
SPLINE
  5
32
100
AcDbEntity
  8
Ebene 1
 62
     7
100
AcDbSpline
210
0.0
220
0.0
230
1.0
 70
     1
 71
     3
 72
    12
 73
     8
 74
     0
 42
0.0000000001
 43
0.0000000001
 40
0.0
 40
0.0
 40
0.0
 40
0.0
 40
0.5
 40
0.5
 40
0.5
 40
0.5
 40
1.0
 40
1.0
 40
1.0
 40
1.0
 10
-3.2764500000000001
 20
0.74365
 30
0.0
 10
-3.4237700000000002
 20
0.61665
 30
0.0
 10
-3.5075900000000004
 20
0.37281
 30
0.0
 10
-3.3297900000000005
 20
0.24073
 30
0.0
 10
-3.3297900000000005
 20
0.24073
 30
0.0
 10
-3.2764500000000001
 20
0.37281
 30
0.0
 10
-3.2764500000000001
 20
0.5861700000000001
 30
0.0
 10
-3.2764500000000001
 20
0.74365
 30
0.0
  0
SPLINE
  5
33
100
AcDbEntity
  8
Ebene 1
 62
     7
100
AcDbSpline
210
0.0
220
0.0
230
1.0
 70
     1
 71
     3
 72
    20
 73
    16
 74
     0
 42
0.0000000001
 43
0.0000000001
 40
0.0
 40
0.0
 40
0.0
 40
0.0
 40
0.25
 40
0.25
 40
0.25
 40
0.25
 40
0.5
 40
0.5
 40
0.5
 40
0.5
 40
0.75
 40
0.75
 40
0.75
 40
0.75
 40
1.0
 40
1.0
 40
1.0
 40
1.0
 10
-1.5568700000000002
 20
-0.8082800000000001
 30
0.0
 10
-1.5568700000000002
 20
-0.8082800000000001
 30
0.0
 10
-1.42225
 20
-1.3213600000000001
 30
0.0
 10
-1.42225
 20
-1.3213600000000001
 30
0.0
 10
-1.42225
 20
-1.3213600000000001
 30
0.0
 10
-1.42225
 20
-1.3213600000000001
 30
0.0
 10
-1.3663700000000001
 20
-1.2324600000000001
 30
0.0
 10
-1.3663700000000001
 20
-1.2324600000000001
 30
0.0
 10
-1.3663700000000001
 20
-1.2324600000000001
 30
0.0
 10
-1.3663700000000001
 20
-1.2324600000000001
 30
0.0
 10
-1.2292100000000001
 20
-1.21214
 30
0.0
 10
-1.2292100000000001
 20
-1.21214
 30
0.0
 10
-1.2292100000000001
 20
-1.21214
 30
0.0
 10
-1.2850900000000001
 20
-1.0546600000000002
 30
0.0
 10
-1.4349500000000002
 20
-0.9175000000000001
 30
0.0
 10
-1.5568700000000002
 20
-0.8082800000000001
 30
0.0
  0
SPLINE
  5
34
100
AcDbEntity
  8
Ebene 1
 62
     7
100
AcDbSpline
210
0.0
220
0.0
230
1.0
 70
     1
 71
     3
 72
    12
 73
     8
 74
     0
 42
0.0000000001
 43
0.0000000001
 40
0.0
 40
0.0
 40
0.0
 40
0.0
 40
0.5
 40
0.5
 40
0.5
 40
0.5
 40
1.0
 40
1.0
 40
1.0
 40
1.0
 10
-1.03871
 20
-1.1892800000000001
 30
0.0
 10
-1.11999
 20
-1.33406
 30
0.0
 10
-0.92949
 20
-1.4839200000000001
 30
0.0
 10
-0.86599
 20
-1.6083800000000001
 30
0.0
 10
-0.86599
 20
-1.6083800000000001
 30
0.0
 10
-0.86599
 20
-1.6083800000000001
 30
0.0
 10
-1.03871
 20
-1.1892800000000001
 30
0.0
 10
-1.03871
 20
-1.1892800000000001
 30
0.0
  0
SPLINE
  5
35
100
AcDbEntity
  8
Ebene 1
 62
     7
100
AcDbSpline
210
0.0
220
0.0
230
1.0
 70
     1
 71
     3
 72
    16
 73
    12
 74
     0
 42
0.0000000001
 43
0.0000000001
 40
0.0
 40
0.0
 40
0.0
 40
0.0
 40
0.3333333333333333
 40
0.3333333333333333
 40
0.3333333333333333
 40
0.3333333333333333
 40
0.6666666666666666
 40
0.6666666666666666
 40
0.6666666666666666
 40
0.6666666666666666
 40
1.0
 40
1.0
 40
1.0
 40
1.0
 10
-1.2165100000000002
 20
-1.2858000000000001
 30
0.0
 10
-1.2165100000000002
 20
-1.2858000000000001
 30
0.0
 10
-1.33843
 20
-1.3416800000000002
 30
0.0
 10
-1.33843
 20
-1.3416800000000002
 30
0.0
 10
-1.33843
 20
-1.3416800000000002
 30
0.0
 10
-1.3130300000000001
 20
-1.63124
 30
0.0
 10
-1.1758700000000002
 20
-1.9335000000000002
 30
0.0
 10
-0.9574300000000001
 20
-2.1265400000000003
 30
0.0
 10
-0.9574300000000001
 20
-2.1265400000000003
 30
0.0
 10
-0.9980700000000001
 20
-1.83952
 30
0.0
 10
-1.0539500000000002
 20
-1.5194800000000002
 30
0.0
 10
-1.2165100000000002
 20
-1.2858000000000001
 30
0.0
  0
SPLINE
  5
36
100
AcDbEntity
  8
Ebene 1
 62
     7
100
AcDbSpline
210
0.0
220
0.0
230
1.0
 70
     1
 71
     3
 72
    20
 73
    16
 74
     0
 42
0.0000000001
 43
0.0000000001
 40
0.0
 40
0.0
 40
0.0
 40
0.0
 40
0.25
 40
0.25
 40
0.25
 40
0.25
 40
0.5
 40
0.5
 40
0.5
 40
0.5
 40
0.75
 40
0.75
 40
0.75
 40
0.75
 40
1.0
 40
1.0
 40
1.0
 40
1.0
 10
-3.1926300000000003
 20
-1.4763000000000002
 30
0.0
 10
-3.1926300000000003
 20
-1.4763000000000002
 30
0.0
 10
-3.2332700000000001
 20
-1.54488
 30
0.0
 10
-3.2332700000000001
 20
-1.54488
 30
0.0
 10
-3.2332700000000001
 20
-1.54488
 30
0.0
 10
-3.1799300000000001
 20
-1.8319000000000001
 30
0.0
 10
-3.3018500000000004
 20
-2.1875
 30
0.0
 10
-3.1519900000000001
 20
-2.4567400000000004
 30
0.0
 10
-3.1519900000000001
 20
-2.4567400000000004
 30
0.0
 10
-3.0173700000000001
 20
-2.2154400000000001
 30
0.0
 10
-3.0834100000000002
 20
-1.9309600000000002
 30
0.0
 10
-3.0834100000000002
 20
-1.6541000000000001
 30
0.0
 10
-3.0834100000000002
 20
-1.6541000000000001
 30
0.0
 10
-3.0834100000000002
 20
-1.6541000000000001
 30
0.0
 10
-3.1926300000000003
 20
-1.4763000000000002
 30
0.0
 10
-3.1926300000000003
 20
-1.4763000000000002
 30
0.0
  0
SPLINE
  5
37
100
AcDbEntity
  8
Ebene 1
 62
     7
100
AcDbSpline
210
0.0
220
0.0
230
1.0
 70
     1
 71
     3
 72
    12
 73
     8
 74
     0
 42
0.0000000001
 43
0.0000000001
 40
0.0
 40
0.0
 40
0.0
 40
0.0
 40
0.5
 40
0.5
 40
0.5
 40
0.5
 40
1.0
 40
1.0
 40
1.0
 40
1.0
 10
-2.9614900000000004
 20
-1.5169400000000002
 30
0.0
 10
-3.0834100000000002
 20
-1.8242800000000001
 30
0.0
 10
-3.0300700000000003
 20
-2.2256
 30
0.0
 10
-2.9741900000000001
 20
-2.5481800000000003
 30
0.0
 10
-2.9741900000000001
 20
-2.5481800000000003
 30
0.0
 10
-2.8675100000000002
 20
-2.2459200000000004
 30
0.0
 10
-2.7024100000000004
 20
-1.7811000000000001
 30
0.0
 10
-2.9614900000000004
 20
-1.5169400000000002
 30
0.0
  0
SPLINE
  5
38
100
AcDbEntity
  8
Ebene 1
 62
     7
100
AcDbSpline
210
0.0
220
0.0
230
1.0
 70
     1
 71
     3
 72
    16
 73
    12
 74
     0
 42
0.0000000001
 43
0.0000000001
 40
0.0
 40
0.0
 40
0.0
 40
0.0
 40
0.3333333333333333
 40
0.3333333333333333
 40
0.3333333333333333
 40
0.3333333333333333
 40
0.6666666666666666
 40
0.6666666666666666
 40
0.6666666666666666
 40
0.6666666666666666
 40
1.0
 40
1.0
 40
1.0
 40
1.0
 10
-1.4070100000000001
 20
-1.6541000000000001
 30
0.0
 10
-1.4070100000000001
 20
-1.6541000000000001
 30
0.0
 10
-1.4476500000000001
 20
-1.6566400000000001
 30
0.0
 10
-1.4476500000000001
 20
-1.6566400000000001
 30
0.0
 10
-1.4476500000000001
 20
-1.6566400000000001
 30
0.0
 10
-1.5848100000000001
 20
-1.8750800000000001
 30
0.0
 10
-1.3257300000000001
 20
-2.10114
 30
0.0
 10
-1.1885700000000001
 20
-2.2637
 30
0.0
 10
-1.1885700000000001
 20
-2.2637
 30
0.0
 10
-1.2165100000000002
 20
-2.0478000000000001
 30
0.0
 10
-1.2698500000000001
 20
-1.8268200000000001
 30
0.0
 10
-1.4070100000000001
 20
-1.6541000000000001
 30
0.0
  0
SPLINE
  5
39
100
AcDbEntity
  8
Ebene 1
 62
     7
100
AcDbSpline
210
0.0
220
0.0
230
1.0
 70
     1
 71
     3
 72
    16
 73
    12
 74
     0
 42
0.0000000001
 43
0.0000000001
 40
0.0
 40
0.0
 40
0.0
 40
0.0
 40
0.3333333333333333
 40
0.3333333333333333
 40
0.3333333333333333
 40
0.3333333333333333
 40
0.6666666666666666
 40
0.6666666666666666
 40
0.6666666666666666
 40
0.6666666666666666
 40
1.0
 40
1.0
 40
1.0
 40
1.0
 10
-3.3297900000000005
 20
-1.6668000000000001
 30
0.0
 10
-3.3297900000000005
 20
-1.6668000000000001
 30
0.0
 10
-3.4110700000000005
 20
-1.6820400000000002
 30
0.0
 10
-3.4110700000000005
 20
-1.6820400000000002
 30
0.0
 10
-3.4110700000000005
 20
-1.6820400000000002
 30
0.0
 10
-3.4796500000000004
 20
-1.92334
 30
0.0
 10
-3.4948900000000003
 20
-2.2078200000000003
 30
0.0
 10
-3.4796500000000004
 20
-2.4542000000000002
 30
0.0
 10
-3.4796500000000004
 20
-2.4542000000000002
 30
0.0
 10
-3.3983700000000003
 20
-2.2103600000000001
 30
0.0
 10
-3.3297900000000005
 20
-1.92334
 30
0.0
 10
-3.3297900000000005
 20
-1.6668000000000001
 30
0.0
  0
SPLINE
  5
3A
100
AcDbEntity
  8
Ebene 1
 62
     7
100
AcDbSpline
210
0.0
220
0.0
230
1.0
 70
     1
 71
     3
 72
    16
 73
    12
 74
     0
 42
0.0000000001
 43
0.0000000001
 40
0.0
 40
0.0
 40
0.0
 40
0.0
 40
0.3333333333333333
 40
0.3333333333333333
 40
0.3333333333333333
 40
0.3333333333333333
 40
0.6666666666666666
 40
0.6666666666666666
 40
0.6666666666666666
 40
0.6666666666666666
 40
1.0
 40
1.0
 40
1.0
 40
1.0
 10
-1.5848100000000001
 20
-1.8039600000000002
 30
0.0
 10
-1.6533900000000001
 20
-1.8090400000000002
 30
0.0
 10
-1.7067300000000001
 20
-1.8446000000000002
 30
0.0
 10
-1.7346700000000002
 20
-1.9157200000000001
 30
0.0
 10
-1.7346700000000002
 20
-1.9157200000000001
 30
0.0
 10
-1.6813300000000002
 20
-2.1113
 30
0.0
 10
-1.6254500000000001
 20
-2.3272000000000004
 30
0.0
 10
-1.50353
 20
-2.4948400000000004
 30
0.0
 10
-1.50353
 20
-2.4948400000000004
 30
0.0
 10
-1.46035
 20
-2.26878
 30
0.0
 10
-1.4882900000000001
 20
-2.0071600000000003
 30
0.0
 10
-1.5848100000000001
 20
-1.8039600000000002
 30
0.0
  0
SPLINE
  5
3B
100
AcDbEntity
  8
Ebene 1
 62
     7
100
AcDbSpline
210
0.0
220
0.0
230
1.0
 70
     1
 71
     3
 72
    20
 73
    16
 74
     0
 42
0.0000000001
 43
0.0000000001
 40
0.0
 40
0.0
 40
0.0
 40
0.0
 40
0.25
 40
0.25
 40
0.25
 40
0.25
 40
0.5
 40
0.5
 40
0.5
 40
0.5
 40
0.75
 40
0.75
 40
0.75
 40
0.75
 40
1.0
 40
1.0
 40
1.0
 40
1.0
 10
-2.3747500000000001
 20
-1.8039600000000002
 30
0.0
 10
-2.4026900000000002
 20
-1.8039600000000002
 30
0.0
 10
-2.4306300000000003
 20
-1.79634
 30
0.0
 10
-2.44333
 20
-1.8192000000000002
 30
0.0
 10
-2.44333
 20
-1.8192000000000002
 30
0.0
 10
-2.4839700000000002
 20
-2.1798800000000003
 30
0.0
 10
-2.3341100000000004
 20
-2.5405600000000002
 30
0.0
 10
-2.18425
 20
-2.8479000000000001
 30
0.0
 10
-2.18425
 20
-2.8479000000000001
 30
0.0
 10
-2.1156700000000002
 20
-2.5380200000000004
 30
0.0
 10
-2.1969500000000002
 20
-2.19258
 30
0.0
 10
-2.2528300000000003
 20
-1.8877800000000002
 30
0.0
 10
-2.2528300000000003
 20
-1.8877800000000002
 30
0.0
 10
-2.2807700000000004
 20
-1.8446000000000002
 30
0.0
 10
-2.3341100000000004
 20
-1.8242800000000001
 30
0.0
 10
-2.3747500000000001
 20
-1.8039600000000002
 30
0.0
  0
SPLINE
  5
3C
100
AcDbEntity
  8
Ebene 1
 62
     7
100
AcDbSpline
210
0.0
220
0.0
230
1.0
 70
     1
 71
     3
 72
    20
 73
    16
 74
     0
 42
0.0000000001
 43
0.0000000001
 40
0.0
 40
0.0
 40
0.0
 40
0.0
 40
0.25
 40
0.25
 40
0.25
 40
0.25
 40
0.5
 40
0.5
 40
0.5
 40
0.5
 40
0.75
 40
0.75
 40
0.75
 40
0.75
 40
1.0
 40
1.0
 40
1.0
 40
1.0
 10
-2.6338300000000001
 20
-1.8166600000000002
 30
0.0
 10
-2.7151100000000001
 20
-1.8014200000000002
 30
0.0
 10
-2.6744700000000003
 20
-1.8928600000000002
 30
0.0
 10
-2.6897100000000003
 20
-1.9360400000000002
 30
0.0
 10
-2.6897100000000003
 20
-1.9360400000000002
 30
0.0
 10
-2.6897100000000003
 20
-1.9360400000000002
 30
0.0
 10
-2.7303500000000001
 20
-1.9411200000000002
 30
0.0
 10
-2.7303500000000001
 20
-1.9411200000000002
 30
0.0
 10
-2.7303500000000001
 20
-1.9411200000000002
 30
0.0
 10
-2.7582900000000001
 20
-2.1214600000000003
 30
0.0
 10
-2.6897100000000003
 20
-2.3272000000000004
 30
0.0
 10
-2.60589
 20
-2.4796
 30
0.0
 10
-2.60589
 20
-2.4796
 30
0.0
 10
-2.5525500000000001
 20
-2.26878
 30
0.0
 10
-2.5804900000000002
 20
-2.02494
 30
0.0
 10
-2.6338300000000001
 20
-1.8166600000000002
 30
0.0
  0
SPLINE
  5
3D
100
AcDbEntity
  8
Ebene 1
 62
     7
100
AcDbSpline
210
0.0
220
0.0
230
1.0
 70
     1
 71
     3
 72
    20
 73
    16
 74
     0
 42
0.0000000001
 43
0.0000000001
 40
0.0
 40
0.0
 40
0.0
 40
0.0
 40
0.25
 40
0.25
 40
0.25
 40
0.25
 40
0.5
 40
0.5
 40
0.5
 40
0.5
 40
0.75
 40
0.75
 40
0.75
 40
0.75
 40
1.0
 40
1.0
 40
1.0
 40
1.0
 10
-1.9124700000000001
 20
-1.9538200000000001
 30
0.0
 10
-1.9124700000000001
 20
-1.9538200000000001
 30
0.0
 10
-1.9937500000000001
 20
-1.9563600000000001
 30
0.0
 10
-1.9937500000000001
 20
-1.9563600000000001
 30
0.0
 10
-1.9937500000000001
 20
-1.9563600000000001
 30
0.0
 10
-2.18425
 20
-2.1214600000000003
 30
0.0
 10
-2.0623300000000002
 20
-2.3678400000000002
 30
0.0
 10
-2.02169
 20
-2.5634200000000003
 30
0.0
 10
-2.02169
 20
-2.5634200000000003
 30
0.0
 10
-1.92517
 20
-2.5507200000000001
 30
0.0
 10
-1.9531100000000001
 20
-2.6675600000000004
 30
0.0
 10
-1.8972300000000002
 20
-2.7031200000000002
 30
0.0
 10
-1.8972300000000002
 20
-2.7031200000000002
 30
0.0
 10
-1.8438900000000003
 20
-2.4821400000000002
 30
0.0
 10
-1.7346700000000002
 20
-2.14432
 30
0.0
 10
-1.9124700000000001
 20
-1.9538200000000001
 30
0.0
  0
SPLINE
  5
3E
100
AcDbEntity
  8
Ebene 1
 62
     7
100
AcDbSpline
210
0.0
220
0.0
230
1.0
 70
     1
 71
     3
 72
    60
 73
    56
 74
     0
 42
0.0000000001
 43
0.0000000001
 40
0.0
 40
0.0
 40
0.0
 40
0.0
 40
0.0714285714285714
 40
0.0714285714285714
 40
0.0714285714285714
 40
0.0714285714285714
 40
0.1428571428571429
 40
0.1428571428571429
 40
0.1428571428571429
 40
0.1428571428571429
 40
0.2142857142857143
 40
0.2142857142857143
 40
0.2142857142857143
 40
0.2142857142857143
 40
0.2857142857142857
 40
0.2857142857142857
 40
0.2857142857142857
 40
0.2857142857142857
 40
0.3571428571428571
 40
0.3571428571428571
 40
0.3571428571428571
 40
0.3571428571428571
 40
0.4285714285714285
 40
0.4285714285714285
 40
0.4285714285714285
 40
0.4285714285714285
 40
0.4999999999999999
 40
0.4999999999999999
 40
0.4999999999999999
 40
0.4999999999999999
 40
0.5714285714285713
 40
0.5714285714285713
 40
0.5714285714285713
 40
0.5714285714285713
 40
0.6428571428571427
 40
0.6428571428571427
 40
0.6428571428571427
 40
0.6428571428571427
 40
0.7142857142857141
 40
0.7142857142857141
 40
0.7142857142857141
 40
0.7142857142857141
 40
0.7857142857142855
 40
0.7857142857142855
 40
0.7857142857142855
 40
0.7857142857142855
 40
0.8571428571428569
 40
0.8571428571428569
 40
0.8571428571428569
 40
0.8571428571428569
 40
0.9285714285714283
 40
0.9285714285714283
 40
0.9285714285714283
 40
0.9285714285714283
 40
1.0
 40
1.0
 40
1.0
 40
1.0
 10
3.4977200000000002
 20
-3.8766000000000003
 30
0.0
 10
3.4596200000000001
 20
-3.7775400000000001
 30
0.0
 10
3.4037400000000004
 20
-3.6835600000000004
 30
0.0
 10
3.3453200000000001
 20
-3.5921200000000004
 30
0.0
 10
3.3453200000000001
 20
-3.5921200000000004
 30
0.0
 10
3.3453200000000001
 20
-3.5921200000000004
 30
0.0
 10
3.1345000000000001
 20
-3.3457400000000002
 30
0.0
 10
3.1345000000000001
 20
-3.3457400000000002
 30
0.0
 10
3.1345000000000001
 20
-3.3457400000000002
 30
0.0
 10
3.2945200000000003
 20
-3.6683200000000005
 30
0.0
 10
3.4215200000000001
 20
-4.0874200000000007
 30
0.0
 10
3.3504000000000005
 20
-4.43032
 30
0.0
 10
3.3504000000000005
 20
-4.43032
 30
0.0
 10
3.3504000000000005
 20
-4.43032
 30
0.0
 10
3.3351600000000001
 20
-4.2169600000000003
 30
0.0
 10
3.3351600000000001
 20
-4.2169600000000003
 30
0.0
 10
3.3351600000000001
 20
-4.2169600000000003
 30
0.0
 10
3.3351600000000001
 20
-4.2169600000000003
 30
0.0
 10
3.2818200000000002
 20
-3.9426400000000004
 30
0.0
 10
3.2818200000000002
 20
-3.9426400000000004
 30
0.0
 10
3.2818200000000002
 20
-3.9426400000000004
 30
0.0
 10
3.2030800000000004
 20
-3.7013400000000005
 30
0.0
 10
3.0456000000000003
 20
-3.4422600000000001
 30
0.0
 10
2.92876
 20
-3.2365200000000001
 30
0.0
 10
2.92876
 20
-3.2365200000000001
 30
0.0
 10
2.8881200000000002
 20
-3.7369000000000003
 30
0.0
 10
3.3554800000000005
 20
-4.1585400000000003
 30
0.0
 10
3.3224600000000004
 20
-4.6792400000000001
 30
0.0
 10
3.3224600000000004
 20
-4.6792400000000001
 30
0.0
 10
3.2437200000000002
 20
-4.6208200000000001
 30
0.0
 10
3.2564200000000003
 20
-4.3668200000000006
 30
0.0
 10
3.1345000000000001
 20
-4.2728400000000004
 30
0.0
 10
3.1345000000000001
 20
-4.2728400000000004
 30
0.0
 10
3.1497400000000004
 20
-4.6716200000000008
 30
0.0
 10
3.1345000000000001
 20
-5.1008800000000001
 30
0.0
 10
3.0659200000000002
 20
-5.49458
 30
0.0
 10
3.0659200000000002
 20
-5.49458
 30
0.0
 10
3.1548200000000004
 20
-5.4031400000000005
 30
0.0
 10
3.2259400000000005
 20
-5.2736000000000001
 30
0.0
 10
3.2386400000000002
 20
-5.1440600000000005
 30
0.0
 10
3.2386400000000002
 20
-5.1440600000000005
 30
0.0
 10
3.2564200000000003
 20
-5.1085000000000003
 30
0.0
 10
3.2437200000000002
 20
-5.0856400000000006
 30
0.0
 10
3.2386400000000002
 20
-5.0475400000000006
 30
0.0
 10
3.2386400000000002
 20
-5.0475400000000006
 30
0.0
 10
3.2919800000000001
 20
-4.9688000000000008
 30
0.0
 10
3.3224600000000004
 20
-5.1593
 30
0.0
 10
3.3300800000000002
 20
-5.1948600000000003
 30
0.0
 10
3.3300800000000002
 20
-5.1948600000000003
 30
0.0
 10
3.5409000000000002
 20
-4.7935400000000001
 30
0.0
 10
3.6501200000000003
 20
-4.30586
 30
0.0
 10
3.4469200000000004
 20
-3.8842200000000005
 30
0.0
 10
3.4469200000000004
 20
-3.8842200000000005
 30
0.0
 10
3.4291400000000003
 20
-3.8181800000000004
 30
0.0
 10
3.4697800000000001
 20
-3.8486600000000002
 30
0.0
 10
3.4977200000000002
 20
-3.8766000000000003
 30
0.0
  0
ENDSEC
  0
SECTION
  2
OBJECTS
  0
DICTIONARY
  5
19
100
AcDbDictionary
280
     0
281
     1
  3
ACAD_GROUP
350
1A
  3
ACAD_MLINESTYLE
350
1B
  3
ACAD_LAYOUT
350
1E
  3
ACAD_PLOTSETTINGS
350
22
  3
ACAD_PLOTSTYLENAME
350
1F
  3
ACAD_WIPEOUT_VARS
350
23
  0
DICTIONARY
  5
1A
102
{ACAD_REACTORS
330
19
102
}
100
AcDbDictionary
280
     0
281
     1
  0
DICTIONARY
  5
1B
102
{ACAD_REACTORS
330
19
102
}
100
AcDbDictionary
280
     0
281
     1
  3
Standard
350
1C
  0
MLINESTYLE
  5
1C
102
{ACAD_REACTORS
330
1B
102
}
100
AcDbMlineStyle
  2
Standard
 70
     0
  3

 62
     0
 51
90.0
 52
90.0
 71
     2
 49
0.5
 62
   256
  6
BYLAYER
 49
-0.5
 62
   256
  6
BYLAYER
  0
ACDBDICTIONARYWDFLT
  5
1F
102
{ACAD_REACTORS
330
19
102
}
100
AcDbDictionary
281
     1
  3
Normal
350
1D
100
AcDbDictionaryWithDefault
340
1D
  0
ACDBPLACEHOLDER
  5
1D
102
{ACAD_REACTORS
330
1F
102
}
  0
LAYOUT
  5
20
102
{ACAD_REACTORS
330
1E
102
}
100
AcDbPlotSettings
  1

  2

  4

  6

 40
0.0
 41
0.0
 42
0.0
 43
0.0
 44
0.0
 45
0.0
 46
0.0
 47
0.0
 48
0.0
 49
0.0
140
0.0
141
0.0
142
1.0
143
1.0
 70
  1024
 72
     0
 73
     0
 74
     0
  7

 75
     0
147
1.0
148
0.0
149
0.0
100
AcDbLayout
  1
Model
 70
     0
 71
     0
 10
0.0
 20
0.0
 11
0.0
 21
0.0
 12
0.0
 22
0.0
 32
0.0
 14
0.0
 24
0.0
 34
0.0
 15
0.0
 25
0.0
 35
0.0
146
0.0
 13
0.0
 23
0.0
 33
0.0
 16
0.0
 26
0.0
 36
0.0
 17
0.0
 27
0.0
 37
0.0
 76
     0
330
A
331
0
345
0
346
0
  0
LAYOUT
  5
21
102
{ACAD_REACTORS
330
1E
102
}
100
AcDbPlotSettings
  1

  2

  4

  6

 40
0.0
 41
0.0
 42
0.0
 43
0.0
 44
0.0
 45
0.0
 46
0.0
 47
0.0
 48
0.0
 49
0.0
140
0.0
141
0.0
142
1.0
143
1.0
 70
     0
 72
     0
 73
     0
 74
     0
  7

 75
     0
147
1.0
148
0.0
149
0.0
100
AcDbLayout
  1
Layout1
 70
     0
 71
     0
 10
0.0
 20
0.0
 11
0.0
 21
0.0
 12
0.0
 22
0.0
 32
0.0
 14
0.0
 24
0.0
 34
0.0
 15
0.0
 25
0.0
 35
0.0
146
0.0
 13
0.0
 23
0.0
 33
0.0
 16
0.0
 26
0.0
 36
0.0
 17
0.0
 27
0.0
 37
0.0
 76
     0
330
B
331
0
345
0
346
0
  0
DICTIONARY
  5
1E
102
{ACAD_REACTORS
330
19
102
}
100
AcDbDictionary
280
     0
281
     1
  3
Layout1
350
21
  3
Model
350
20
  0
DICTIONARY
  5
22
102
{ACAD_REACTORS
330
19
102
}
100
AcDbDictionary
280
     0
281
     1
  0
WIPEOUTVARIABLES
  5
23
100
AcDbWipeoutVariables
 70
     1
  0
ENDSEC
  0
EOF
