  0
SECTION
  2
HEADER
  9
$ACADVER
  1
AC1015
  9
$ACADMAINTVER
 70
     6
  9
$DWGCODEPAGE
  3
DOS850
  9
$INSBASE
 10
0.0
 20
0.0
 30
0.0
  9
$EXTMIN
 10
-4.61114
 20
-6.74558
 30
1.000000E+20
  9
$EXTMAX
 10
4.61565
 20
6.7395
 30
-1.000000E+20
  9
$LIMMIN
 10
0.0
 20
0.0
  9
$LIMMAX
 10
0.0
 20
0.0
  9
$ORTHOMODE
 70
     0
  9
$REGENMODE
 70
     1
  9
$FILLMODE
 70
     1
  9
$QTEXTMODE
 70
     0
  9
$MIRRTEXT
 70
     1
  9
$LTSCALE
 40
1.0
  9
$ATTMODE
 70
     1
  9
$TEXTSIZE
 40
0.2
  9
$TRACEWID
 40
0.05
  9
$TEXTSTYLE
  7
Standard
  9
$CLAYER
  8
0
  9
$CELTYPE
  6
Continuous
  9
$CECOLOR
 62
   256
  9
$CELTSCALE
 40
1.0
  9
$DISPSILH
 70
     0
  9
$DIMSCALE
 40
1.0
  9
$DIMASZ
 40
0.18
  9
$DIMEXO
 40
0.0625
  9
$DIMDLI
 40
0.38
  9
$DIMRND
 40
0.0
  9
$DIMDLE
 40
0.0
  9
$DIMEXE
 40
0.18
  9
$DIMTP
 40
0.0
  9
$DIMTM
 40
0.0
  9
$DIMTXT
 40
0.18
  9
$DIMCEN
 40
0.09
  9
$DIMTSZ
 40
0.0
  9
$DIMTOL
 70
     0
  9
$DIMLIM
 70
     0
  9
$DIMTIH
 70
     1
  9
$DIMTOH
 70
     1
  9
$DIMSE1
 70
     0
  9
$DIMSE2
 70
     0
  9
$DIMTAD
 70
     0
  9
$DIMZIN
 70
     0
  9
$DIMBLK
  1

  9
$DIMASO
 70
     1
  9
$DIMSHO
 70
     1
  9
$DIMPOST
  1

  9
$DIMAPOST
  1

  9
$DIMALT
 70
     0
  9
$DIMALTD
 70
     2
  9
$DIMALTF
 40
25.4
  9
$DIMLFAC
 40
1.0
  9
$DIMTOFL
 70
     0
  9
$DIMTVP
 40
0.0
  9
$DIMTIX
 70
     0
  9
$DIMSOXD
 70
     0
  9
$DIMSAH
 70
     0
  9
$DIMBLK1
  1

  9
$DIMBLK2
  1

  9
$DIMSTYLE
  2
Standard
  9
$DIMCLRD
 70
     0
  9
$DIMCLRE
 70
     0
  9
$DIMCLRT
 70
     0
  9
$DIMTFAC
 40
1.0
  9
$DIMGAP
 40
0.09
  9
$DIMJUST
 70
     0
  9
$DIMSD1
 70
     0
  9
$DIMSD2
 70
     0
  9
$DIMTOLJ
 70
     1
  9
$DIMTZIN
 70
     0
  9
$DIMALTZ
 70
     0
  9
$DIMALTTZ
 70
     0
  9
$DIMUPT
 70
     0
  9
$DIMDEC
 70
     4
  9
$DIMTDEC
 70
     4
  9
$DIMALTU
 70
     2
  9
$DIMALTTD
 70
     2
  9
$DIMTXSTY
  7
Standard
  9
$DIMAUNIT
 70
     0
  9
$DIMADEC
 70
     0
  9
$DIMALTRND
 40
0.0
  9
$DIMAZIN
 70
     0
  9
$DIMDSEP
 70
     0
  9
$DIMATFIT
 70
     3
  9
$DIMFRAC
 70
     0
  9
$DIMLDRBLK
  1

  9
$DIMLUNIT
 70
     2
  9
$DIMLWD
 70
     0
  9
$DIMLWE
 70
     0
  9
$DIMTMOVE
 70
     0
  9
$LUNITS
 70
     2
  9
$LUPREC
 70
     4
  9
$SKETCHINC
 40
0.1
  9
$FILLETRAD
 40
0.0
  9
$AUNITS
 70
     0
  9
$AUPREC
 70
     0
  9
$MENU
  1
acad
  9
$ELEVATION
 40
0.0
  9
$PELEVATION
 40
0.0
  9
$THICKNESS
 40
0.0
  9
$LIMCHECK
 70
     0
  9
$CHAMFERA
 40
0.0
  9
$CHAMFERB
 40
0.0
  9
$CHAMFERC
 40
0.0
  9
$CHAMFERD
 40
0.0
  9
$SKPOLY
 70
     0
  9
$TDCREATE
 40
0.000000000
  9
$TDUCREATE
 40
0.000000000
  9
$TDUPDATE
 40
0.000000000
  9
$TDUUPDATE
 40
0.000000000
  9
$TDINDWG
 40
0.0000000000
  9
$TDUSRTIMER
 40
0.0000000000
  9
$USRTIMER
 70
     1
  9
$ANGBASE
 50
0.0
  9
$ANGDIR
 70
     0
  9
$PDMODE
 70
     0
  9
$PDSIZE
 40
0.0
  9
$PLINEWID
 40
0.0
  9
$SPLFRAME
 70
     0
  9
$SPLINETYPE
 70
     6
  9
$SPLINESEGS
 70
     8
  9
$HANDSEED
  5
50
  9
$SURFTAB1
 70
     6
  9
$SURFTAB2
 70
     6
  9
$SURFTYPE
 70
     6
  9
$SURFU
 70
     6
  9
$SURFV
 70
     6
  9
$UCSBASE
  2

  9
$UCSNAME
  2

  9
$UCSORG
 10
0.0
 20
0.0
 30
0.0
  9
$UCSXDIR
 10
1.0
 20
0.0
 30
0.0
  9
$UCSYDIR
 10
0.0
 20
1.0
 30
0.0
  9
$UCSORTHOREF
  2

  9
$UCSORTHOVIEW
 70
     0
  9
$UCSORGTOP
 10
0.0
 20
0.0
 30
0.0
  9
$UCSORGBOTTOM
 10
0.0
 20
0.0
 30
0.0
  9
$UCSORGLEFT
 10
0.0
 20
0.0
 30
0.0
  9
$UCSORGRIGHT
 10
0.0
 20
0.0
 30
0.0
  9
$UCSORGFRONT
 10
0.0
 20
0.0
 30
0.0
  9
$UCSORGBACK
 10
0.0
 20
0.0
 30
0.0
  9
$PUCSBASE
  2

  9
$PUCSNAME
  2

  9
$PUCSORG
 10
0.0
 20
0.0
 30
0.0
  9
$PUCSXDIR
 10
1.0
 20
0.0
 30
0.0
  9
$PUCSYDIR
 10
0.0
 20
1.0
 30
0.0
  9
$PUCSORTHOREF
  2

  9
$PUCSORTHOVIEW
 70
     0
  9
$PUCSORGTOP
 10
0.0
 20
0.0
 30
0.0
  9
$PUCSORGBOTTOM
 10
0.0
 20
0.0
 30
0.0
  9
$PUCSORGLEFT
 10
0.0
 20
0.0
 30
0.0
  9
$PUCSORGRIGHT
 10
0.0
 20
0.0
 30
0.0
  9
$PUCSORGFRONT
 10
0.0
 20
0.0
 30
0.0
  9
$PUCSORGBACK
 10
0.0
 20
0.0
 30
0.0
  9
$USERI1
 70
     0
  9
$USERI2
 70
     0
  9
$USERI3
 70
     0
  9
$USERI4
 70
     0
  9
$USERI5
 70
     0
  9
$USERR1
 40
0.0
  9
$USERR2
 40
0.0
  9
$USERR3
 40
0.0
  9
$USERR4
 40
0.0
  9
$USERR5
 40
0.0
  9
$WORLDVIEW
 70
     1
  9
$SHADEDGE
 70
     3
  9
$SHADEDIF
 70
    70
  9
$TILEMODE
 70
     1
  9
$MAXACTVP
 70
    16
  9
$PINSBASE
 10
0.0
 20
0.0
 30
0.0
  9
$PLIMCHECK
 70
     0
  9
$PEXTMIN
 10
1.000000E+20
 20
1.000000E+20
 30
1.000000E+20
  9
$PEXTMAX
 10
-1.000000E+20
 20
-1.000000E+20
 30
-1.000000E+20
  9
$PLIMMIN
 10
0.0
 20
0.0
  9
$PLIMMAX
 10
12.0
 20
9.0
  9
$UNITMODE
 70
     0
  9
$VISRETAIN
 70
     0
  9
$PLINEGEN
 70
     1
  9
$PSLTSCALE
 70
     0
  9
$TREEDEPTH
 70
  3020
  9
$CMLSTYLE
  2
Standard
  9
$CMLJUST
 70
     0
  9
$CMLSCALE
 40
1.0
  9
$PROXYGRAPHICS
 70
     0
  9
$MEASUREMENT
 70
     0
  9
$CELWEIGHT
370
     0
  9
$ENDCAPS
280
     0
  9
$JOINSTYLE
280
     0
  9
$LWDISPLAY
290
     0
  9
$INSUNITS
 70
     5
  9
$HYPERLINKBASE
  1

  9
$XEDIT
290
     1
  9
$CEPSNTYPE
380
     0
  9
$PSTYLEMODE
290
     1
  9
$FINGERPRINTGUID
  2

  9
$VERSIONGUID
  2

  9
$EXTNAMES
290
     1
  9
$PSVPSCALE
 40
0.0
  0
ENDSEC
  0
SECTION
  2
CLASSES
  0
CLASS
  1
LWPOLYLINE
  2
AcDbPolyline
  3
AutoCAD 2000
 90
    32768
280
     0
281
     1
  0
CLASS
  1
IMAGE
  2
AcDbRasterImage
  3
ISM
 90
    32895
280
     0
281
     1
  0
CLASS
  1
OLE2FRAME
  2
AcDbOle2Frame
  3
AutoCAD 2000
 90
    32768
280
     0
281
     1
  0
CLASS
  1
HATCH
  2
AcDbHatch
  3
AutoCAD 2000
 90
    32768
280
     0
281
     1
  0
CLASS
  1
DICTIONARYVAR
  2
AcDbDictionaryVar
  3
AutoCAD 2000
 90
    32768
280
     0
281
     0
  0
CLASS
  1
RASTERVARIABLES
  2
AcDbRasterVariables
  3
ISM
 90
    32768
280
     0
281
     0
  0
CLASS
  1
IMAGEDEF
  2
AcDbRasterImageDef
  3
ISM
 90
    32768
280
     0
281
     0
  0
CLASS
  1
IMAGEDEF_REACTOR
  2
AcDbRasterImageDefReactor
  3
ISM
 90
    32769
280
     0
281
     0
  0
CLASS
  1
IDBUFFER
  2
AcDbIdBuffer
  3
AutoCAD 2000
 90
    32768
280
     0
281
     0
  0
CLASS
  1
SPATIAL_FILTER
  2
AcDbSpatialFilter
  3
AutoCAD 2000
 90
    32768
280
     0
281
     0
  0
CLASS
  1
XRECORD
  2
AcDbXrecord
  3
AutoCAD 2000
 90
    32768
280
     0
281
     0
  0
CLASS
  1
SORTENTSTABLE
  2
AcDbSortentsTable
  3
AutoCAD 2000
 90
    32768
280
     0
281
     0
  0
CLASS
  1
LAYER_INDEX
  2
AcDbLayerIndex
  3
AutoCAD 2000
 90
    32768
280
     0
281
     0
  0
CLASS
  1
SPATIAL_INDEX
  2
AcDbSpatialIndex
  3
AutoCAD 2000
 90
    32768
280
     0
281
     0
  0
CLASS
  1
OBJECT_PTR
  2
CAseDLPNTableRecord
  3
"ASE-LPNTableRecord"
 90
    32769
280
     0
281
     0
  0
CLASS
  1
LAYOUT
  2
AcDbLayout
  3
AutoCAD 2000
 90
        0
280
     0
281
     0
  0
CLASS
  1
PLOTSETTINGS
  2
AcDbPlotSettings
  3
AutoCAD 2000
 90
    32768
280
     0
281
     0
  0
CLASS
  1
ACDBDICTIONARYWDFLT
  2
AcDbDictionaryWithDefault
  3
AutoCAD 2000
 90
        0
280
     0
281
     0
  0
CLASS
  1
ACDBPLACEHOLDER
  2
AcDbPlaceHolder
  3
AutoCAD 2000
 90
        0
280
     0
281
     0
  0
CLASS
  1
VBA_PROJECT
  2
AcDbVbaProject
  3
acadvba
 90
    32768
280
     0
281
     0
  0
CLASS
  1
WIPEOUT
  2
AcDbWipeout
  3
WipeOut|AutoCAD Express Tool|expresstools@autodesk.com
 90
    32895
280
     0
281
     1
  0
CLASS
  1
WIPEOUTVARIABLES
  2
AcDbWipeoutVariables
  3
WipeOut|AutoCAD Express Tool|expresstools@autodesk.com
 90
        0
280
     0
281
     0
  0
CLASS
  1
RTEXT
  2
RText
  3
RText|AutoCAD Express Tool|expresstools@autodesk.com
 90
    32768
280
     0
281
     1
  0
CLASS
  1
ARCALIGNEDTEXT
  2
AcDbArcAlignedText
  3
ATEXT|AutoCAD Express Tool|expresstools@autodesk.com
 90
    32768
280
     0
281
     1
  0
ENDSEC
  0
SECTION
  2
TABLES
  0
TABLE
  2
VPORT
  5
7
100
AcDbSymbolTable
 70
     1
  0
VPORT
  5
15
100
AcDbSymbolTableRecord
100
AcDbViewportTableRecord
  2
*ACTIVE
 70
     0
 10
0.0
 20
0.0
 11
1.0
 21
1.0
 12
6.591288
 22
4.579184
 13
0.0
 23
0.0
 14
1.0
 24
1.0
 15
0.0
 25
0.0
 16
0.0
 26
0.0
 36
1.0
 17
0.0
 27
0.0
 37
0.0
 40
9.158369
 41
0.688564
 42
50.0
 43
0.0
 44
0.0
 50
0.0
 51
0.0
 71
     0
 72
   100
 73
     1
 74
     1
 75
     0
 76
     0
 77
     0
 78
     0
281
     0
 65
     0
110
0.0
120
0.0
130
0.0
111
1.0
121
0.0
131
0.0
112
0.0
122
1.0
132
0.0
345
0
346
0
 79
     0
146
0.0
  0
ENDTAB
  0
TABLE
  2
LTYPE
  5
4
100
AcDbSymbolTable
 70
     3
  0
LTYPE
  5
11
100
AcDbSymbolTableRecord
100
AcDbLinetypeTableRecord
  2
ByBlock
 70
    64
  3

 72
    65
 73
     0
 40
0.0
  0
LTYPE
  5
12
100
AcDbSymbolTableRecord
100
AcDbLinetypeTableRecord
  2
ByLayer
 70
    64
  3

 72
    65
 73
     0
 40
0.0
  0
LTYPE
  5
13
100
AcDbSymbolTableRecord
100
AcDbLinetypeTableRecord
  2
Continuous
 70
    64
  3
Solid line
 72
    65
 73
     0
 40
0.0
  0
ENDTAB
  0
TABLE
  2
LAYER
  5
2
100
AcDbSymbolTable
 70
     2
  0
LAYER
  5
14
100
AcDbSymbolTableRecord
100
AcDbLayerTableRecord
  2
0
 70
     0
 62
     7
  6
Continuous
290
     1
370
    -3
390
1D
  0
LAYER
  5
24
100
AcDbSymbolTableRecord
100
AcDbLayerTableRecord
  2
Ebene 1
 70
     0
 62
     7
  6
Continuous
290
     1
370
    -3
390
1F
  0
ENDTAB
  0
TABLE
  2
STYLE
  5
3
100
AcDbSymbolTable
 70
     1
  0
STYLE
  5
17
100
AcDbSymbolTableRecord
100
AcDbTextStyleTableRecord
  2
Standard
 70
     0
 40
0.0
 41
1.0
 50
0.0
 71
     0
 42
0.0
  3
txt
  4

  0
ENDTAB
  0
TABLE
  2
VIEW
  5
5
100
AcDbSymbolTable
 70
     0
  0
ENDTAB
  0
TABLE
  2
UCS
  5
6
100
AcDbSymbolTable
 70
     0
  0
ENDTAB
  0
TABLE
  2
APPID
  5
8
100
AcDbSymbolTable
 70
     1
  0
APPID
  5
16
100
AcDbSymbolTableRecord
100
AcDbRegAppTableRecord
  2
ACAD
 70
     0
  0
ENDTAB
  0
TABLE
  2
DIMSTYLE
  5
9
100
AcDbSymbolTable
 70
     1
100
AcDbDimStyleTable
 71
     0
  0
DIMSTYLE
105
18
100
AcDbSymbolTableRecord
100
AcDbDimStyleTableRecord
  2
Standard
 70
     0
  3

  4

 40
1.0
 41
0.18
 42
0.0625
 43
0.38
 44
0.18
 45
0.0
 46
0.0
 47
0.0
 48
0.0
 71
     0
 72
     0
 73
     1
 74
     1
 75
     0
 76
     0
 77
     0
 78
     0
 79
     0
140
0.18
141
0.09
142
0.0
143
25.4
144
1.0
145
0.0
146
1.0
147
0.09
148
0.0
170
     0
171
     2
172
     0
173
     0
174
     0
175
     0
176
     0
177
     0
178
     0
179
     0
271
     4
272
     4
273
     2
274
     2
275
     0
276
     0
277
     2
278
    46
279
     0
280
     0
281
     0
282
     0
283
     1
284
     0
285
     0
286
     0
288
     0
340
17
341
0
342
0
343
0
344
0
371
    -2
372
    -2
  0
ENDTAB
  0
TABLE
  2
BLOCK_RECORD
  5
1
100
AcDbSymbolTable
 70
     0
  0
BLOCK_RECORD
  5
A
100
AcDbSymbolTableRecord
100
AcDbBlockTableRecord
  2
*MODEL_SPACE
340
20
  0
BLOCK_RECORD
  5
B
100
AcDbSymbolTableRecord
100
AcDbBlockTableRecord
  2
*PAPER_SPACE
340
21
  0
ENDTAB
  0
ENDSEC
  0
SECTION
  2
BLOCKS
  0
BLOCK
  5
D
100
AcDbEntity
  8
0
100
AcDbBlockBegin
  2
*MODEL_SPACE
 70
     0
 10
0.0
 20
0.0
 30
0.0
  3
*MODEL_SPACE
  1

  0
ENDBLK
  5
E
100
AcDbEntity
  8
0
100
AcDbBlockEnd
  0
BLOCK
  5
F
100
AcDbEntity
 67
     1
  8
0
100
AcDbBlockBegin
  2
*PAPER_SPACE
 70
     0
 10
0.0
 20
0.0
 30
0.0
  3
*PAPER_SPACE
  1

  0
ENDBLK
  5
10
100
AcDbEntity
 67
     1
  8
0
100
AcDbBlockEnd
  0
ENDSEC
  0
SECTION
  2
ENTITIES
  0
SPLINE
  5
25
100
AcDbEntity
  8
Ebene 1
100
AcDbSpline
210
0.0
220
0.0
230
1.0
 70
     1
 71
     3
 72
   152
 73
   148
 74
     0
 42
0.0000000001
 43
0.0000000001
 40
0.0
 40
0.0
 40
0.0
 40
0.0
 40
0.027027027027027
 40
0.027027027027027
 40
0.027027027027027
 40
0.027027027027027
 40
0.0540540540540541
 40
0.0540540540540541
 40
0.0540540540540541
 40
0.0540540540540541
 40
0.0810810810810811
 40
0.0810810810810811
 40
0.0810810810810811
 40
0.0810810810810811
 40
0.1081081081081081
 40
0.1081081081081081
 40
0.1081081081081081
 40
0.1081081081081081
 40
0.1351351351351351
 40
0.1351351351351351
 40
0.1351351351351351
 40
0.1351351351351351
 40
0.1621621621621622
 40
0.1621621621621622
 40
0.1621621621621622
 40
0.1621621621621622
 40
0.1891891891891892
 40
0.1891891891891892
 40
0.1891891891891892
 40
0.1891891891891892
 40
0.2162162162162162
 40
0.2162162162162162
 40
0.2162162162162162
 40
0.2162162162162162
 40
0.2432432432432433
 40
0.2432432432432433
 40
0.2432432432432433
 40
0.2432432432432433
 40
0.2702702702702703
 40
0.2702702702702703
 40
0.2702702702702703
 40
0.2702702702702703
 40
0.2972972972972973
 40
0.2972972972972973
 40
0.2972972972972973
 40
0.2972972972972973
 40
0.3243243243243243
 40
0.3243243243243243
 40
0.3243243243243243
 40
0.3243243243243243
 40
0.3513513513513514
 40
0.3513513513513514
 40
0.3513513513513514
 40
0.3513513513513514
 40
0.3783783783783784
 40
0.3783783783783784
 40
0.3783783783783784
 40
0.3783783783783784
 40
0.4054054054054054
 40
0.4054054054054054
 40
0.4054054054054054
 40
0.4054054054054054
 40
0.4324324324324325
 40
0.4324324324324325
 40
0.4324324324324325
 40
0.4324324324324325
 40
0.4594594594594595
 40
0.4594594594594595
 40
0.4594594594594595
 40
0.4594594594594595
 40
0.4864864864864865
 40
0.4864864864864865
 40
0.4864864864864865
 40
0.4864864864864865
 40
0.5135135135135136
 40
0.5135135135135136
 40
0.5135135135135136
 40
0.5135135135135136
 40
0.5405405405405406
 40
0.5405405405405406
 40
0.5405405405405406
 40
0.5405405405405406
 40
0.5675675675675675
 40
0.5675675675675675
 40
0.5675675675675675
 40
0.5675675675675675
 40
0.5945945945945945
 40
0.5945945945945945
 40
0.5945945945945945
 40
0.5945945945945945
 40
0.6216216216216215
 40
0.6216216216216215
 40
0.6216216216216215
 40
0.6216216216216215
 40
0.6486486486486485
 40
0.6486486486486485
 40
0.6486486486486485
 40
0.6486486486486485
 40
0.6756756756756754
 40
0.6756756756756754
 40
0.6756756756756754
 40
0.6756756756756754
 40
0.7027027027027024
 40
0.7027027027027024
 40
0.7027027027027024
 40
0.7027027027027024
 40
0.7297297297297294
 40
0.7297297297297294
 40
0.7297297297297294
 40
0.7297297297297294
 40
0.7567567567567564
 40
0.7567567567567564
 40
0.7567567567567564
 40
0.7567567567567564
 40
0.7837837837837833
 40
0.7837837837837833
 40
0.7837837837837833
 40
0.7837837837837833
 40
0.8108108108108103
 40
0.8108108108108103
 40
0.8108108108108103
 40
0.8108108108108103
 40
0.8378378378378373
 40
0.8378378378378373
 40
0.8378378378378373
 40
0.8378378378378373
 40
0.8648648648648643
 40
0.8648648648648643
 40
0.8648648648648643
 40
0.8648648648648643
 40
0.8918918918918912
 40
0.8918918918918912
 40
0.8918918918918912
 40
0.8918918918918912
 40
0.9189189189189182
 40
0.9189189189189182
 40
0.9189189189189182
 40
0.9189189189189182
 40
0.9459459459459452
 40
0.9459459459459452
 40
0.9459459459459452
 40
0.9459459459459452
 40
0.9729729729729721
 40
0.9729729729729721
 40
0.9729729729729721
 40
0.9729729729729721
 40
1.0
 40
1.0
 40
1.0
 40
1.0
 10
-1.3231900000000001
 20
6.7355100000000006
 30
0.0
 10
-1.03363
 20
6.7634500000000006
 30
0.0
 10
-0.7059700000000001
 20
6.6415300000000004
 30
0.0
 10
-0.4926100000000001
 20
6.4713500000000002
 30
0.0
 10
-0.4926100000000001
 20
6.4713500000000002
 30
0.0
 10
-0.15733
 20
6.9056900000000008
 30
0.0
 10
0.9170800000000001
 20
6.6745500000000009
 30
0.0
 10
1.1228200000000002
 20
5.8388900000000001
 30
0.0
 10
1.1228200000000002
 20
5.8388900000000001
 30
0.0
 10
1.5800200000000002
 20
5.9227100000000004
 30
0.0
 10
1.9102200000000003
 20
5.4502700000000006
 30
0.0
 10
2.3064600000000004
 20
5.3639100000000006
 30
0.0
 10
2.3064600000000004
 20
5.3639100000000006
 30
0.0
 10
2.7077800000000001
 20
5.3461300000000005
 30
0.0
 10
3.05322
 20
5.6128300000000007
 30
0.0
 10
2.8576400000000004
 20
6.0293900000000002
 30
0.0
 10
2.8576400000000004
 20
6.0293900000000002
 30
0.0
 10
2.4918800000000001
 20
5.7169700000000008
 30
0.0
 10
2.20994
 20
6.4154700000000009
 30
0.0
 10
2.6519000000000004
 20
6.6135900000000003
 30
0.0
 10
2.6519000000000004
 20
6.6135900000000003
 30
0.0
 10
3.0608400000000002
 20
6.7050300000000007
 30
0.0
 10
3.4240600000000003
 20
6.4789700000000003
 30
0.0
 10
3.5383600000000004
 20
6.1284500000000008
 30
0.0
 10
3.5383600000000004
 20
6.1284500000000008
 30
0.0
 10
3.8507800000000003
 20
5.1099100000000002
 30
0.0
 10
3.2869000000000002
 20
4.85337
 30
0.0
 10
2.8170000000000002
 20
4.5790500000000005
 30
0.0
 10
2.8170000000000002
 20
4.5790500000000005
 30
0.0
 10
2.6519000000000004
 20
4.4850700000000003
 30
0.0
 10
2.6773000000000002
 20
4.28695
 30
0.0
 10
2.6773000000000002
 20
4.1904300000000001
 30
0.0
 10
2.6773000000000002
 20
4.1904300000000001
 30
0.0
 10
2.6976200000000001
 20
4.12439
 30
0.0
 10
2.7204800000000002
 20
4.0608900000000006
 30
0.0
 10
2.7916000000000003
 20
4.0354900000000002
 30
0.0
 10
2.7916000000000003
 20
4.0354900000000002
 30
0.0
 10
3.4189800000000004
 20
4.45967
 30
0.0
 10
4.3130600000000001
 20
4.1904300000000001
 30
0.0
 10
4.5289600000000005
 20
3.2938100000000001
 30
0.0
 10
4.5289600000000005
 20
3.2938100000000001
 30
0.0
 10
4.7423200000000003
 20
2.71977
 30
0.0
 10
4.5721400000000001
 20
1.9145900000000002
 30
0.0
 10
3.9142800000000002
 20
1.7367900000000001
 30
0.0
 10
3.9142800000000002
 20
1.7367900000000001
 30
0.0
 10
4.0590600000000006
 20
1.3659500000000002
 30
0.0
 10
3.8253800000000004
 20
0.8884300000000001
 30
0.0
 10
3.4316800000000001
 20
0.8147700000000001
 30
0.0
 10
3.4316800000000001
 20
0.8147700000000001
 30
0.0
 10
3.5028000000000001
 20
0.5201300000000001
 30
0.0
 10
3.5256600000000002
 20
0.16707
 30
0.0
 10
3.2411800000000004
 20
-0.03866
 30
0.0
 10
3.2411800000000004
 20
-0.03866
 30
0.0
 10
3.1141800000000002
 20
-0.1428
 30
0.0
 10
2.9592400000000003
 20
-0.19868
 30
0.0
 10
2.8043
 20
-0.22662
 30
0.0
 10
2.8043
 20
-0.22662
 30
0.0
 10
2.2836000000000003
 20
-0.0031
 30
0.0
 10
2.1464400000000001
 20
-0.31298
 30
0.0
 10
1.8264000000000002
 20
-0.6381
 30
0.0
 10
1.8264000000000002
 20
-0.6381
 30
0.0
 10
1.8949800000000001
 20
-1.1130800000000001
 30
0.0
 10
1.9483200000000001
 20
-1.6007600000000002
 30
0.0
 10
1.8975200000000001
 20
-2.0554200000000002
 30
0.0
 10
1.8975200000000001
 20
-2.0554200000000002
 30
0.0
 10
1.8746600000000002
 20
-2.2814800000000002
 30
0.0
 10
1.7476600000000002
 20
-2.0605000000000002
 30
0.0
 10
1.7044800000000002
 20
-2.1163800000000004
 30
0.0
 10
1.7044800000000002
 20
-2.1163800000000004
 30
0.0
 10
1.6105
 20
-2.2433800000000002
 30
0.0
 10
1.5190600000000001
 20
-2.22052
 30
0.0
 10
1.4174600000000002
 20
-2.1290800000000001
 30
0.0
 10
1.4174600000000002
 20
-2.1290800000000001
 30
0.0
 10
1.3438000000000001
 20
-2.06304
 30
0.0
 10
1.3311000000000002
 20
-2.2078200000000003
 30
0.0
 10
1.2269600000000001
 20
-2.1494
 30
0.0
 10
1.2269600000000001
 20
-2.1494
 30
0.0
 10
1.1609200000000002
 20
-2.1087600000000002
 30
0.0
 10
1.01868
 20
-2.1900400000000002
 30
0.0
 10
0.9907400000000001
 20
-2.26878
 30
0.0
 10
0.9907400000000001
 20
-2.26878
 30
0.0
 10
0.9907400000000001
 20
-2.26878
 30
0.0
 10
1.1329800000000001
 20
-2.2129000000000003
 30
0.0
 10
1.1329800000000001
 20
-2.2129000000000003
 30
0.0
 10
1.1329800000000001
 20
-2.2129000000000003
 30
0.0
 10
1.2117200000000001
 20
-2.69042
 30
0.0
 10
1.7629000000000001
 20
-2.1265400000000003
 30
0.0
 10
1.7857600000000002
 20
-2.5507200000000001
 30
0.0
 10
1.7857600000000002
 20
-2.5507200000000001
 30
0.0
 10
1.5851000000000002
 20
-3.0663400000000003
 30
0.0
 10
1.52668
 20
-3.8410400000000005
 30
0.0
 10
1.5495400000000001
 20
-4.3414200000000003
 30
0.0
 10
1.5495400000000001
 20
-4.3414200000000003
 30
0.0
 10
1.3666600000000002
 20
-4.3769800000000005
 30
0.0
 10
0.9018400000000001
 20
-4.2830000000000004
 30
0.0
 10
0.6884800000000001
 20
-4.3388800000000005
 30
0.0
 10
0.6884800000000001
 20
-4.3388800000000005
 30
0.0
 10
0.03316
 20
-4.5141400000000003
 30
0.0
 10
-0.31989
 20
-4.5878000000000005
 30
0.0
 10
-0.6881900000000001
 20
-4.0137600000000004
 30
0.0
 10
-0.6881900000000001
 20
-4.0137600000000004
 30
0.0
 10
-0.9980700000000001
 20
-4.6487600000000002
 30
0.0
 10
-0.7974100000000001
 20
-5.7308000000000003
 30
0.0
 10
-1.1961900000000001
 20
-6.3277000000000001
 30
0.0
 10
-1.1961900000000001
 20
-6.3277000000000001
 30
0.0
 10
-1.4298700000000002
 20
-6.6833000000000009
 30
0.0
 10
-1.7118100000000001
 20
-6.7569600000000003
 30
0.0
 10
-1.9404100000000002
 20
-6.7442600000000006
 30
0.0
 10
-1.9404100000000002
 20
-6.7442600000000006
 30
0.0
 10
-2.4357100000000003
 20
-6.7417200000000008
 30
0.0
 10
-2.6770100000000001
 20
-6.2159400000000007
 30
0.0
 10
-2.7887700000000004
 20
-5.8095400000000001
 30
0.0
 10
-2.7887700000000004
 20
-5.8095400000000001
 30
0.0
 10
-2.8344900000000002
 20
-5.3904400000000008
 30
0.0
 10
-3.0986500000000001
 20
-4.60304
 30
0.0
 10
-2.4661900000000001
 20
-4.5446200000000001
 30
0.0
 10
-2.4661900000000001
 20
-4.5446200000000001
 30
0.0
 10
-2.7201900000000001
 20
-4.2550600000000003
 30
0.0
 10
-2.4941300000000002
 20
-3.8867600000000002
 30
0.0
 10
-2.4357100000000003
 20
-3.5718000000000001
 30
0.0
 10
-2.4357100000000003
 20
-3.5718000000000001
 30
0.0
 10
-2.9208500000000002
 20
-3.6734000000000004
 30
0.0
 10
-3.6625300000000003
 20
-3.0358600000000004
 30
0.0
 10
-2.9157700000000002
 20
-2.7082000000000002
 30
0.0
 10
-2.9157700000000002
 20
-2.7082000000000002
 30
0.0
 10
-3.1240500000000004
 20
-2.4643600000000001
 30
0.0
 10
-3.1011900000000003
 20
-2.0351000000000004
 30
0.0
 10
-2.9487900000000002
 20
-1.7887200000000001
 30
0.0
 10
-2.9487900000000002
 20
-1.7887200000000001
 30
0.0
 10
-3.1850100000000001
 20
-1.5169400000000002
 30
0.0
 10
-3.4948900000000003
 20
-1.5626600000000002
 30
0.0
 10
-3.7641300000000002
 20
-1.4128000000000001
 30
0.0
 10
-3.7641300000000002
 20
-1.4128000000000001
 30
0.0
 10
-3.8047700000000004
 20
-1.2553200000000002
 30
0.0
 10
-3.8276300000000005
 20
-1.0927600000000002
 30
0.0
 10
-3.8403300000000002
 20
-0.9251200000000001
 30
0.0
 10
-3.8403300000000002
 20
-0.9251200000000001
 30
0.0
 10
-5.2703500000000005
 20
1.0078100000000001
 30
0.0
 10
-4.6963100000000004
 20
4.1345499999999999
 30
0.0
 10
-2.2604500000000001
 20
5.0286300000000006
 30
0.0
 10
-2.2604500000000001
 20
5.0286300000000006
 30
0.0
 10
-2.7481300000000002
 20
5.1988100000000008
 30
0.0
 10
-2.4636500000000003
 20
5.9049300000000002
 30
0.0
 10
-1.9708900000000003
 20
5.8261900000000004
 30
0.0
 10
-1.9708900000000003
 20
5.8261900000000004
 30
0.0
 10
-2.11313
 20
6.2732300000000008
 30
0.0
 10
-1.7194300000000002
 20
6.6643900000000009
 30
0.0
 10
-1.3231900000000001
 20
6.7355100000000006
 30
0.0
  0
SPLINE
  5
26
100
AcDbEntity
  8
Ebene 1
100
AcDbSpline
210
0.0
220
0.0
230
1.0
 70
     1
 71
     3
 72
    20
 73
    16
 74
     0
 42
0.0000000001
 43
0.0000000001
 40
0.0
 40
0.0
 40
0.0
 40
0.0
 40
0.25
 40
0.25
 40
0.25
 40
0.25
 40
0.5
 40
0.5
 40
0.5
 40
0.5
 40
0.75
 40
0.75
 40
0.75
 40
0.75
 40
1.0
 40
1.0
 40
1.0
 40
1.0
 10
-1.5289300000000001
 20
-1.4331200000000002
 30
0.0
 10
-1.5289300000000001
 20
-1.4331200000000002
 30
0.0
 10
-1.7270500000000002
 20
-1.58806
 30
0.0
 10
-1.7270500000000002
 20
-1.58806
 30
0.0
 10
-1.7270500000000002
 20
-1.58806
 30
0.0
 10
-1.7118100000000001
 20
-1.7303000000000002
 30
0.0
 10
-1.6483100000000002
 20
-1.9258800000000003
 30
0.0
 10
-1.5136900000000002
 20
-1.9843000000000002
 30
0.0
 10
-1.5136900000000002
 20
-1.9843000000000002
 30
0.0
 10
-1.42225
 20
-1.8293600000000001
 30
0.0
 10
-1.42225
 20
-1.6058400000000002
 30
0.0
 10
-1.4882900000000001
 20
-1.4331200000000002
 30
0.0
 10
-1.4882900000000001
 20
-1.4331200000000002
 30
0.0
 10
-1.4882900000000001
 20
-1.4331200000000002
 30
0.0
 10
-1.5289300000000001
 20
-1.4331200000000002
 30
0.0
 10
-1.5289300000000001
 20
-1.4331200000000002
 30
0.0
  0
SPLINE
  5
27
100
AcDbEntity
  8
Ebene 1
100
AcDbSpline
210
0.0
220
0.0
230
1.0
 70
     1
 71
     3
 72
    52
 73
    48
 74
     0
 42
0.0000000001
 43
0.0000000001
 40
0.0
 40
0.0
 40
0.0
 40
0.0
 40
0.0833333333333333
 40
0.0833333333333333
 40
0.0833333333333333
 40
0.0833333333333333
 40
0.1666666666666667
 40
0.1666666666666667
 40
0.1666666666666667
 40
0.1666666666666667
 40
0.25
 40
0.25
 40
0.25
 40
0.25
 40
0.3333333333333333
 40
0.3333333333333333
 40
0.3333333333333333
 40
0.3333333333333333
 40
0.4166666666666666
 40
0.4166666666666666
 40
0.4166666666666666
 40
0.4166666666666666
 40
0.4999999999999999
 40
0.4999999999999999
 40
0.4999999999999999
 40
0.4999999999999999
 40
0.5833333333333333
 40
0.5833333333333333
 40
0.5833333333333333
 40
0.5833333333333333
 40
0.6666666666666666
 40
0.6666666666666666
 40
0.6666666666666666
 40
0.6666666666666666
 40
0.75
 40
0.75
 40
0.75
 40
0.75
 40
0.8333333333333334
 40
0.8333333333333334
 40
0.8333333333333334
 40
0.8333333333333334
 40
0.9166666666666667
 40
0.9166666666666667
 40
0.9166666666666667
 40
0.9166666666666667
 40
1.0
 40
1.0
 40
1.0
 40
1.0
 10
-0.9904500000000001
 20
-1.07752
 30
0.0
 10
-1.1377700000000002
 20
-1.3747
 30
0.0
 10
-1.16317
 20
-1.7633200000000002
 30
0.0
 10
-1.00315
 20
-2.0554200000000002
 30
0.0
 10
-1.00315
 20
-2.0554200000000002
 30
0.0
 10
-0.95235
 20
-2.0173200000000002
 30
0.0
 10
-0.9421900000000001
 20
-1.8979400000000002
 30
0.0
 10
-0.8507500000000001
 20
-1.9309600000000002
 30
0.0
 10
-0.8507500000000001
 20
-1.9309600000000002
 30
0.0
 10
-0.8507500000000001
 20
-1.9309600000000002
 30
0.0
 10
-0.72121
 20
-2.0986000000000002
 30
0.0
 10
-0.72121
 20
-2.0986000000000002
 30
0.0
 10
-0.72121
 20
-2.0986000000000002
 30
0.0
 10
-0.6653300000000001
 20
-2.0986000000000002
 30
0.0
 10
-0.63993
 20
-1.9614400000000001
 30
0.0
 10
-0.5789700000000001
 20
-2.0122400000000003
 30
0.0
 10
-0.5789700000000001
 20
-2.0122400000000003
 30
0.0
 10
-0.5789700000000001
 20
-2.0122400000000003
 30
0.0
 10
-0.47483
 20
-2.4338800000000003
 30
0.0
 10
-0.47483
 20
-2.4338800000000003
 30
0.0
 10
-0.47483
 20
-2.4338800000000003
 30
0.0
 10
-0.47483
 20
-2.4338800000000003
 30
0.0
 10
-0.39101
 20
-2.3424400000000003
 30
0.0
 10
-0.39101
 20
-2.3424400000000003
 30
0.0
 10
-0.39101
 20
-2.3424400000000003
 30
0.0
 10
-0.39101
 20
-2.3424400000000003
 30
0.0
 10
-0.29957
 20
-2.3627600000000002
 30
0.0
 10
-0.29957
 20
-2.3627600000000002
 30
0.0
 10
-0.29957
 20
-2.3627600000000002
 30
0.0
 10
-0.27925
 20
-2.2179800000000003
 30
0.0
 10
-0.20813
 20
-1.7887200000000001
 30
0.0
 10
-0.46721
 20
-1.8420600000000003
 30
0.0
 10
-0.46721
 20
-1.8420600000000003
 30
0.0
 10
-0.46721
 20
-1.8420600000000003
 30
0.0
 10
-0.53325
 20
-1.79634
 30
0.0
 10
-0.53325
 20
-1.79634
 30
0.0
 10
-0.53325
 20
-1.79634
 30
0.0
 10
-0.53325
 20
-1.79634
 30
0.0
 10
-0.5815100000000001
 20
-1.5753600000000001
 30
0.0
 10
-0.5815100000000001
 20
-1.5753600000000001
 30
0.0
 10
-0.5815100000000001
 20
-1.5753600000000001
 30
0.0
 10
-0.7059700000000001
 20
-1.58552
 30
0.0
 10
-0.86853
 20
-1.6388600000000002
 30
0.0
 10
-0.9447300000000001
 20
-1.5271000000000001
 30
0.0
 10
-0.9447300000000001
 20
-1.5271000000000001
 30
0.0
 10
-0.9447300000000001
 20
-1.37978
 30
0.0
 10
-0.90917
 20
-1.1994400000000001
 30
0.0
 10
-0.9904500000000001
 20
-1.07752
 30
0.0
  0
SPLINE
  5
28
100
AcDbEntity
  8
Ebene 1
100
AcDbSpline
210
0.0
220
0.0
230
1.0
 70
     1
 71
     3
 72
    24
 73
    20
 74
     0
 42
0.0000000001
 43
0.0000000001
 40
0.0
 40
0.0
 40
0.0
 40
0.0
 40
0.2
 40
0.2
 40
0.2
 40
0.2
 40
0.4
 40
0.4
 40
0.4
 40
0.4
 40
0.6000000000000001
 40
0.6000000000000001
 40
0.6000000000000001
 40
0.6000000000000001
 40
0.8
 40
0.8
 40
0.8
 40
0.8
 40
1.0
 40
1.0
 40
1.0
 40
1.0
 10
-1.4146300000000001
 20
-3.5565600000000002
 30
0.0
 10
-1.41717
 20
-3.8308800000000005
 30
0.0
 10
-1.6102100000000001
 20
-3.9832800000000002
 30
0.0
 10
-1.6864100000000002
 20
-4.2245800000000004
 30
0.0
 10
-1.6864100000000002
 20
-4.2245800000000004
 30
0.0
 10
-1.6864100000000002
 20
-4.2245800000000004
 30
0.0
 10
-1.7372100000000001
 20
-4.4455600000000004
 30
0.0
 10
-1.7372100000000001
 20
-4.4455600000000004
 30
0.0
 10
-1.7372100000000001
 20
-4.4455600000000004
 30
0.0
 10
-1.7372100000000001
 20
-4.4455600000000004
 30
0.0
 10
-1.3892300000000002
 20
-4.4735000000000005
 30
0.0
 10
-1.3892300000000002
 20
-4.4735000000000005
 30
0.0
 10
-1.3892300000000002
 20
-4.4735000000000005
 30
0.0
 10
-1.3028700000000002
 20
-4.2144200000000005
 30
0.0
 10
-1.2012700000000001
 20
-3.9528000000000003
 30
0.0
 10
-1.1352300000000002
 20
-3.6886400000000004
 30
0.0
 10
-1.1352300000000002
 20
-3.6886400000000004
 30
0.0
 10
-1.1352300000000002
 20
-3.6886400000000004
 30
0.0
 10
-1.4146300000000001
 20
-3.5565600000000002
 30
0.0
 10
-1.4146300000000001
 20
-3.5565600000000002
 30
0.0
  0
SPLINE
  5
29
100
AcDbEntity
  8
Ebene 1
 62
     7
100
AcDbSpline
210
0.0
220
0.0
230
1.0
 70
     1
 71
     3
 72
   172
 73
   168
 74
     0
 42
0.0000000001
 43
0.0000000001
 40
0.0
 40
0.0
 40
0.0
 40
0.0
 40
0.0238095238095238
 40
0.0238095238095238
 40
0.0238095238095238
 40
0.0238095238095238
 40
0.0476190476190476
 40
0.0476190476190476
 40
0.0476190476190476
 40
0.0476190476190476
 40
0.0714285714285714
 40
0.0714285714285714
 40
0.0714285714285714
 40
0.0714285714285714
 40
0.0952380952380952
 40
0.0952380952380952
 40
0.0952380952380952
 40
0.0952380952380952
 40
0.119047619047619
 40
0.119047619047619
 40
0.119047619047619
 40
0.119047619047619
 40
0.1428571428571429
 40
0.1428571428571429
 40
0.1428571428571429
 40
0.1428571428571429
 40
0.1666666666666667
 40
0.1666666666666667
 40
0.1666666666666667
 40
0.1666666666666667
 40
0.1904761904761905
 40
0.1904761904761905
 40
0.1904761904761905
 40
0.1904761904761905
 40
0.2142857142857143
 40
0.2142857142857143
 40
0.2142857142857143
 40
0.2142857142857143
 40
0.2380952380952381
 40
0.2380952380952381
 40
0.2380952380952381
 40
0.2380952380952381
 40
0.2619047619047619
 40
0.2619047619047619
 40
0.2619047619047619
 40
0.2619047619047619
 40
0.2857142857142857
 40
0.2857142857142857
 40
0.2857142857142857
 40
0.2857142857142857
 40
0.3095238095238095
 40
0.3095238095238095
 40
0.3095238095238095
 40
0.3095238095238095
 40
0.3333333333333334
 40
0.3333333333333334
 40
0.3333333333333334
 40
0.3333333333333334
 40
0.3571428571428572
 40
0.3571428571428572
 40
0.3571428571428572
 40
0.3571428571428572
 40
0.380952380952381
 40
0.380952380952381
 40
0.380952380952381
 40
0.380952380952381
 40
0.4047619047619049
 40
0.4047619047619049
 40
0.4047619047619049
 40
0.4047619047619049
 40
0.4285714285714287
 40
0.4285714285714287
 40
0.4285714285714287
 40
0.4285714285714287
 40
0.4523809523809526
 40
0.4523809523809526
 40
0.4523809523809526
 40
0.4523809523809526
 40
0.4761904761904764
 40
0.4761904761904764
 40
0.4761904761904764
 40
0.4761904761904764
 40
0.5000000000000002
 40
0.5000000000000002
 40
0.5000000000000002
 40
0.5000000000000002
 40
0.5238095238095241
 40
0.5238095238095241
 40
0.5238095238095241
 40
0.5238095238095241
 40
0.5476190476190479
 40
0.5476190476190479
 40
0.5476190476190479
 40
0.5476190476190479
 40
0.5714285714285717
 40
0.5714285714285717
 40
0.5714285714285717
 40
0.5714285714285717
 40
0.5952380952380956
 40
0.5952380952380956
 40
0.5952380952380956
 40
0.5952380952380956
 40
0.6190476190476194
 40
0.6190476190476194
 40
0.6190476190476194
 40
0.6190476190476194
 40
0.6428571428571432
 40
0.6428571428571432
 40
0.6428571428571432
 40
0.6428571428571432
 40
0.6666666666666671
 40
0.6666666666666671
 40
0.6666666666666671
 40
0.6666666666666671
 40
0.6904761904761909
 40
0.6904761904761909
 40
0.6904761904761909
 40
0.6904761904761909
 40
0.7142857142857148
 40
0.7142857142857148
 40
0.7142857142857148
 40
0.7142857142857148
 40
0.7380952380952386
 40
0.7380952380952386
 40
0.7380952380952386
 40
0.7380952380952386
 40
0.7619047619047624
 40
0.7619047619047624
 40
0.7619047619047624
 40
0.7619047619047624
 40
0.7857142857142863
 40
0.7857142857142863
 40
0.7857142857142863
 40
0.7857142857142863
 40
0.8095238095238101
 40
0.8095238095238101
 40
0.8095238095238101
 40
0.8095238095238101
 40
0.8333333333333339
 40
0.8333333333333339
 40
0.8333333333333339
 40
0.8333333333333339
 40
0.8571428571428578
 40
0.8571428571428578
 40
0.8571428571428578
 40
0.8571428571428578
 40
0.8809523809523816
 40
0.8809523809523816
 40
0.8809523809523816
 40
0.8809523809523816
 40
0.9047619047619054
 40
0.9047619047619054
 40
0.9047619047619054
 40
0.9047619047619054
 40
0.9285714285714293
 40
0.9285714285714293
 40
0.9285714285714293
 40
0.9285714285714293
 40
0.9523809523809531
 40
0.9523809523809531
 40
0.9523809523809531
 40
0.9523809523809531
 40
0.9761904761904769
 40
0.9761904761904769
 40
0.9761904761904769
 40
0.9761904761904769
 40
1.0
 40
1.0
 40
1.0
 40
1.0
 10
-1.2317500000000001
 20
6.6288300000000007
 30
0.0
 10
-0.36053
 20
6.7990100000000009
 30
0.0
 10
-0.9574300000000001
 20
5.3385100000000003
 30
0.0
 10
-0.01509
 20
5.5848900000000006
 30
0.0
 10
-0.01509
 20
5.5848900000000006
 30
0.0
 10
-0.76185
 20
5.6001300000000001
 30
0.0
 10
-0.6196100000000001
 20
6.6999500000000003
 30
0.0
 10
0.14238
 20
6.5577100000000002
 30
0.0
 10
0.14238
 20
6.5577100000000002
 30
0.0
 10
0.57672
 20
6.4865900000000005
 30
0.0
 10
1.1583800000000002
 20
6.1030500000000005
 30
0.0
 10
0.9399400000000001
 20
5.6128300000000007
 30
0.0
 10
0.9399400000000001
 20
5.6128300000000007
 30
0.0
 10
1.6028800000000001
 20
6.0370100000000004
 30
0.0
 10
2.2582
 20
4.7136700000000005
 30
0.0
 10
2.9135200000000001
 20
5.5518700000000001
 30
0.0
 10
2.9135200000000001
 20
5.5518700000000001
 30
0.0
 10
3.1548200000000004
 20
5.8312700000000008
 30
0.0
 10
2.7357200000000002
 20
6.5577100000000002
 30
0.0
 10
2.6061800000000002
 20
6.0319300000000009
 30
0.0
 10
2.6061800000000002
 20
6.0319300000000009
 30
0.0
 10
2.5426800000000003
 20
6.0547900000000006
 30
0.0
 10
2.4969600000000001
 20
6.1208300000000007
 30
0.0
 10
2.50712
 20
6.1894100000000005
 30
0.0
 10
2.50712
 20
6.1894100000000005
 30
0.0
 10
2.4512400000000003
 20
6.3443500000000004
 30
0.0
 10
2.5731600000000001
 20
6.4713500000000002
 30
0.0
 10
2.6823800000000002
 20
6.5577100000000002
 30
0.0
 10
2.6823800000000002
 20
6.5577100000000002
 30
0.0
 10
3.7974400000000004
 20
6.5729500000000005
 30
0.0
 10
3.8660200000000002
 20
4.9879900000000008
 30
0.0
 10
2.8093800000000004
 20
4.7416100000000005
 30
0.0
 10
2.8093800000000004
 20
4.7416100000000005
 30
0.0
 10
2.5884
 20
4.7492300000000007
 30
0.0
 10
2.2302600000000004
 20
3.9694500000000001
 30
0.0
 10
2.7738200000000002
 20
3.8399100000000002
 30
0.0
 10
2.7738200000000002
 20
3.8399100000000002
 30
0.0
 10
4.5162599999999999
 20
5.3232700000000008
 30
0.0
 10
5.2858800000000006
 20
1.0535300000000001
 30
0.0
 10
3.2767400000000002
 20
2.0542899999999999
 30
0.0
 10
3.2767400000000002
 20
2.0542899999999999
 30
0.0
 10
2.75604
 20
2.7756500000000002
 30
0.0
 10
4.3943400000000006
 20
2.8899500000000002
 30
0.0
 10
3.6983800000000002
 20
2.3921100000000002
 30
0.0
 10
3.6983800000000002
 20
2.3921100000000002
 30
0.0
 10
3.8990400000000003
 20
2.0542899999999999
 30
0.0
 10
4.25718
 20
2.5876900000000003
 30
0.0
 10
3.9244400000000002
 20
2.7324700000000002
 30
0.0
 10
3.9244400000000002
 20
2.7324700000000002
 30
0.0
 10
4.0692200000000005
 20
3.5046300000000001
 30
0.0
 10
2.5579200000000002
 20
3.2430100000000004
 30
0.0
 10
3.1878400000000005
 20
2.5622900000000004
 30
0.0
 10
3.1878400000000005
 20
2.5622900000000004
 30
0.0
 10
3.1243400000000001
 20
2.4327500000000004
 30
0.0
 10
3.0913200000000001
 20
2.2778100000000001
 30
0.0
 10
3.1497400000000004
 20
2.1406500000000004
 30
0.0
 10
3.1497400000000004
 20
2.1406500000000004
 30
0.0
 10
3.1903800000000002
 20
2.0517500000000002
 30
0.0
 10
3.2615000000000003
 20
1.9806300000000001
 30
0.0
 10
3.3326200000000004
 20
1.9145900000000002
 30
0.0
 10
3.3326200000000004
 20
1.9145900000000002
 30
0.0
 10
4.2190799999999999
 20
1.9069700000000001
 30
0.0
 10
3.7745800000000003
 20
0.53537
 30
0.0
 10
3.0887800000000003
 20
1.11449
 30
0.0
 10
3.0887800000000003
 20
1.11449
 30
0.0
 10
2.9998800000000001
 20
1.1373500000000001
 30
0.0
 10
2.8982800000000002
 20
1.1703700000000001
 30
0.0
 10
2.8093800000000004
 20
1.1271900000000001
 30
0.0
 10
2.8093800000000004
 20
1.1271900000000001
 30
0.0
 10
2.4029800000000003
 20
0.8960500000000001
 30
0.0
 10
2.50712
 20
0.4744100000000001
 30
0.0
 10
2.7154000000000003
 20
0.33217
 30
0.0
 10
2.7154000000000003
 20
0.33217
 30
0.0
 10
2.9668600000000001
 20
0.15437
 30
0.0
 10
3.4037400000000004
 20
0.29661
 30
0.0
 10
3.0430600000000001
 20
0.7588900000000001
 30
0.0
 10
3.0430600000000001
 20
0.7588900000000001
 30
0.0
 10
2.6823800000000002
 20
0.6953900000000001
 30
0.0
 10
3.1878400000000005
 20
0.70301
 30
0.0
 10
3.0633800000000004
 20
0.46933
 30
0.0
 10
3.0633800000000004
 20
0.46933
 30
0.0
 10
2.7941400000000001
 20
0.24327
 30
0.0
 10
2.5274400000000004
 20
0.8198500000000001
 30
0.0
 10
2.7941400000000001
 20
1.0128900000000001
 30
0.0
 10
2.7941400000000001
 20
1.0128900000000001
 30
0.0
 10
3.0837000000000003
 20
1.19577
 30
0.0
 10
3.4266000000000001
 20
0.7944500000000001
 30
0.0
 10
3.3859600000000003
 20
0.5201300000000001
 30
0.0
 10
3.3859600000000003
 20
0.5201300000000001
 30
0.0
 10
3.4418400000000005
 20
-0.12502
 30
0.0
 10
2.4436200000000001
 20
-0.28504
 30
0.0
 10
2.2556600000000002
 20
0.34233
 30
0.0
 10
2.2556600000000002
 20
0.34233
 30
0.0
 10
1.7832200000000002
 20
0.91383
 30
0.0
 10
2.6722200000000003
 20
2.3209900000000001
 30
0.0
 10
2.9033600000000002
 20
1.2440300000000002
 30
0.0
 10
2.9033600000000002
 20
1.2440300000000002
 30
0.0
 10
2.9440000000000004
 20
1.1678300000000001
 30
0.0
 10
3.0202000000000004
 20
1.2135500000000001
 30
0.0
 10
3.0176600000000002
 20
1.2872100000000002
 30
0.0
 10
3.0176600000000002
 20
1.2872100000000002
 30
0.0
 10
3.0430600000000001
 20
1.5996300000000001
 30
0.0
 10
2.6671400000000003
 20
1.9653900000000002
 30
0.0
 10
2.3699600000000003
 20
1.7444100000000002
 30
0.0
 10
2.3699600000000003
 20
1.7444100000000002
 30
0.0
 10
2.37758
 20
2.3717900000000003
 30
0.0
 10
2.3623400000000001
 20
3.2049100000000004
 30
0.0
 10
3.0557600000000003
 20
3.5071700000000003
 30
0.0
 10
3.0557600000000003
 20
3.5071700000000003
 30
0.0
 10
2.5731600000000001
 20
3.4817700000000005
 30
0.0
 10
2.3598000000000003
 20
2.9102700000000001
 30
0.0
 10
2.1820000000000004
 20
2.5318100000000001
 30
0.0
 10
2.1820000000000004
 20
2.5318100000000001
 30
0.0
 10
1.9940400000000003
 20
3.0677500000000002
 30
0.0
 10
1.6257400000000002
 20
3.5427300000000002
 30
0.0
 10
1.3869800000000001
 20
4.04819
 30
0.0
 10
1.3869800000000001
 20
4.04819
 30
0.0
 10
1.5851000000000002
 20
4.3783900000000004
 30
0.0
 10
2.1515200000000001
 20
4.2818700000000005
 30
0.0
 10
2.3191600000000001
 20
4.64255
 30
0.0
 10
2.3191600000000001
 20
4.64255
 30
0.0
 10
2.0219800000000001
 20
4.3504500000000004
 30
0.0
 10
1.5368400000000002
 20
4.4520500000000007
 30
0.0
 10
1.2650600000000001
 20
4.1523300000000001
 30
0.0
 10
1.2650600000000001
 20
4.1523300000000001
 30
0.0
 10
0.86882
 20
4.4063300000000005
 30
0.0
 10
0.7494400000000001
 20
4.8254300000000008
 30
0.0
 10
1.2422000000000002
 20
5.0387900000000005
 30
0.0
 10
1.2422000000000002
 20
5.0387900000000005
 30
0.0
 10
0.9780400000000001
 20
5.1353100000000005
 30
0.0
 10
0.8739000000000001
 20
4.8381300000000005
 30
0.0
 10
0.72404
 20
4.8101900000000004
 30
0.0
 10
0.72404
 20
4.8101900000000004
 30
0.0
 10
0.59196
 20
4.7847900000000001
 30
0.0
 10
0.4624200000000001
 20
4.8305100000000003
 30
0.0
 10
0.29732
 20
5.0260900000000008
 30
0.0
 10
0.29732
 20
5.0260900000000008
 30
0.0
 10
0.7392800000000001
 20
5.2826300000000002
 30
0.0
 10
0.6122800000000001
 20
6.0751100000000005
 30
0.0
 10
0.05602
 20
6.0319300000000009
 30
0.0
 10
0.05602
 20
6.0319300000000009
 30
0.0
 10
0.09158
 20
5.8922300000000005
 30
0.0
 10
0.4522600000000001
 20
5.8388900000000001
 30
0.0
 10
0.4802
 20
5.6077500000000002
 30
0.0
 10
0.4802
 20
5.6077500000000002
 30
0.0
 10
0.11952
 20
4.6527100000000008
 30
0.0
 10
-1.2723900000000001
 20
5.6179100000000002
 30
0.0
 10
-2.01153
 20
5.0692700000000004
 30
0.0
 10
-2.01153
 20
5.0692700000000004
 30
0.0
 10
-2.1105900000000002
 20
5.1200700000000001
 30
0.0
 10
-2.2528300000000003
 20
5.0464100000000007
 30
0.0
 10
-2.3315700000000001
 20
5.1734100000000005
 30
0.0
 10
-2.3315700000000001
 20
5.1734100000000005
 30
0.0
 10
-2.4560300000000002
 20
6.3037100000000006
 30
0.0
 10
-1.3155700000000001
 20
4.7619300000000004
 30
0.0
 10
-0.9625100000000001
 20
5.5925100000000008
 30
0.0
 10
-0.9625100000000001
 20
5.5925100000000008
 30
0.0
 10
-0.7669300000000001
 20
5.9658900000000008
 30
0.0
 10
-1.50099
 20
6.1030500000000005
 30
0.0
 10
-1.29017
 20
5.6763300000000001
 30
0.0
 10
-1.29017
 20
5.6763300000000001
 30
0.0
 10
-1.0717300000000001
 20
5.5417100000000001
 30
0.0
 10
-1.3663700000000001
 20
6.1081300000000001
 30
0.0
 10
-1.0488700000000002
 20
5.7880900000000004
 30
0.0
 10
-1.0488700000000002
 20
5.7880900000000004
 30
0.0
 10
-1.4882900000000001
 20
4.5511100000000004
 30
0.0
 10
-2.5119100000000003
 20
6.5729500000000005
 30
0.0
 10
-1.2317500000000001
 20
6.6288300000000007
 30
0.0
  0
SPLINE
  5
2A
100
AcDbEntity
  8
Ebene 1
 62
     7
100
AcDbSpline
210
0.0
220
0.0
230
1.0
 70
     1
 71
     3
 72
   160
 73
   156
 74
     0
 42
0.0000000001
 43
0.0000000001
 40
0.0
 40
0.0
 40
0.0
 40
0.0
 40
0.0256410256410256
 40
0.0256410256410256
 40
0.0256410256410256
 40
0.0256410256410256
 40
0.0512820512820513
 40
0.0512820512820513
 40
0.0512820512820513
 40
0.0512820512820513
 40
0.0769230769230769
 40
0.0769230769230769
 40
0.0769230769230769
 40
0.0769230769230769
 40
0.1025641025641026
 40
0.1025641025641026
 40
0.1025641025641026
 40
0.1025641025641026
 40
0.1282051282051282
 40
0.1282051282051282
 40
0.1282051282051282
 40
0.1282051282051282
 40
0.1538461538461538
 40
0.1538461538461538
 40
0.1538461538461538
 40
0.1538461538461538
 40
0.1794871794871795
 40
0.1794871794871795
 40
0.1794871794871795
 40
0.1794871794871795
 40
0.2051282051282051
 40
0.2051282051282051
 40
0.2051282051282051
 40
0.2051282051282051
 40
0.2307692307692307
 40
0.2307692307692307
 40
0.2307692307692307
 40
0.2307692307692307
 40
0.2564102564102564
 40
0.2564102564102564
 40
0.2564102564102564
 40
0.2564102564102564
 40
0.2820512820512821
 40
0.2820512820512821
 40
0.2820512820512821
 40
0.2820512820512821
 40
0.3076923076923077
 40
0.3076923076923077
 40
0.3076923076923077
 40
0.3076923076923077
 40
0.3333333333333334
 40
0.3333333333333334
 40
0.3333333333333334
 40
0.3333333333333334
 40
0.358974358974359
 40
0.358974358974359
 40
0.358974358974359
 40
0.358974358974359
 40
0.3846153846153847
 40
0.3846153846153847
 40
0.3846153846153847
 40
0.3846153846153847
 40
0.4102564102564104
 40
0.4102564102564104
 40
0.4102564102564104
 40
0.4102564102564104
 40
0.435897435897436
 40
0.435897435897436
 40
0.435897435897436
 40
0.435897435897436
 40
0.4615384615384617
 40
0.4615384615384617
 40
0.4615384615384617
 40
0.4615384615384617
 40
0.4871794871794873
 40
0.4871794871794873
 40
0.4871794871794873
 40
0.4871794871794873
 40
0.512820512820513
 40
0.512820512820513
 40
0.512820512820513
 40
0.512820512820513
 40
0.5384615384615387
 40
0.5384615384615387
 40
0.5384615384615387
 40
0.5384615384615387
 40
0.5641025641025643
 40
0.5641025641025643
 40
0.5641025641025643
 40
0.5641025641025643
 40
0.58974358974359
 40
0.58974358974359
 40
0.58974358974359
 40
0.58974358974359
 40
0.6153846153846156
 40
0.6153846153846156
 40
0.6153846153846156
 40
0.6153846153846156
 40
0.6410256410256413
 40
0.6410256410256413
 40
0.6410256410256413
 40
0.6410256410256413
 40
0.666666666666667
 40
0.666666666666667
 40
0.666666666666667
 40
0.666666666666667
 40
0.6923076923076926
 40
0.6923076923076926
 40
0.6923076923076926
 40
0.6923076923076926
 40
0.7179487179487183
 40
0.7179487179487183
 40
0.7179487179487183
 40
0.7179487179487183
 40
0.743589743589744
 40
0.743589743589744
 40
0.743589743589744
 40
0.743589743589744
 40
0.7692307692307696
 40
0.7692307692307696
 40
0.7692307692307696
 40
0.7692307692307696
 40
0.7948717948717953
 40
0.7948717948717953
 40
0.7948717948717953
 40
0.7948717948717953
 40
0.8205128205128209
 40
0.8205128205128209
 40
0.8205128205128209
 40
0.8205128205128209
 40
0.8461538461538466
 40
0.8461538461538466
 40
0.8461538461538466
 40
0.8461538461538466
 40
0.8717948717948723
 40
0.8717948717948723
 40
0.8717948717948723
 40
0.8717948717948723
 40
0.8974358974358979
 40
0.8974358974358979
 40
0.8974358974358979
 40
0.8974358974358979
 40
0.9230769230769236
 40
0.9230769230769236
 40
0.9230769230769236
 40
0.9230769230769236
 40
0.9487179487179492
 40
0.9487179487179492
 40
0.9487179487179492
 40
0.9487179487179492
 40
0.9743589743589749
 40
0.9743589743589749
 40
0.9743589743589749
 40
0.9743589743589749
 40
1.0
 40
1.0
 40
1.0
 40
1.0
 10
-1.2165100000000002
 20
5.1556300000000004
 30
0.0
 10
-0.78471
 20
5.1962700000000002
 30
0.0
 10
-0.3960900000000001
 20
4.9981500000000008
 30
0.0
 10
-0.09383
 20
4.7060500000000003
 30
0.0
 10
-0.09383
 20
4.7060500000000003
 30
0.0
 10
-0.00747
 20
4.79495
 30
0.0
 10
-0.28687
 20
4.9321100000000007
 30
0.0
 10
-0.36307
 20
5.0235500000000002
 30
0.0
 10
-0.36307
 20
5.0235500000000002
 30
0.0
 10
0.7951600000000001
 20
5.0311700000000004
 30
0.0
 10
1.6155800000000002
 20
3.6646500000000004
 30
0.0
 10
1.9407000000000001
 20
2.6740500000000003
 30
0.0
 10
1.9407000000000001
 20
2.6740500000000003
 30
0.0
 10
1.9407000000000001
 20
2.6740500000000003
 30
0.0
 10
1.4631800000000001
 20
2.3108300000000002
 30
0.0
 10
1.4631800000000001
 20
2.3108300000000002
 30
0.0
 10
1.4631800000000001
 20
2.3108300000000002
 30
0.0
 10
1.9788000000000001
 20
2.7324700000000002
 30
0.0
 10
2.63666
 20
2.1381100000000002
 30
0.0
 10
2.1210400000000003
 20
1.6021700000000001
 30
0.0
 10
2.1210400000000003
 20
1.6021700000000001
 30
0.0
 10
1.8772000000000002
 20
1.9399900000000001
 30
0.0
 10
1.4631800000000001
 20
1.2262500000000001
 30
0.0
 10
1.1177400000000002
 20
1.3430900000000001
 30
0.0
 10
1.1177400000000002
 20
1.3430900000000001
 30
0.0
 10
1.4301600000000001
 20
0.41599
 30
0.0
 10
1.9203800000000002
 20
-0.5568200000000001
 30
0.0
 10
1.8518000000000001
 20
-1.6414000000000002
 30
0.0
 10
1.8518000000000001
 20
-1.6414000000000002
 30
0.0
 10
1.8518000000000001
 20
-1.6414000000000002
 30
0.0
 10
1.7121000000000002
 20
-1.7150600000000003
 30
0.0
 10
1.7121000000000002
 20
-1.7150600000000003
 30
0.0
 10
1.7121000000000002
 20
-1.7150600000000003
 30
0.0
 10
1.7121000000000002
 20
-1.7150600000000003
 30
0.0
 10
1.7578200000000002
 20
-1.4788400000000002
 30
0.0
 10
1.7578200000000002
 20
-1.4788400000000002
 30
0.0
 10
1.7578200000000002
 20
-1.4788400000000002
 30
0.0
 10
1.7400400000000003
 20
-1.3188200000000001
 30
0.0
 10
1.6359000000000001
 20
-1.1334000000000002
 30
0.0
 10
1.6435200000000001
 20
-1.41788
 30
0.0
 10
1.6435200000000001
 20
-1.41788
 30
0.0
 10
1.8264000000000002
 20
-1.7861800000000001
 30
0.0
 10
1.2168000000000001
 20
-1.8141200000000002
 30
0.0
 10
1.31586
 20
-1.3594600000000001
 30
0.0
 10
1.31586
 20
-1.3594600000000001
 30
0.0
 10
1.1837800000000001
 20
-1.1791200000000002
 30
0.0
 10
1.2650600000000001
 20
-1.5626600000000002
 30
0.0
 10
1.2066400000000002
 20
-1.6109200000000001
 30
0.0
 10
1.2066400000000002
 20
-1.6109200000000001
 30
0.0
 10
1.11012
 20
-1.6947400000000001
 30
0.0
 10
0.9755
 20
-1.6287
 30
0.0
 10
1.06186
 20
-1.3467600000000002
 30
0.0
 10
1.06186
 20
-1.3467600000000002
 30
0.0
 10
1.0466200000000001
 20
-0.9835400000000001
 30
0.0
 10
0.9221600000000001
 20
-1.2477
 30
0.0
 10
0.93486
 20
-1.46106
 30
0.0
 10
0.93486
 20
-1.46106
 30
0.0
 10
1.0364600000000002
 20
-1.8801600000000001
 30
0.0
 10
0.85104
 20
-1.58552
 30
0.0
 10
0.658
 20
-1.7887200000000001
 30
0.0
 10
0.658
 20
-1.7887200000000001
 30
0.0
 10
0.7900800000000001
 20
-1.3899400000000002
 30
0.0
 10
0.71896
 20
-1.1765800000000002
 30
0.0
 10
0.6046600000000001
 20
-1.2654800000000002
 30
0.0
 10
0.6046600000000001
 20
-1.2654800000000002
 30
0.0
 10
0.7748400000000001
 20
-1.83952
 30
0.0
 10
0.11952
 20
-1.9208000000000001
 30
0.0
 10
0.3278
 20
-1.33406
 30
0.0
 10
0.3278
 20
-1.33406
 30
0.0
 10
0.33796
 20
-1.1334000000000002
 30
0.0
 10
0.15508
 20
-1.24516
 30
0.0
 10
0.16524
 20
-1.4229600000000002
 30
0.0
 10
0.16524
 20
-1.4229600000000002
 30
0.0
 10
0.0357
 20
-2.0782800000000003
 30
0.0
 10
-0.23099
 20
-1.2553200000000002
 30
0.0
 10
-0.05827
 20
-0.9530600000000001
 30
0.0
 10
-0.05827
 20
-0.9530600000000001
 30
0.0
 10
-0.10399
 20
-0.8286000000000001
 30
0.0
 10
-0.19035
 20
-1.03942
 30
0.0
 10
-0.20813
 20
-1.1334000000000002
 30
0.0
 10
-0.20813
 20
-1.1334000000000002
 30
0.0
 10
-0.24369
 20
-1.2858000000000001
 30
0.0
 10
-0.14209
 20
-1.4890000000000001
 30
0.0
 10
-0.17511
 20
-1.6210800000000001
 30
0.0
 10
-0.17511
 20
-1.6210800000000001
 30
0.0
 10
-0.4291100000000001
 20
-1.46106
 30
0.0
 10
-0.3960900000000001
 20
-1.0267200000000001
 30
0.0
 10
-0.3960900000000001
 20
-0.9784600000000001
 30
0.0
 10
-0.3960900000000001
 20
-0.9784600000000001
 30
0.0
 10
-0.3960900000000001
 20
-0.9784600000000001
 30
0.0
 10
-0.55357
 20
-1.4001000000000001
 30
0.0
 10
-0.55357
 20
-1.4001000000000001
 30
0.0
 10
-0.55357
 20
-1.4001000000000001
 30
0.0
 10
-0.8583700000000001
 20
-1.1740400000000002
 30
0.0
 10
-0.71867
 20
-0.97084
 30
0.0
 10
-0.6475500000000001
 20
-0.63302
 30
0.0
 10
-0.6475500000000001
 20
-0.63302
 30
0.0
 10
-0.6297700000000001
 20
-0.55428
 30
0.0
 10
-0.55103
 20
-0.3079
 30
0.0
 10
-0.69581
 20
-0.34346
 30
0.0
 10
-0.69581
 20
-0.34346
 30
0.0
 10
-0.7948700000000001
 20
-0.8108200000000001
 30
0.0
 10
-1.3231900000000001
 20
-0.58984
 30
0.0
 10
-1.08443
 20
-0.3587
 30
0.0
 10
-1.08443
 20
-0.3587
 30
0.0
 10
-1.1047500000000001
 20
-0.12756
 30
0.0
 10
-1.25207
 20
-0.40696
 30
0.0
 10
-1.3130300000000001
 20
-0.45268
 30
0.0
 10
-1.3130300000000001
 20
-0.45268
 30
0.0
 10
-2.0521700000000003
 20
-0.9962400000000001
 30
0.0
 10
-3.1037300000000001
 20
-0.16566
 30
0.0
 10
-2.5474700000000001
 20
0.70555
 30
0.0
 10
-2.5474700000000001
 20
0.70555
 30
0.0
 10
-2.5500100000000003
 20
0.85033
 30
0.0
 10
-2.5525500000000001
 20
0.99765
 30
0.0
 10
-2.6363700000000003
 20
1.11449
 30
0.0
 10
-2.6363700000000003
 20
1.11449
 30
0.0
 10
-2.8446500000000001
 20
1.4675500000000001
 30
0.0
 10
-3.1189700000000005
 20
1.0382900000000002
 30
0.0
 10
-3.3526500000000001
 20
1.2414900000000002
 30
0.0
 10
-3.3526500000000001
 20
1.2414900000000002
 30
0.0
 10
-3.3983700000000003
 20
1.1729100000000001
 30
0.0
 10
-3.2942300000000002
 20
1.0941700000000001
 30
0.0
 10
-3.2281900000000001
 20
1.0890900000000001
 30
0.0
 10
-3.2281900000000001
 20
1.0890900000000001
 30
0.0
 10
-2.0572500000000002
 20
1.22879
 30
0.0
 10
-3.6447500000000002
 20
-0.46284
 30
0.0
 10
-2.5093700000000001
 20
-0.4857
 30
0.0
 10
-2.5093700000000001
 20
-0.4857
 30
0.0
 10
-2.4077700000000002
 20
-0.6127
 30
0.0
 10
-2.2426700000000004
 20
-0.6863600000000001
 30
0.0
 10
-2.18425
 20
-0.8387600000000001
 30
0.0
 10
-2.18425
 20
-0.8387600000000001
 30
0.0
 10
-2.1639300000000001
 20
-0.9225800000000001
 30
0.0
 10
-2.0953500000000003
 20
-1.0267200000000001
 30
0.0
 10
-2.1664700000000003
 20
-1.1054600000000001
 30
0.0
 10
-2.1664700000000003
 20
-1.1054600000000001
 30
0.0
 10
-2.2782300000000002
 20
-1.2172200000000002
 30
0.0
 10
-2.4077700000000002
 20
-1.33406
 30
0.0
 10
-2.5474700000000001
 20
-1.3899400000000002
 30
0.0
 10
-2.5474700000000001
 20
-1.3899400000000002
 30
0.0
 10
-2.0369300000000004
 20
-1.4102600000000001
 30
0.0
 10
-1.7118100000000001
 20
-0.44252
 30
0.0
 10
-1.1606300000000001
 20
-0.6812800000000001
 30
0.0
 10
-1.1606300000000001
 20
-0.6812800000000001
 30
0.0
 10
-1.3206500000000001
 20
-1.16388
 30
0.0
 10
-1.8362700000000001
 20
-1.54488
 30
0.0
 10
-2.30871
 20
-1.6871200000000002
 30
0.0
 10
-2.30871
 20
-1.6871200000000002
 30
0.0
 10
-2.9691100000000001
 20
-1.7328400000000002
 30
0.0
 10
-3.8555700000000002
 20
-1.3112000000000001
 30
0.0
 10
-3.6422100000000004
 20
-0.56952
 30
0.0
 10
-3.6422100000000004
 20
-0.56952
 30
0.0
 10
-5.6716700000000007
 20
1.4243700000000001
 30
0.0
 10
-3.9495500000000003
 20
5.0845100000000008
 30
0.0
 10
-1.2165100000000002
 20
5.1556300000000004
 30
0.0
  0
SPLINE
  5
2B
100
AcDbEntity
  8
Ebene 1
 62
     7
100
AcDbSpline
210
0.0
220
0.0
230
1.0
 70
     1
 71
     3
 72
    16
 73
    12
 74
     0
 42
0.0000000001
 43
0.0000000001
 40
0.0
 40
0.0
 40
0.0
 40
0.0
 40
0.3333333333333333
 40
0.3333333333333333
 40
0.3333333333333333
 40
0.3333333333333333
 40
0.6666666666666666
 40
0.6666666666666666
 40
0.6666666666666666
 40
0.6666666666666666
 40
1.0
 40
1.0
 40
1.0
 40
1.0
 10
3.4570800000000004
 20
3.14141
 30
0.0
 10
3.6475800000000005
 20
3.1845900000000005
 30
0.0
 10
3.9244400000000002
 20
3.0067900000000001
 30
0.0
 10
3.8228400000000002
 20
2.80613
 30
0.0
 10
3.8228400000000002
 20
2.80613
 30
0.0
 10
3.6196400000000004
 20
2.9407500000000004
 30
0.0
 10
3.4088200000000004
 20
2.7858100000000001
 30
0.0
 10
3.2437200000000002
 20
2.6740500000000003
 30
0.0
 10
3.2437200000000002
 20
2.6740500000000003
 30
0.0
 10
3.0506800000000003
 20
2.8366100000000003
 30
0.0
 10
3.2411800000000004
 20
3.14141
 30
0.0
 10
3.4570800000000004
 20
3.14141
 30
0.0
  0
SPLINE
  5
2C
100
AcDbEntity
  8
Ebene 1
100
AcDbSpline
210
0.0
220
0.0
230
1.0
 70
     1
 71
     3
 72
    24
 73
    20
 74
     0
 42
0.0000000001
 43
0.0000000001
 40
0.0
 40
0.0
 40
0.0
 40
0.0
 40
0.2
 40
0.2
 40
0.2
 40
0.2
 40
0.4
 40
0.4
 40
0.4
 40
0.4
 40
0.6000000000000001
 40
0.6000000000000001
 40
0.6000000000000001
 40
0.6000000000000001
 40
0.8
 40
0.8
 40
0.8
 40
0.8
 40
1.0
 40
1.0
 40
1.0
 40
1.0
 10
-1.3587500000000001
 20
2.80105
 30
0.0
 10
-0.9701300000000001
 20
2.4886300000000001
 30
0.0
 10
-0.47483
 20
2.3184500000000003
 30
0.0
 10
-0.07351
 20
2.0263500000000003
 30
0.0
 10
-0.07351
 20
2.0263500000000003
 30
0.0
 10
-0.08367
 20
2.01111
 30
0.0
 10
-0.10399
 20
2.0034900000000002
 30
0.0
 10
-0.12177
 20
2.0136500000000002
 30
0.0
 10
-0.12177
 20
2.0136500000000002
 30
0.0
 10
-0.53325
 20
2.2701900000000004
 30
0.0
 10
-1.0285500000000001
 20
2.2955900000000002
 30
0.0
 10
-1.4298700000000002
 20
2.54705
 30
0.0
 10
-1.4298700000000002
 20
2.54705
 30
0.0
 10
-1.3638300000000001
 20
2.6207100000000003
 30
0.0
 10
-1.04633
 20
2.4073500000000001
 30
0.0
 10
-1.1479300000000001
 20
2.5572100000000004
 30
0.0
 10
-1.1479300000000001
 20
2.5572100000000004
 30
0.0
 10
-1.2342900000000001
 20
2.6156300000000003
 30
0.0
 10
-1.3536700000000002
 20
2.6892900000000002
 30
0.0
 10
-1.3587500000000001
 20
2.80105
 30
0.0
  0
SPLINE
  5
2D
100
AcDbEntity
  8
Ebene 1
100
AcDbSpline
210
0.0
220
0.0
230
1.0
 70
     1
 71
     3
 72
    28
 73
    24
 74
     0
 42
0.0000000001
 43
0.0000000001
 40
0.0
 40
0.0
 40
0.0
 40
0.0
 40
0.1666666666666667
 40
0.1666666666666667
 40
0.1666666666666667
 40
0.1666666666666667
 40
0.3333333333333333
 40
0.3333333333333333
 40
0.3333333333333333
 40
0.3333333333333333
 40
0.5
 40
0.5
 40
0.5
 40
0.5
 40
0.6666666666666666
 40
0.6666666666666666
 40
0.6666666666666666
 40
0.6666666666666666
 40
0.8333333333333333
 40
0.8333333333333333
 40
0.8333333333333333
 40
0.8333333333333333
 40
1.0
 40
1.0
 40
1.0
 40
1.0
 10
-1.8540500000000002
 20
2.7731100000000004
 30
0.0
 10
-1.7803900000000001
 20
2.7858100000000001
 30
0.0
 10
-1.8210300000000001
 20
2.7070700000000003
 30
0.0
 10
-1.8438900000000003
 20
2.6791300000000002
 30
0.0
 10
-1.8438900000000003
 20
2.6791300000000002
 30
0.0
 10
-2.3112500000000002
 20
2.4352900000000002
 30
0.0
 10
-2.60589
 20
1.9679300000000002
 30
0.0
 10
-2.5220700000000003
 20
1.4319900000000001
 30
0.0
 10
-2.5220700000000003
 20
1.4319900000000001
 30
0.0
 10
-2.64907
 20
1.2592700000000001
 30
0.0
 10
-2.8573500000000003
 20
1.56915
 30
0.0
 10
-2.9487900000000002
 20
1.3329300000000002
 30
0.0
 10
-2.9487900000000002
 20
1.3329300000000002
 30
0.0
 10
-2.9487900000000002
 20
1.3329300000000002
 30
0.0
 10
-2.9995900000000004
 20
1.3329300000000002
 30
0.0
 10
-2.9995900000000004
 20
1.3329300000000002
 30
0.0
 10
-2.9995900000000004
 20
1.3329300000000002
 30
0.0
 10
-2.9741900000000001
 20
1.4980300000000002
 30
0.0
 10
-2.7836900000000004
 20
1.5615300000000001
 30
0.0
 10
-2.69225
 20
1.6859900000000001
 30
0.0
 10
-2.69225
 20
1.6859900000000001
 30
0.0
 10
-2.65415
 20
2.17875
 30
0.0
 10
-2.2096500000000003
 20
2.4860900000000004
 30
0.0
 10
-1.8540500000000002
 20
2.7731100000000004
 30
0.0
  0
SPLINE
  5
2E
100
AcDbEntity
  8
Ebene 1
100
AcDbSpline
210
0.0
220
0.0
230
1.0
 70
     1
 71
     3
 72
    20
 73
    16
 74
     0
 42
0.0000000001
 43
0.0000000001
 40
0.0
 40
0.0
 40
0.0
 40
0.0
 40
0.25
 40
0.25
 40
0.25
 40
0.25
 40
0.5
 40
0.5
 40
0.5
 40
0.5
 40
0.75
 40
0.75
 40
0.75
 40
0.75
 40
1.0
 40
1.0
 40
1.0
 40
1.0
 10
0.19826
 20
2.0085700000000002
 30
0.0
 10
0.4192400000000001
 20
1.9552300000000002
 30
0.0
 10
0.59196
 20
1.5513700000000001
 30
0.0
 10
0.38622
 20
1.40405
 30
0.0
 10
0.38622
 20
1.40405
 30
0.0
 10
0.36082
 20
1.4167500000000002
 30
0.0
 10
0.3684400000000001
 20
1.44723
 30
0.0
 10
0.3684400000000001
 20
1.4700900000000001
 30
0.0
 10
0.3684400000000001
 20
1.4700900000000001
 30
0.0
 10
0.47004
 20
1.6504300000000001
 30
0.0
 10
0.31764
 20
1.8409300000000002
 30
0.0
 10
0.1881
 20
1.9425300000000001
 30
0.0
 10
0.1881
 20
1.9425300000000001
 30
0.0
 10
0.1754
 20
1.9653900000000002
 30
0.0
 10
0.18556
 20
1.9882500000000001
 30
0.0
 10
0.19826
 20
2.0085700000000002
 30
0.0
  0
SPLINE
  5
2F
100
AcDbEntity
  8
Ebene 1
100
AcDbSpline
210
0.0
220
0.0
230
1.0
 70
     1
 71
     3
 72
    24
 73
    20
 74
     0
 42
0.0000000001
 43
0.0000000001
 40
0.0
 40
0.0
 40
0.0
 40
0.0
 40
0.2
 40
0.2
 40
0.2
 40
0.2
 40
0.4
 40
0.4
 40
0.4
 40
0.4
 40
0.6000000000000001
 40
0.6000000000000001
 40
0.6000000000000001
 40
0.6000000000000001
 40
0.8
 40
0.8
 40
0.8
 40
0.8
 40
1.0
 40
1.0
 40
1.0
 40
1.0
 10
0.9475600000000001
 20
1.9933300000000003
 30
0.0
 10
0.9678800000000001
 20
1.9984100000000002
 30
0.0
 10
1.0009000000000001
 20
1.9958700000000003
 30
0.0
 10
0.9907400000000001
 20
1.9653900000000002
 30
0.0
 10
0.9907400000000001
 20
1.9653900000000002
 30
0.0
 10
0.8840600000000001
 20
1.8561700000000001
 30
0.0
 10
0.8180200000000001
 20
1.69615
 30
0.0
 10
0.9069200000000001
 20
1.5564500000000001
 30
0.0
 10
0.9069200000000001
 20
1.5564500000000001
 30
0.0
 10
0.9043800000000001
 20
1.53105
 30
0.0
 10
0.91454
 20
1.5031100000000002
 30
0.0
 10
0.88914
 20
1.48787
 30
0.0
 10
0.88914
 20
1.48787
 30
0.0
 10
0.8154800000000001
 20
1.4650100000000001
 30
0.0
 10
0.8459600000000001
 20
1.5589900000000001
 30
0.0
 10
0.8180200000000001
 20
1.5945500000000001
 30
0.0
 10
0.8180200000000001
 20
1.5945500000000001
 30
0.0
 10
0.65546
 20
1.73933
 30
0.0
 10
0.86882
 20
1.8739500000000002
 30
0.0
 10
0.9475600000000001
 20
1.9933300000000003
 30
0.0
  0
SPLINE
  5
30
100
AcDbEntity
  8
Ebene 1
100
AcDbSpline
210
0.0
220
0.0
230
1.0
 70
     1
 71
     3
 72
    52
 73
    48
 74
     0
 42
0.0000000001
 43
0.0000000001
 40
0.0
 40
0.0
 40
0.0
 40
0.0
 40
0.0833333333333333
 40
0.0833333333333333
 40
0.0833333333333333
 40
0.0833333333333333
 40
0.1666666666666667
 40
0.1666666666666667
 40
0.1666666666666667
 40
0.1666666666666667
 40
0.25
 40
0.25
 40
0.25
 40
0.25
 40
0.3333333333333333
 40
0.3333333333333333
 40
0.3333333333333333
 40
0.3333333333333333
 40
0.4166666666666666
 40
0.4166666666666666
 40
0.4166666666666666
 40
0.4166666666666666
 40
0.4999999999999999
 40
0.4999999999999999
 40
0.4999999999999999
 40
0.4999999999999999
 40
0.5833333333333333
 40
0.5833333333333333
 40
0.5833333333333333
 40
0.5833333333333333
 40
0.6666666666666666
 40
0.6666666666666666
 40
0.6666666666666666
 40
0.6666666666666666
 40
0.75
 40
0.75
 40
0.75
 40
0.75
 40
0.8333333333333334
 40
0.8333333333333334
 40
0.8333333333333334
 40
0.8333333333333334
 40
0.9166666666666667
 40
0.9166666666666667
 40
0.9166666666666667
 40
0.9166666666666667
 40
1.0
 40
1.0
 40
1.0
 40
1.0
 10
-1.9835900000000002
 20
1.6682100000000002
 30
0.0
 10
-1.4527300000000001
 20
1.6859900000000001
 30
0.0
 10
-0.9599700000000001
 20
1.5335900000000002
 30
0.0
 10
-0.44181
 20
1.5945500000000001
 30
0.0
 10
-0.44181
 20
1.5945500000000001
 30
0.0
 10
-0.47229
 20
1.5158100000000001
 30
0.0
 10
-0.5992900000000001
 20
1.5843900000000002
 30
0.0
 10
-0.66025
 20
1.5234300000000001
 30
0.0
 10
-0.66025
 20
1.5234300000000001
 30
0.0
 10
-0.4164100000000001
 20
1.2973700000000001
 30
0.0
 10
-0.07351
 20
1.2110100000000001
 30
0.0
 10
0.2516000000000001
 20
1.3405500000000001
 30
0.0
 10
0.2516000000000001
 20
1.3405500000000001
 30
0.0
 10
0.19318
 20
1.2186300000000001
 30
0.0
 10
0.00776
 20
1.2262500000000001
 30
0.0
 10
-0.09383
 20
1.15513
 30
0.0
 10
-0.09383
 20
1.15513
 30
0.0
 10
-0.12431
 20
1.10687
 30
0.0
 10
-0.10653
 20
1.0459100000000001
 30
0.0
 10
-0.11161
 20
0.9874900000000001
 30
0.0
 10
-0.11161
 20
0.9874900000000001
 30
0.0
 10
-0.06589
 20
0.8655700000000001
 30
0.0
 10
0.02808
 20
1.06877
 30
0.0
 10
0.10936
 20
1.02813
 30
0.0
 10
0.10936
 20
1.02813
 30
0.0
 10
-0.19797
 20
0.5861700000000001
 30
0.0
 10
-0.6932700000000001
 20
0.21787
 30
0.0
 10
-1.03617
 20
-0.22408
 30
0.0
 10
-1.03617
 20
-0.22408
 30
0.0
 10
-0.9345700000000001
 20
0.01467
 30
0.0
 10
-0.6856500000000001
 20
0.25851
 30
0.0
 10
-0.5815100000000001
 20
0.51759
 30
0.0
 10
-0.5815100000000001
 20
0.51759
 30
0.0
 10
-1.0691900000000001
 20
0.7309500000000001
 30
0.0
 10
-1.46543
 20
0.27629
 30
0.0
 10
-1.8972300000000002
 20
0.28137
 30
0.0
 10
-1.8972300000000002
 20
0.28137
 30
0.0
 10
-1.9531100000000001
 20
0.31439
 30
0.0
 10
-1.9759700000000002
 20
0.38551
 30
0.0
 10
-1.9683500000000003
 20
0.4515500000000001
 30
0.0
 10
-1.9683500000000003
 20
0.4515500000000001
 30
0.0
 10
-1.8464300000000002
 20
0.7563500000000001
 30
0.0
 10
-1.9353300000000002
 20
1.0535300000000001
 30
0.0
 10
-2.23251
 20
1.2186300000000001
 30
0.0
 10
-2.23251
 20
1.2186300000000001
 30
0.0
 10
-2.2528300000000003
 20
1.4319900000000001
 30
0.0
 10
-2.2528300000000003
 20
1.6631300000000002
 30
0.0
 10
-1.9835900000000002
 20
1.6682100000000002
 30
0.0
  0
SPLINE
  5
31
100
AcDbEntity
  8
Ebene 1
 62
     7
100
AcDbSpline
210
0.0
220
0.0
230
1.0
 70
     1
 71
     3
 72
    24
 73
    20
 74
     0
 42
0.0000000001
 43
0.0000000001
 40
0.0
 40
0.0
 40
0.0
 40
0.0
 40
0.2
 40
0.2
 40
0.2
 40
0.2
 40
0.4
 40
0.4
 40
0.4
 40
0.4
 40
0.6000000000000001
 40
0.6000000000000001
 40
0.6000000000000001
 40
0.6000000000000001
 40
0.8
 40
0.8
 40
0.8
 40
0.8
 40
1.0
 40
1.0
 40
1.0
 40
1.0
 10
2.0550000000000002
 20
1.27197
 30
0.0
 10
2.0550000000000002
 20
1.27197
 30
0.0
 10
2.0956400000000004
 20
1.18815
 30
0.0
 10
2.0956400000000004
 20
1.18815
 30
0.0
 10
2.0956400000000004
 20
1.18815
 30
0.0
 10
1.8975200000000001
 20
0.6344300000000001
 30
0.0
 10
2.3928200000000004
 20
-0.05136
 30
0.0
 10
1.8695800000000002
 20
-0.35616
 30
0.0
 10
1.8695800000000002
 20
-0.35616
 30
0.0
 10
1.69686
 20
-0.14788
 30
0.0
 10
1.6282800000000002
 20
0.14167
 30
0.0
 10
1.5901800000000001
 20
0.40583
 30
0.0
 10
1.5901800000000001
 20
0.40583
 30
0.0
 10
1.7324200000000001
 20
0.40583
 30
0.0
 10
1.9305400000000001
 20
0.3677300000000001
 30
0.0
 10
1.9838800000000001
 20
0.5633100000000001
 30
0.0
 10
1.9838800000000001
 20
0.5633100000000001
 30
0.0
 10
1.9584800000000002
 20
0.8122300000000001
 30
0.0
 10
1.8746600000000002
 20
1.0586100000000001
 30
0.0
 10
2.0550000000000002
 20
1.27197
 30
0.0
  0
SPLINE
  5
32
100
AcDbEntity
  8
Ebene 1
 62
     7
100
AcDbSpline
210
0.0
220
0.0
230
1.0
 70
     1
 71
     3
 72
    12
 73
     8
 74
     0
 42
0.0000000001
 43
0.0000000001
 40
0.0
 40
0.0
 40
0.0
 40
0.0
 40
0.5
 40
0.5
 40
0.5
 40
0.5
 40
1.0
 40
1.0
 40
1.0
 40
1.0
 10
1.4733400000000001
 20
1.1729100000000001
 30
0.0
 10
1.4733400000000001
 20
1.1729100000000001
 30
0.0
 10
1.6409800000000001
 20
1.1195700000000002
 30
0.0
 10
1.6409800000000001
 20
1.1195700000000002
 30
0.0
 10
1.6409800000000001
 20
1.1195700000000002
 30
0.0
 10
1.6003400000000001
 20
1.06369
 30
0.0
 10
1.4555600000000002
 20
1.11449
 30
0.0
 10
1.4733400000000001
 20
1.1729100000000001
 30
0.0
  0
SPLINE
  5
33
100
AcDbEntity
  8
Ebene 1
 62
     7
100
AcDbSpline
210
0.0
220
0.0
230
1.0
 70
     1
 71
     3
 72
    16
 73
    12
 74
     0
 42
0.0000000001
 43
0.0000000001
 40
0.0
 40
0.0
 40
0.0
 40
0.0
 40
0.3333333333333333
 40
0.3333333333333333
 40
0.3333333333333333
 40
0.3333333333333333
 40
0.6666666666666666
 40
0.6666666666666666
 40
0.6666666666666666
 40
0.6666666666666666
 40
1.0
 40
1.0
 40
1.0
 40
1.0
 10
-1.04633
 20
1.1576700000000002
 30
0.0
 10
-0.9548900000000001
 20
1.1652900000000002
 30
0.0
 10
-0.8558300000000001
 20
1.15513
 30
0.0
 10
-0.7948700000000001
 20
1.0916300000000001
 30
0.0
 10
-0.7948700000000001
 20
1.0916300000000001
 30
0.0
 10
-0.8837700000000001
 20
1.02305
 30
0.0
 10
-0.99553
 20
1.07131
 30
0.0
 10
-1.0717300000000001
 20
1.1348100000000001
 30
0.0
 10
-1.0717300000000001
 20
1.1348100000000001
 30
0.0
 10
-1.0717300000000001
 20
1.1348100000000001
 30
0.0
 10
-1.04633
 20
1.1576700000000002
 30
0.0
 10
-1.04633
 20
1.1576700000000002
 30
0.0
  0
SPLINE
  5
34
100
AcDbEntity
  8
Ebene 1
100
AcDbSpline
210
0.0
220
0.0
230
1.0
 70
     1
 71
     3
 72
    52
 73
    48
 74
     0
 42
0.0000000001
 43
0.0000000001
 40
0.0
 40
0.0
 40
0.0
 40
0.0
 40
0.0833333333333333
 40
0.0833333333333333
 40
0.0833333333333333
 40
0.0833333333333333
 40
0.1666666666666667
 40
0.1666666666666667
 40
0.1666666666666667
 40
0.1666666666666667
 40
0.25
 40
0.25
 40
0.25
 40
0.25
 40
0.3333333333333333
 40
0.3333333333333333
 40
0.3333333333333333
 40
0.3333333333333333
 40
0.4166666666666666
 40
0.4166666666666666
 40
0.4166666666666666
 40
0.4166666666666666
 40
0.4999999999999999
 40
0.4999999999999999
 40
0.4999999999999999
 40
0.4999999999999999
 40
0.5833333333333333
 40
0.5833333333333333
 40
0.5833333333333333
 40
0.5833333333333333
 40
0.6666666666666666
 40
0.6666666666666666
 40
0.6666666666666666
 40
0.6666666666666666
 40
0.75
 40
0.75
 40
0.75
 40
0.75
 40
0.8333333333333334
 40
0.8333333333333334
 40
0.8333333333333334
 40
0.8333333333333334
 40
0.9166666666666667
 40
0.9166666666666667
 40
0.9166666666666667
 40
0.9166666666666667
 40
1.0
 40
1.0
 40
1.0
 40
1.0
 10
0.9907400000000001
 20
1.0586100000000001
 30
0.0
 10
1.2650600000000001
 20
0.8401700000000001
 30
0.0
 10
1.4174600000000002
 20
0.42615
 30
0.0
 10
1.4555600000000002
 20
0.07309
 30
0.0
 10
1.4555600000000002
 20
0.07309
 30
0.0
 10
1.2980800000000001
 20
-0.05644
 30
0.0
 10
1.1990200000000002
 20
0.15691
 30
0.0
 10
1.0948800000000001
 20
0.22041
 30
0.0
 10
1.0948800000000001
 20
0.22041
 30
0.0
 10
1.1634600000000002
 20
-0.00564
 30
0.0
 10
1.1609200000000002
 20
-0.25964
 30
0.0
 10
1.1583800000000002
 20
-0.50602
 30
0.0
 10
1.1583800000000002
 20
-0.50602
 30
0.0
 10
1.14314
 20
-0.41204
 30
0.0
 10
1.0542400000000001
 20
-0.29266
 30
0.0
 10
1.05932
 20
-0.18344
 30
0.0
 10
1.05932
 20
-0.18344
 30
0.0
 10
1.0364600000000002
 20
-0.02342
 30
0.0
 10
1.0390000000000001
 20
0.16199
 30
0.0
 10
0.9577200000000001
 20
0.30423
 30
0.0
 10
0.9577200000000001
 20
0.30423
 30
0.0
 10
0.7342000000000001
 20
0.6039500000000001
 30
0.0
 10
0.8561200000000001
 20
-0.092
 30
0.0
 10
0.8205600000000001
 20
-0.22662
 30
0.0
 10
0.8205600000000001
 20
-0.22662
 30
0.0
 10
0.8205600000000001
 20
-0.22662
 30
0.0
 10
0.6935600000000001
 20
-0.00056
 30
0.0
 10
0.6935600000000001
 20
-0.00056
 30
0.0
 10
0.6935600000000001
 20
-0.00056
 30
0.0
 10
0.6935600000000001
 20
-0.00056
 30
0.0
 10
0.6935600000000001
 20
0.2635900000000001
 30
0.0
 10
0.6935600000000001
 20
0.2635900000000001
 30
0.0
 10
0.6935600000000001
 20
0.2635900000000001
 30
0.0
 10
0.3659
 20
0.21279
 30
0.0
 10
0.18048
 20
-0.24186
 30
0.0
 10
-0.16495
 20
-0.1809
 30
0.0
 10
-0.16495
 20
-0.1809
 30
0.0
 10
-0.12685
 20
0.29915
 30
0.0
 10
0.17794
 20
0.7944500000000001
 30
0.0
 10
0.6224400000000001
 20
1.01797
 30
0.0
 10
0.6224400000000001
 20
1.01797
 30
0.0
 10
0.70372
 20
1.0357500000000002
 30
0.0
 10
0.7697600000000001
 20
0.9900300000000001
 30
0.0
 10
0.8358000000000001
 20
0.9595500000000001
 30
0.0
 10
0.8358000000000001
 20
0.9595500000000001
 30
0.0
 10
0.8358000000000001
 20
0.9595500000000001
 30
0.0
 10
0.9907400000000001
 20
1.0586100000000001
 30
0.0
 10
0.9907400000000001
 20
1.0586100000000001
 30
0.0
  0
SPLINE
  5
35
100
AcDbEntity
  8
Ebene 1
 62
     7
100
AcDbSpline
210
0.0
220
0.0
230
1.0
 70
     1
 71
     3
 72
    68
 73
    64
 74
     0
 42
0.0000000001
 43
0.0000000001
 40
0.0
 40
0.0
 40
0.0
 40
0.0
 40
0.0625
 40
0.0625
 40
0.0625
 40
0.0625
 40
0.125
 40
0.125
 40
0.125
 40
0.125
 40
0.1875
 40
0.1875
 40
0.1875
 40
0.1875
 40
0.25
 40
0.25
 40
0.25
 40
0.25
 40
0.3125
 40
0.3125
 40
0.3125
 40
0.3125
 40
0.375
 40
0.375
 40
0.375
 40
0.375
 40
0.4375
 40
0.4375
 40
0.4375
 40
0.4375
 40
0.5
 40
0.5
 40
0.5
 40
0.5
 40
0.5625
 40
0.5625
 40
0.5625
 40
0.5625
 40
0.625
 40
0.625
 40
0.625
 40
0.625
 40
0.6875
 40
0.6875
 40
0.6875
 40
0.6875
 40
0.75
 40
0.75
 40
0.75
 40
0.75
 40
0.8125
 40
0.8125
 40
0.8125
 40
0.8125
 40
0.875
 40
0.875
 40
0.875
 40
0.875
 40
0.9375
 40
0.9375
 40
0.9375
 40
0.9375
 40
1.0
 40
1.0
 40
1.0
 40
1.0
 10
-1.20381
 20
-1.20452
 30
0.0
 10
-1.29017
 20
-1.6617200000000001
 30
0.0
 10
-1.03363
 20
-2.0884400000000003
 30
0.0
 10
-1.0996700000000001
 20
-2.5481800000000003
 30
0.0
 10
-1.0996700000000001
 20
-2.5481800000000003
 30
0.0
 10
-1.04633
 20
-2.5024600000000001
 30
0.0
 10
-0.9244100000000001
 20
-2.6497800000000002
 30
0.0
 10
-0.8355100000000001
 20
-2.6650200000000002
 30
0.0
 10
-0.8355100000000001
 20
-2.6650200000000002
 30
0.0
 10
-0.8355100000000001
 20
-2.6650200000000002
 30
0.0
 10
-0.88631
 20
-2.9850600000000003
 30
0.0
 10
-0.88631
 20
-2.9850600000000003
 30
0.0
 10
-0.88631
 20
-2.9850600000000003
 30
0.0
 10
-0.7948700000000001
 20
-2.9266400000000004
 30
0.0
 10
-0.8609100000000001
 20
-2.6167600000000002
 30
0.0
 10
-0.74407
 20
-2.6878800000000003
 30
0.0
 10
-0.74407
 20
-2.6878800000000003
 30
0.0
 10
-0.6653300000000001
 20
-2.7971000000000004
 30
0.0
 10
-0.6018300000000001
 20
-2.5685000000000002
 30
0.0
 10
-0.52563
 20
-2.6675600000000004
 30
0.0
 10
-0.52563
 20
-2.6675600000000004
 30
0.0
 10
-0.52563
 20
-2.6675600000000004
 30
0.0
 10
-0.7313700000000001
 20
-2.9368000000000003
 30
0.0
 10
-0.7313700000000001
 20
-2.9368000000000003
 30
0.0
 10
-0.7313700000000001
 20
-2.9368000000000003
 30
0.0
 10
-0.7313700000000001
 20
-2.9368000000000003
 30
0.0
 10
-1.1047500000000001
 20
-3.6429200000000002
 30
0.0
 10
-1.1047500000000001
 20
-3.6429200000000002
 30
0.0
 10
-1.1047500000000001
 20
-3.6429200000000002
 30
0.0
 10
-1.3917700000000002
 20
-3.4143200000000005
 30
0.0
 10
-1.8235700000000001
 20
-3.3635200000000003
 30
0.0
 10
-2.0191500000000002
 20
-3.0282400000000003
 30
0.0
 10
-2.0191500000000002
 20
-3.0282400000000003
 30
0.0
 10
-1.9632700000000001
 20
-2.7005800000000004
 30
0.0
 10
-1.9277100000000003
 20
-2.36022
 30
0.0
 10
-1.92517
 20
-2.0122400000000003
 30
0.0
 10
-1.92517
 20
-2.0122400000000003
 30
0.0
 10
-1.8769100000000001
 20
-1.9030200000000002
 30
0.0
 10
-2.05979
 20
-1.7099800000000001
 30
0.0
 10
-1.8718300000000001
 20
-1.7023600000000001
 30
0.0
 10
-1.8718300000000001
 20
-1.7023600000000001
 30
0.0
 10
-1.7854700000000001
 20
-1.8547600000000002
 30
0.0
 10
-1.7194300000000002
 20
-2.0224000000000002
 30
0.0
 10
-1.6991100000000001
 20
-2.1976600000000004
 30
0.0
 10
-1.6991100000000001
 20
-2.1976600000000004
 30
0.0
 10
-1.6813300000000002
 20
-2.2713200000000002
 30
0.0
 10
-1.6533900000000001
 20
-2.3424400000000003
 30
0.0
 10
-1.6559300000000001
 20
-2.4237200000000003
 30
0.0
 10
-1.6559300000000001
 20
-2.4237200000000003
 30
0.0
 10
-1.6559300000000001
 20
-2.4237200000000003
 30
0.0
 10
-1.6584700000000001
 20
-2.64724
 30
0.0
 10
-1.6584700000000001
 20
-2.64724
 30
0.0
 10
-1.6584700000000001
 20
-2.64724
 30
0.0
 10
-1.5619500000000002
 20
-2.6624800000000004
 30
0.0
 10
-1.54925
 20
-2.5151600000000003
 30
0.0
 10
-1.5644900000000002
 20
-2.3475200000000003
 30
0.0
 10
-1.5644900000000002
 20
-2.3475200000000003
 30
0.0
 10
-1.58735
 20
-2.10622
 30
0.0
 10
-1.37653
 20
-1.9284200000000002
 30
0.0
 10
-1.2165100000000002
 20
-2.1113
 30
0.0
 10
-1.2165100000000002
 20
-2.1113
 30
0.0
 10
-1.3181100000000001
 20
-1.8344400000000001
 30
0.0
 10
-1.3866900000000002
 20
-1.4712200000000002
 30
0.0
 10
-1.20381
 20
-1.20452
 30
0.0
  0
SPLINE
  5
36
100
AcDbEntity
  8
Ebene 1
 62
     7
100
AcDbSpline
210
0.0
220
0.0
230
1.0
 70
     1
 71
     3
 72
    16
 73
    12
 74
     0
 42
0.0000000001
 43
0.0000000001
 40
0.0
 40
0.0
 40
0.0
 40
0.0
 40
0.3333333333333333
 40
0.3333333333333333
 40
0.3333333333333333
 40
0.3333333333333333
 40
0.6666666666666666
 40
0.6666666666666666
 40
0.6666666666666666
 40
0.6666666666666666
 40
1.0
 40
1.0
 40
1.0
 40
1.0
 10
-0.7923300000000001
 20
-1.2197600000000002
 30
0.0
 10
-0.7085100000000001
 20
-1.28834
 30
0.0
 10
-0.6653300000000001
 20
-1.3924800000000002
 30
0.0
 10
-0.6221500000000001
 20
-1.4890000000000001
 30
0.0
 10
-0.6221500000000001
 20
-1.4890000000000001
 30
0.0
 10
-0.6475500000000001
 20
-1.5347200000000001
 30
0.0
 10
-0.7059700000000001
 20
-1.54234
 30
0.0
 10
-0.7491500000000001
 20
-1.5601200000000002
 30
0.0
 10
-0.7491500000000001
 20
-1.5601200000000002
 30
0.0
 10
-0.9015500000000001
 20
-1.4915400000000001
 30
0.0
 10
-0.8913900000000001
 20
-1.3289800000000001
 30
0.0
 10
-0.7923300000000001
 20
-1.2197600000000002
 30
0.0
  0
SPLINE
  5
37
100
AcDbEntity
  8
Ebene 1
 62
     7
100
AcDbSpline
210
0.0
220
0.0
230
1.0
 70
     1
 71
     3
 72
    16
 73
    12
 74
     0
 42
0.0000000001
 43
0.0000000001
 40
0.0
 40
0.0
 40
0.0
 40
0.0
 40
0.3333333333333333
 40
0.3333333333333333
 40
0.3333333333333333
 40
0.3333333333333333
 40
0.6666666666666666
 40
0.6666666666666666
 40
0.6666666666666666
 40
0.6666666666666666
 40
1.0
 40
1.0
 40
1.0
 40
1.0
 10
-0.46721
 20
-1.46106
 30
0.0
 10
-0.36307
 20
-1.5118600000000002
 30
0.0
 10
-0.28179
 20
-1.6439400000000002
 30
0.0
 10
-0.25639
 20
-1.7531600000000001
 30
0.0
 10
-0.25639
 20
-1.7531600000000001
 30
0.0
 10
-0.25639
 20
-1.7531600000000001
 30
0.0
 10
-0.44689
 20
-1.7531600000000001
 30
0.0
 10
-0.44689
 20
-1.7531600000000001
 30
0.0
 10
-0.44689
 20
-1.7531600000000001
 30
0.0
 10
-0.45451
 20
-1.6566400000000001
 30
0.0
 10
-0.50785
 20
-1.5575800000000002
 30
0.0
 10
-0.46721
 20
-1.46106
 30
0.0
  0
SPLINE
  5
38
100
AcDbEntity
  8
Ebene 1
 62
     7
100
AcDbSpline
210
0.0
220
0.0
230
1.0
 70
     1
 71
     3
 72
    16
 73
    12
 74
     0
 42
0.0000000001
 43
0.0000000001
 40
0.0
 40
0.0
 40
0.0
 40
0.0
 40
0.3333333333333333
 40
0.3333333333333333
 40
0.3333333333333333
 40
0.3333333333333333
 40
0.6666666666666666
 40
0.6666666666666666
 40
0.6666666666666666
 40
0.6666666666666666
 40
1.0
 40
1.0
 40
1.0
 40
1.0
 10
-0.11161
 20
-1.67188
 30
0.0
 10
0.01538
 20
-1.7099800000000001
 30
0.0
 10
0.10936
 20
-1.8598400000000002
 30
0.0
 10
0.15254
 20
-1.9792200000000002
 30
0.0
 10
0.15254
 20
-1.9792200000000002
 30
0.0
 10
0.06872
 20
-2.0706600000000002
 30
0.0
 10
-0.06081
 20
-2.05288
 30
0.0
 10
-0.16495
 20
-2.0782800000000003
 30
0.0
 10
-0.16495
 20
-2.0782800000000003
 30
0.0
 10
-0.23861
 20
-1.9639800000000001
 30
0.0
 10
-0.18527
 20
-1.7836400000000001
 30
0.0
 10
-0.11161
 20
-1.67188
 30
0.0
  0
SPLINE
  5
39
100
AcDbEntity
  8
Ebene 1
 62
     7
100
AcDbSpline
210
0.0
220
0.0
230
1.0
 70
     1
 71
     3
 72
    16
 73
    12
 74
     0
 42
0.0000000001
 43
0.0000000001
 40
0.0
 40
0.0
 40
0.0
 40
0.0
 40
0.3333333333333333
 40
0.3333333333333333
 40
0.3333333333333333
 40
0.3333333333333333
 40
0.6666666666666666
 40
0.6666666666666666
 40
0.6666666666666666
 40
0.6666666666666666
 40
1.0
 40
1.0
 40
1.0
 40
1.0
 10
1.8264000000000002
 20
-1.7150600000000003
 30
0.0
 10
1.8416400000000002
 20
-1.7176000000000002
 30
0.0
 10
1.8518000000000001
 20
-1.7303000000000002
 30
0.0
 10
1.8543400000000001
 20
-1.7430000000000001
 30
0.0
 10
1.8543400000000001
 20
-1.7430000000000001
 30
0.0
 10
1.8264000000000002
 20
-1.83952
 30
0.0
 10
1.8645
 20
-1.9741400000000002
 30
0.0
 10
1.7857600000000002
 20
-2.0401800000000003
 30
0.0
 10
1.7857600000000002
 20
-2.0401800000000003
 30
0.0
 10
1.6409800000000001
 20
-1.9893800000000001
 30
0.0
 10
1.6917800000000001
 20
-1.7582400000000002
 30
0.0
 10
1.8264000000000002
 20
-1.7150600000000003
 30
0.0
  0
SPLINE
  5
3A
100
AcDbEntity
  8
Ebene 1
 62
     7
100
AcDbSpline
210
0.0
220
0.0
230
1.0
 70
     1
 71
     3
 72
    84
 73
    80
 74
     0
 42
0.0000000001
 43
0.0000000001
 40
0.0
 40
0.0
 40
0.0
 40
0.0
 40
0.05
 40
0.05
 40
0.05
 40
0.05
 40
0.1
 40
0.1
 40
0.1
 40
0.1
 40
0.15
 40
0.15
 40
0.15
 40
0.15
 40
0.2
 40
0.2
 40
0.2
 40
0.2
 40
0.25
 40
0.25
 40
0.25
 40
0.25
 40
0.3
 40
0.3
 40
0.3
 40
0.3
 40
0.35
 40
0.35
 40
0.35
 40
0.35
 40
0.4
 40
0.4
 40
0.4
 40
0.4
 40
0.45
 40
0.45
 40
0.45
 40
0.45
 40
0.4999999999999999
 40
0.4999999999999999
 40
0.4999999999999999
 40
0.4999999999999999
 40
0.5499999999999999
 40
0.5499999999999999
 40
0.5499999999999999
 40
0.5499999999999999
 40
0.6
 40
0.6
 40
0.6
 40
0.6
 40
0.65
 40
0.65
 40
0.65
 40
0.65
 40
0.7000000000000001
 40
0.7000000000000001
 40
0.7000000000000001
 40
0.7000000000000001
 40
0.7500000000000001
 40
0.7500000000000001
 40
0.7500000000000001
 40
0.7500000000000001
 40
0.8000000000000002
 40
0.8000000000000002
 40
0.8000000000000002
 40
0.8000000000000002
 40
0.8500000000000002
 40
0.8500000000000002
 40
0.8500000000000002
 40
0.8500000000000002
 40
0.9000000000000002
 40
0.9000000000000002
 40
0.9000000000000002
 40
0.9000000000000002
 40
0.9500000000000003
 40
0.9500000000000003
 40
0.9500000000000003
 40
0.9500000000000003
 40
1.0
 40
1.0
 40
1.0
 40
1.0
 10
-2.23759
 20
-1.7582400000000002
 30
0.0
 10
-1.9150100000000001
 20
-2.1417800000000002
 30
0.0
 10
-2.14615
 20
-2.6853400000000001
 30
0.0
 10
-2.15123
 20
-3.1450800000000001
 30
0.0
 10
-2.15123
 20
-3.1450800000000001
 30
0.0
 10
-2.0902700000000003
 20
-3.2949400000000004
 30
0.0
 10
-1.9175500000000001
 20
-3.3406600000000002
 30
0.0
 10
-1.7854700000000001
 20
-3.4041600000000001
 30
0.0
 10
-1.7854700000000001
 20
-3.4041600000000001
 30
0.0
 10
-1.7168900000000002
 20
-3.6048200000000001
 30
0.0
 10
-1.8057900000000002
 20
-3.7877000000000005
 30
0.0
 10
-1.9404100000000002
 20
-3.9248600000000002
 30
0.0
 10
-1.9404100000000002
 20
-3.9248600000000002
 30
0.0
 10
-1.9531100000000001
 20
-3.9934400000000005
 30
0.0
 10
-1.9708900000000003
 20
-4.0772600000000008
 30
0.0
 10
-1.9200900000000001
 20
-4.13314
 30
0.0
 10
-1.9200900000000001
 20
-4.13314
 30
0.0
 10
-1.9429500000000002
 20
-3.8842200000000005
 30
0.0
 10
-1.63053
 20
-3.7546800000000005
 30
0.0
 10
-1.6508500000000002
 20
-3.4879800000000003
 30
0.0
 10
-1.6508500000000002
 20
-3.4879800000000003
 30
0.0
 10
-1.6356100000000002
 20
-3.4625800000000004
 30
0.0
 10
-1.58989
 20
-3.4625800000000004
 30
0.0
 10
-1.5746500000000001
 20
-3.4879800000000003
 30
0.0
 10
-1.5746500000000001
 20
-3.4879800000000003
 30
0.0
 10
-1.50607
 20
-3.5413200000000002
 30
0.0
 10
-1.5594100000000002
 20
-3.6302200000000004
 30
0.0
 10
-1.5594100000000002
 20
-3.6962600000000001
 30
0.0
 10
-1.5594100000000002
 20
-3.6962600000000001
 30
0.0
 10
-1.8616700000000002
 20
-3.9909000000000003
 30
0.0
 10
-1.8108700000000002
 20
-4.35412
 30
0.0
 10
-1.8159500000000002
 20
-4.7300400000000007
 30
0.0
 10
-1.8159500000000002
 20
-4.7300400000000007
 30
0.0
 10
-1.8769100000000001
 20
-4.7478200000000008
 30
0.0
 10
-1.9454900000000002
 20
-4.77576
 30
0.0
 10
-2.0064500000000001
 20
-4.7427400000000004
 30
0.0
 10
-2.0064500000000001
 20
-4.7427400000000004
 30
0.0
 10
-1.9937500000000001
 20
-4.6106600000000002
 30
0.0
 10
-2.0318500000000004
 20
-4.4938200000000004
 30
0.0
 10
-2.11313
 20
-4.3947600000000007
 30
0.0
 10
-2.11313
 20
-4.3947600000000007
 30
0.0
 10
-2.2934700000000001
 20
-4.2118800000000007
 30
0.0
 10
-2.2198100000000003
 20
-3.9528000000000003
 30
0.0
 10
-2.02677
 20
-3.8156400000000001
 30
0.0
 10
-2.02677
 20
-3.8156400000000001
 30
0.0
 10
-2.22743
 20
-3.8664400000000003
 30
0.0
 10
-2.3341100000000004
 20
-4.0925000000000002
 30
0.0
 10
-2.2528300000000003
 20
-4.2830000000000004
 30
0.0
 10
-2.2528300000000003
 20
-4.2830000000000004
 30
0.0
 10
-2.19441
 20
-4.3896800000000002
 30
0.0
 10
-2.0801100000000003
 20
-4.52684
 30
0.0
 10
-2.1537700000000002
 20
-4.6436800000000007
 30
0.0
 10
-2.1537700000000002
 20
-4.6436800000000007
 30
0.0
 10
-2.30871
 20
-4.5674800000000007
 30
0.0
 10
-2.4128500000000002
 20
-4.4049200000000006
 30
0.0
 10
-2.4915900000000004
 20
-4.2525200000000005
 30
0.0
 10
-2.4915900000000004
 20
-4.2525200000000005
 30
0.0
 10
-2.5220700000000003
 20
-4.1407600000000002
 30
0.0
 10
-2.5017500000000004
 20
-4.01884
 30
0.0
 10
-2.4788900000000003
 20
-3.9121600000000005
 30
0.0
 10
-2.4788900000000003
 20
-3.9121600000000005
 30
0.0
 10
-2.1334500000000003
 20
-3.4397200000000003
 30
0.0
 10
-2.4077700000000002
 20
-2.8809200000000001
 30
0.0
 10
-2.8852900000000004
 20
-2.64724
 30
0.0
 10
-2.8852900000000004
 20
-2.64724
 30
0.0
 10
-3.1088100000000001
 20
-2.3221200000000004
 30
0.0
 10
-2.9335500000000003
 20
-1.6947400000000001
 30
0.0
 10
-2.48143
 20
-1.8319000000000001
 30
0.0
 10
-2.48143
 20
-1.8319000000000001
 30
0.0
 10
-2.7913100000000002
 20
-2.1570200000000002
 30
0.0
 10
-2.4204700000000003
 20
-2.4973800000000002
 30
0.0
 10
-2.2883900000000001
 20
-2.8021800000000003
 30
0.0
 10
-2.2883900000000001
 20
-2.8021800000000003
 30
0.0
 10
-2.2883900000000001
 20
-2.8021800000000003
 30
0.0
 10
-2.2401300000000002
 20
-2.8453600000000003
 30
0.0
 10
-2.2401300000000002
 20
-2.8453600000000003
 30
0.0
 10
-2.2401300000000002
 20
-2.8453600000000003
 30
0.0
 10
-2.31379
 20
-2.5126200000000001
 30
0.0
 10
-2.7151100000000001
 20
-1.9487400000000001
 30
0.0
 10
-2.23759
 20
-1.7582400000000002
 30
0.0
  0
SPLINE
  5
3B
100
AcDbEntity
  8
Ebene 1
 62
     7
100
AcDbSpline
210
0.0
220
0.0
230
1.0
 70
     1
 71
     3
 72
    16
 73
    12
 74
     0
 42
0.0000000001
 43
0.0000000001
 40
0.0
 40
0.0
 40
0.0
 40
0.0
 40
0.3333333333333333
 40
0.3333333333333333
 40
0.3333333333333333
 40
0.3333333333333333
 40
0.6666666666666666
 40
0.6666666666666666
 40
0.6666666666666666
 40
0.6666666666666666
 40
1.0
 40
1.0
 40
1.0
 40
1.0
 10
0.8637400000000001
 20
-1.7861800000000001
 30
0.0
 10
0.9805800000000001
 20
-1.7912600000000001
 30
0.0
 10
1.0440800000000001
 20
-1.9055600000000001
 30
0.0
 10
1.0313800000000002
 20
-2.0097
 30
0.0
 10
1.0313800000000002
 20
-2.0097
 30
0.0
 10
0.9399400000000001
 20
-2.0833600000000003
 30
0.0
 10
0.8408800000000001
 20
-2.1849600000000002
 30
0.0
 10
0.7215
 20
-2.2129000000000003
 30
0.0
 10
0.7215
 20
-2.2129000000000003
 30
0.0
 10
0.4725800000000001
 20
-2.1113
 30
0.0
 10
0.7367400000000001
 20
-1.8827000000000003
 30
0.0
 10
0.8637400000000001
 20
-1.7861800000000001
 30
0.0
  0
SPLINE
  5
3C
100
AcDbEntity
  8
Ebene 1
 62
     7
100
AcDbSpline
210
0.0
220
0.0
230
1.0
 70
     1
 71
     3
 72
    16
 73
    12
 74
     0
 42
0.0000000001
 43
0.0000000001
 40
0.0
 40
0.0
 40
0.0
 40
0.0
 40
0.3333333333333333
 40
0.3333333333333333
 40
0.3333333333333333
 40
0.3333333333333333
 40
0.6666666666666666
 40
0.6666666666666666
 40
0.6666666666666666
 40
0.6666666666666666
 40
1.0
 40
1.0
 40
1.0
 40
1.0
 10
1.1736200000000001
 20
-1.7861800000000001
 30
0.0
 10
1.3336400000000002
 20
-1.7684000000000002
 30
0.0
 10
1.3641200000000002
 20
-2.0452600000000003
 30
0.0
 10
1.2472800000000002
 20
-2.1113
 30
0.0
 10
1.2472800000000002
 20
-2.1113
 30
0.0
 10
1.2472800000000002
 20
-2.1113
 30
0.0
 10
1.1990200000000002
 20
-2.05796
 30
0.0
 10
1.1990200000000002
 20
-2.05796
 30
0.0
 10
1.1990200000000002
 20
-2.05796
 30
0.0
 10
1.0364600000000002
 20
-2.0300200000000004
 30
0.0
 10
1.0567800000000001
 20
-1.8598400000000002
 30
0.0
 10
1.1736200000000001
 20
-1.7861800000000001
 30
0.0
  0
SPLINE
  5
3D
100
AcDbEntity
  8
Ebene 1
 62
     7
100
AcDbSpline
210
0.0
220
0.0
230
1.0
 70
     1
 71
     3
 72
    24
 73
    20
 74
     0
 42
0.0000000001
 43
0.0000000001
 40
0.0
 40
0.0
 40
0.0
 40
0.0
 40
0.2
 40
0.2
 40
0.2
 40
0.2
 40
0.4
 40
0.4
 40
0.4
 40
0.4
 40
0.6000000000000001
 40
0.6000000000000001
 40
0.6000000000000001
 40
0.6000000000000001
 40
0.8
 40
0.8
 40
0.8
 40
0.8
 40
1.0
 40
1.0
 40
1.0
 40
1.0
 10
1.5012800000000002
 20
-1.8141200000000002
 30
0.0
 10
1.5419200000000002
 20
-1.8115800000000002
 30
0.0
 10
1.5597000000000001
 20
-1.8420600000000003
 30
0.0
 10
1.56986
 20
-1.8750800000000001
 30
0.0
 10
1.56986
 20
-1.8750800000000001
 30
0.0
 10
1.6714600000000002
 20
-1.8903200000000002
 30
0.0
 10
1.6587600000000002
 20
-2.0935200000000003
 30
0.0
 10
1.6003400000000001
 20
-2.1544800000000004
 30
0.0
 10
1.6003400000000001
 20
-2.1544800000000004
 30
0.0
 10
1.6003400000000001
 20
-2.1544800000000004
 30
0.0
 10
1.52668
 20
-2.1138400000000002
 30
0.0
 10
1.52668
 20
-2.1138400000000002
 30
0.0
 10
1.52668
 20
-2.1138400000000002
 30
0.0
 10
1.4352400000000001
 20
-2.1087600000000002
 30
0.0
 10
1.3412600000000001
 20
-2.0401800000000003
 30
0.0
 10
1.3438000000000001
 20
-1.9411200000000002
 30
0.0
 10
1.3438000000000001
 20
-1.9411200000000002
 30
0.0
 10
1.3438000000000001
 20
-1.9411200000000002
 30
0.0
 10
1.5012800000000002
 20
-1.8141200000000002
 30
0.0
 10
1.5012800000000002
 20
-1.8141200000000002
 30
0.0
  0
SPLINE
  5
3E
100
AcDbEntity
  8
Ebene 1
 62
     7
100
AcDbSpline
210
0.0
220
0.0
230
1.0
 70
     1
 71
     3
 72
    16
 73
    12
 74
     0
 42
0.0000000001
 43
0.0000000001
 40
0.0
 40
0.0
 40
0.0
 40
0.0
 40
0.3333333333333333
 40
0.3333333333333333
 40
0.3333333333333333
 40
0.3333333333333333
 40
0.6666666666666666
 40
0.6666666666666666
 40
0.6666666666666666
 40
0.6666666666666666
 40
1.0
 40
1.0
 40
1.0
 40
1.0
 10
0.38114
 20
-1.8700000000000001
 30
0.0
 10
0.6453000000000001
 20
-1.8293600000000001
 30
0.0
 10
0.6072000000000001
 20
-2.2891000000000004
 30
0.0
 10
0.3532
 20
-2.2256
 30
0.0
 10
0.3532
 20
-2.2256
 30
0.0
 10
0.3532
 20
-2.2256
 30
0.0
 10
0.29732
 20
-2.2535400000000001
 30
0.0
 10
0.29732
 20
-2.2535400000000001
 30
0.0
 10
0.29732
 20
-2.2535400000000001
 30
0.0
 10
0.14238
 20
-2.1468600000000002
 30
0.0
 10
0.20588
 20
-1.9081000000000001
 30
0.0
 10
0.38114
 20
-1.8700000000000001
 30
0.0
  0
SPLINE
  5
3F
100
AcDbEntity
  8
Ebene 1
 62
     7
100
AcDbSpline
210
0.0
220
0.0
230
1.0
 70
     1
 71
     3
 72
    12
 73
     8
 74
     0
 42
0.0000000001
 43
0.0000000001
 40
0.0
 40
0.0
 40
0.0
 40
0.0
 40
0.5
 40
0.5
 40
0.5
 40
0.5
 40
1.0
 40
1.0
 40
1.0
 40
1.0
 10
-0.8913900000000001
 20
-2.0986000000000002
 30
0.0
 10
-0.7720100000000001
 20
-2.2230600000000003
 30
0.0
 10
-0.7948700000000001
 20
-2.4084800000000004
 30
0.0
 10
-0.8380500000000001
 20
-2.56088
 30
0.0
 10
-0.8380500000000001
 20
-2.56088
 30
0.0
 10
-1.0488700000000002
 20
-2.4694400000000001
 30
0.0
 10
-0.9447300000000001
 20
-2.2560800000000003
 30
0.0
 10
-0.8913900000000001
 20
-2.0986000000000002
 30
0.0
  0
SPLINE
  5
40
100
AcDbEntity
  8
Ebene 1
 62
     7
100
AcDbSpline
210
0.0
220
0.0
230
1.0
 70
     1
 71
     3
 72
    16
 73
    12
 74
     0
 42
0.0000000001
 43
0.0000000001
 40
0.0
 40
0.0
 40
0.0
 40
0.0
 40
0.3333333333333333
 40
0.3333333333333333
 40
0.3333333333333333
 40
0.3333333333333333
 40
0.6666666666666666
 40
0.6666666666666666
 40
0.6666666666666666
 40
0.6666666666666666
 40
1.0
 40
1.0
 40
1.0
 40
1.0
 10
-0.6221500000000001
 20
-2.1113
 30
0.0
 10
-0.6221500000000001
 20
-2.1113
 30
0.0
 10
-0.50785
 20
-2.4948400000000004
 30
0.0
 10
-0.50785
 20
-2.4948400000000004
 30
0.0
 10
-0.50785
 20
-2.4948400000000004
 30
0.0
 10
-0.55611
 20
-2.5532600000000003
 30
0.0
 10
-0.6196100000000001
 20
-2.6142200000000004
 30
0.0
 10
-0.6932700000000001
 20
-2.6370800000000001
 30
0.0
 10
-0.6932700000000001
 20
-2.6370800000000001
 30
0.0
 10
-0.8355100000000001
 20
-2.4872200000000002
 30
0.0
 10
-0.7110500000000001
 20
-2.2611600000000003
 30
0.0
 10
-0.6221500000000001
 20
-2.1113
 30
0.0
  0
SPLINE
  5
41
100
AcDbEntity
  8
Ebene 1
 62
     7
100
AcDbSpline
210
0.0
220
0.0
230
1.0
 70
     1
 71
     3
 72
    16
 73
    12
 74
     0
 42
0.0000000001
 43
0.0000000001
 40
0.0
 40
0.0
 40
0.0
 40
0.0
 40
0.3333333333333333
 40
0.3333333333333333
 40
0.3333333333333333
 40
0.3333333333333333
 40
0.6666666666666666
 40
0.6666666666666666
 40
0.6666666666666666
 40
0.6666666666666666
 40
1.0
 40
1.0
 40
1.0
 40
1.0
 10
1.5165200000000001
 20
-2.4516600000000004
 30
0.0
 10
1.5317600000000002
 20
-2.4491200000000002
 30
0.0
 10
1.5444600000000002
 20
-2.4567400000000004
 30
0.0
 10
1.5546200000000001
 20
-2.4694400000000001
 30
0.0
 10
1.5546200000000001
 20
-2.4694400000000001
 30
0.0
 10
1.5622400000000001
 20
-2.5989800000000001
 30
0.0
 10
1.5368400000000002
 20
-2.7463000000000002
 30
0.0
 10
1.44286
 20
-2.8352000000000004
 30
0.0
 10
1.44286
 20
-2.8352000000000004
 30
0.0
 10
1.3184
 20
-2.7310600000000003
 30
0.0
 10
1.39714
 20
-2.52786
 30
0.0
 10
1.5165200000000001
 20
-2.4516600000000004
 30
0.0
  0
SPLINE
  5
42
100
AcDbEntity
  8
Ebene 1
 62
     7
100
AcDbSpline
210
0.0
220
0.0
230
1.0
 70
     1
 71
     3
 72
    12
 73
     8
 74
     0
 42
0.0000000001
 43
0.0000000001
 40
0.0
 40
0.0
 40
0.0
 40
0.0
 40
0.5
 40
0.5
 40
0.5
 40
0.5
 40
1.0
 40
1.0
 40
1.0
 40
1.0
 10
1.6714600000000002
 20
-2.4796
 30
0.0
 10
1.7222600000000001
 20
-2.56088
 30
0.0
 10
1.6841600000000001
 20
-2.7590000000000003
 30
0.0
 10
1.5901800000000001
 20
-2.8021800000000003
 30
0.0
 10
1.5901800000000001
 20
-2.8021800000000003
 30
0.0
 10
1.5470000000000002
 20
-2.6980400000000002
 30
0.0
 10
1.6613000000000002
 20
-2.5888200000000001
 30
0.0
 10
1.6714600000000002
 20
-2.4796
 30
0.0
  0
SPLINE
  5
43
100
AcDbEntity
  8
Ebene 1
 62
     7
100
AcDbSpline
210
0.0
220
0.0
230
1.0
 70
     1
 71
     3
 72
   104
 73
   100
 74
     0
 42
0.0000000001
 43
0.0000000001
 40
0.0
 40
0.0
 40
0.0
 40
0.0
 40
0.04
 40
0.04
 40
0.04
 40
0.04
 40
0.08
 40
0.08
 40
0.08
 40
0.08
 40
0.12
 40
0.12
 40
0.12
 40
0.12
 40
0.16
 40
0.16
 40
0.16
 40
0.16
 40
0.2
 40
0.2
 40
0.2
 40
0.2
 40
0.24
 40
0.24
 40
0.24
 40
0.24
 40
0.28
 40
0.28
 40
0.28
 40
0.28
 40
0.32
 40
0.32
 40
0.32
 40
0.32
 40
0.36
 40
0.36
 40
0.36
 40
0.36
 40
0.4
 40
0.4
 40
0.4
 40
0.4
 40
0.44
 40
0.44
 40
0.44
 40
0.44
 40
0.4799999999999999
 40
0.4799999999999999
 40
0.4799999999999999
 40
0.4799999999999999
 40
0.5199999999999999
 40
0.5199999999999999
 40
0.5199999999999999
 40
0.5199999999999999
 40
0.5599999999999999
 40
0.5599999999999999
 40
0.5599999999999999
 40
0.5599999999999999
 40
0.6
 40
0.6
 40
0.6
 40
0.6
 40
0.64
 40
0.64
 40
0.64
 40
0.64
 40
0.6800000000000001
 40
0.6800000000000001
 40
0.6800000000000001
 40
0.6800000000000001
 40
0.7200000000000001
 40
0.7200000000000001
 40
0.7200000000000001
 40
0.7200000000000001
 40
0.7600000000000001
 40
0.7600000000000001
 40
0.7600000000000001
 40
0.7600000000000001
 40
0.8000000000000002
 40
0.8000000000000002
 40
0.8000000000000002
 40
0.8000000000000002
 40
0.8400000000000002
 40
0.8400000000000002
 40
0.8400000000000002
 40
0.8400000000000002
 40
0.8800000000000002
 40
0.8800000000000002
 40
0.8800000000000002
 40
0.8800000000000002
 40
0.9200000000000003
 40
0.9200000000000003
 40
0.9200000000000003
 40
0.9200000000000003
 40
0.9600000000000003
 40
0.9600000000000003
 40
0.9600000000000003
 40
0.9600000000000003
 40
1.0
 40
1.0
 40
1.0
 40
1.0
 10
0.06872
 20
-2.4948400000000004
 30
0.0
 10
0.3024
 20
-2.5812000000000004
 30
0.0
 10
0.22874
 20
-2.94442
 30
0.0
 10
0.21604
 20
-3.15524
 30
0.0
 10
0.21604
 20
-3.15524
 30
0.0
 10
0.21604
 20
-3.15524
 30
0.0
 10
0.27954
 20
-2.9164800000000004
 30
0.0
 10
0.27954
 20
-2.9164800000000004
 30
0.0
 10
0.27954
 20
-2.9164800000000004
 30
0.0
 10
0.27192
 20
-2.6802600000000001
 30
0.0
 10
0.3532
 20
-2.9266400000000004
 30
0.0
 10
0.4522600000000001
 20
-2.9622000000000002
 30
0.0
 10
0.4522600000000001
 20
-2.9622000000000002
 30
0.0
 10
0.57418
 20
-3.1222200000000004
 30
0.0
 10
0.5005200000000001
 20
-3.3711400000000005
 30
0.0
 10
0.5411600000000001
 20
-3.5667200000000001
 30
0.0
 10
0.5411600000000001
 20
-3.5667200000000001
 30
0.0
 10
0.59704
 20
-3.3355800000000002
 30
0.0
 10
0.4929000000000001
 20
-3.0485600000000002
 30
0.0
 10
0.59196
 20
-2.8174200000000003
 30
0.0
 10
0.59196
 20
-2.8174200000000003
 30
0.0
 10
0.6249800000000001
 20
-2.7717000000000001
 30
0.0
 10
0.8129400000000001
 20
-3.2187400000000004
 30
0.0
 10
0.9729600000000001
 20
-2.9368000000000003
 30
0.0
 10
0.9729600000000001
 20
-2.9368000000000003
 30
0.0
 10
0.8789800000000001
 20
-3.6835600000000004
 30
0.0
 10
0.87136
 20
-3.2746200000000001
 30
0.0
 10
0.99582
 20
-3.9070800000000001
 30
0.0
 10
0.99582
 20
-3.9070800000000001
 30
0.0
 10
0.99582
 20
-3.9070800000000001
 30
0.0
 10
1.06694
 20
-2.9520400000000002
 30
0.0
 10
1.06694
 20
-2.9520400000000002
 30
0.0
 10
1.06694
 20
-2.9520400000000002
 30
0.0
 10
1.06694
 20
-2.9520400000000002
 30
0.0
 10
1.2295
 20
-2.9850600000000003
 30
0.0
 10
1.2295
 20
-2.9850600000000003
 30
0.0
 10
1.2295
 20
-2.9850600000000003
 30
0.0
 10
1.2295
 20
-2.9850600000000003
 30
0.0
 10
1.3412600000000001
 20
-2.8809200000000001
 30
0.0
 10
1.3412600000000001
 20
-2.8809200000000001
 30
0.0
 10
1.3412600000000001
 20
-2.8809200000000001
 30
0.0
 10
1.3514200000000001
 20
-2.9698200000000003
 30
0.0
 10
1.3438000000000001
 20
-3.0612600000000003
 30
0.0
 10
1.3311000000000002
 20
-3.1450800000000001
 30
0.0
 10
1.3311000000000002
 20
-3.1450800000000001
 30
0.0
 10
1.3869800000000001
 20
-3.1577800000000003
 30
0.0
 10
1.3819000000000001
 20
-2.9977600000000004
 30
0.0
 10
1.3869800000000001
 20
-2.9342600000000001
 30
0.0
 10
1.3869800000000001
 20
-2.9342600000000001
 30
0.0
 10
1.5724
 20
-2.7590000000000003
 30
0.0
 10
1.27522
 20
-3.5438600000000005
 30
0.0
 10
1.4174600000000002
 20
-3.2873200000000002
 30
0.0
 10
1.4174600000000002
 20
-3.2873200000000002
 30
0.0
 10
1.4225400000000001
 20
-3.2390600000000003
 30
0.0
 10
1.4327000000000001
 20
-3.1908000000000003
 30
0.0
 10
1.4581000000000002
 20
-3.1450800000000001
 30
0.0
 10
1.4581000000000002
 20
-3.1450800000000001
 30
0.0
 10
1.4708000000000001
 20
-2.8021800000000003
 30
0.0
 10
1.6003400000000001
 20
-2.9393400000000001
 30
0.0
 10
1.5165200000000001
 20
-3.2035000000000005
 30
0.0
 10
1.5165200000000001
 20
-3.2035000000000005
 30
0.0
 10
1.4682600000000001
 20
-3.5362400000000003
 30
0.0
 10
1.3082400000000001
 20
-3.8664400000000003
 30
0.0
 10
1.4682600000000001
 20
-4.1763200000000005
 30
0.0
 10
1.4682600000000001
 20
-4.1763200000000005
 30
0.0
 10
1.4327000000000001
 20
-4.2144200000000005
 30
0.0
 10
1.3946000000000001
 20
-4.2550600000000003
 30
0.0
 10
1.3438000000000001
 20
-4.2652200000000002
 30
0.0
 10
1.3438000000000001
 20
-4.2652200000000002
 30
0.0
 10
1.3438000000000001
 20
-4.2652200000000002
 30
0.0
 10
1.1609200000000002
 20
-4.2652200000000002
 30
0.0
 10
1.1609200000000002
 20
-4.2652200000000002
 30
0.0
 10
1.1609200000000002
 20
-4.2652200000000002
 30
0.0
 10
1.14314
 20
-4.2195
 30
0.0
 10
1.0313800000000002
 20
-4.2525200000000005
 30
0.0
 10
1.0466200000000001
 20
-4.2245800000000004
 30
0.0
 10
1.0466200000000001
 20
-4.2245800000000004
 30
0.0
 10
1.0466200000000001
 20
-4.2245800000000004
 30
0.0
 10
1.1736200000000001
 20
-4.1560000000000006
 30
0.0
 10
1.1736200000000001
 20
-4.1560000000000006
 30
0.0
 10
1.1736200000000001
 20
-4.1560000000000006
 30
0.0
 10
0.70372
 20
-4.1534599999999999
 30
0.0
 10
0.22366
 20
-4.5141400000000003
 30
0.0
 10
-0.26401
 20
-4.3465000000000007
 30
0.0
 10
-0.26401
 20
-4.3465000000000007
 30
0.0
 10
-0.4164100000000001
 20
-4.2245800000000004
 30
0.0
 10
-0.55103
 20
-4.0747200000000001
 30
0.0
 10
-0.67803
 20
-3.9248600000000002
 30
0.0
 10
-0.67803
 20
-3.9248600000000002
 30
0.0
 10
-0.55611
 20
-3.5337000000000005
 30
0.0
 10
-0.3960900000000001
 20
-3.1603200000000005
 30
0.0
 10
-0.19289
 20
-2.7945600000000002
 30
0.0
 10
-0.19289
 20
-2.7945600000000002
 30
0.0
 10
-0.10907
 20
-2.8555200000000003
 30
0.0
 10
0.00268
 20
-2.9596600000000004
 30
0.0
 10
0.1246
 20
-2.90124
 30
0.0
 10
0.1246
 20
-2.90124
 30
0.0
 10
-0.10399
 20
-2.8860000000000001
 30
0.0
 10
-0.15479
 20
-2.6574000000000004
 30
0.0
 10
0.06872
 20
-2.4948400000000004
 30
0.0
  0
SPLINE
  5
44
100
AcDbEntity
  8
Ebene 1
 62
     7
100
AcDbSpline
210
0.0
220
0.0
230
1.0
 70
     1
 71
     3
 72
    12
 73
     8
 74
     0
 42
0.0000000001
 43
0.0000000001
 40
0.0
 40
0.0
 40
0.0
 40
0.0
 40
0.5
 40
0.5
 40
0.5
 40
0.5
 40
1.0
 40
1.0
 40
1.0
 40
1.0
 10
0.29732
 20
-2.4948400000000004
 30
0.0
 10
0.51576
 20
-2.4542000000000002
 30
0.0
 10
0.59704
 20
-2.69042
 30
0.0
 10
0.47766
 20
-2.8453600000000003
 30
0.0
 10
0.47766
 20
-2.8453600000000003
 30
0.0
 10
0.35828
 20
-2.7844000000000002
 30
0.0
 10
0.31002
 20
-2.6218400000000002
 30
0.0
 10
0.29732
 20
-2.4948400000000004
 30
0.0
  0
SPLINE
  5
45
100
AcDbEntity
  8
Ebene 1
 62
     7
100
AcDbSpline
210
0.0
220
0.0
230
1.0
 70
     1
 71
     3
 72
    16
 73
    12
 74
     0
 42
0.0000000001
 43
0.0000000001
 40
0.0
 40
0.0
 40
0.0
 40
0.0
 40
0.3333333333333333
 40
0.3333333333333333
 40
0.3333333333333333
 40
0.3333333333333333
 40
0.6666666666666666
 40
0.6666666666666666
 40
0.6666666666666666
 40
0.6666666666666666
 40
1.0
 40
1.0
 40
1.0
 40
1.0
 10
0.7367400000000001
 20
-2.5380200000000004
 30
0.0
 10
0.7367400000000001
 20
-2.5380200000000004
 30
0.0
 10
0.9882000000000001
 20
-2.5685000000000002
 30
0.0
 10
0.9882000000000001
 20
-2.5685000000000002
 30
0.0
 10
0.9882000000000001
 20
-2.5685000000000002
 30
0.0
 10
1.01868
 20
-2.7310600000000003
 30
0.0
 10
0.9831200000000001
 20
-2.8885400000000003
 30
0.0
 10
0.8358000000000001
 20
-2.9774400000000001
 30
0.0
 10
0.8358000000000001
 20
-2.9774400000000001
 30
0.0
 10
0.6757800000000001
 20
-2.9215600000000004
 30
0.0
 10
0.5665600000000001
 20
-2.6396200000000003
 30
0.0
 10
0.7367400000000001
 20
-2.5380200000000004
 30
0.0
  0
SPLINE
  5
46
100
AcDbEntity
  8
Ebene 1
 62
     7
100
AcDbSpline
210
0.0
220
0.0
230
1.0
 70
     1
 71
     3
 72
    16
 73
    12
 74
     0
 42
0.0000000001
 43
0.0000000001
 40
0.0
 40
0.0
 40
0.0
 40
0.0
 40
0.3333333333333333
 40
0.3333333333333333
 40
0.3333333333333333
 40
0.3333333333333333
 40
0.6666666666666666
 40
0.6666666666666666
 40
0.6666666666666666
 40
0.6666666666666666
 40
1.0
 40
1.0
 40
1.0
 40
1.0
 10
1.1736200000000001
 20
-2.5380200000000004
 30
0.0
 10
1.1736200000000001
 20
-2.5380200000000004
 30
0.0
 10
1.3285600000000002
 20
-2.5812000000000004
 30
0.0
 10
1.3285600000000002
 20
-2.5812000000000004
 30
0.0
 10
1.3285600000000002
 20
-2.5812000000000004
 30
0.0
 10
1.3006200000000001
 20
-2.6980400000000002
 30
0.0
 10
1.3006200000000001
 20
-2.8656800000000002
 30
0.0
 10
1.18886
 20
-2.9342600000000001
 30
0.0
 10
1.18886
 20
-2.9342600000000001
 30
0.0
 10
1.02884
 20
-2.8783800000000004
 30
0.0
 10
1.1253600000000001
 20
-2.6421600000000001
 30
0.0
 10
1.1736200000000001
 20
-2.5380200000000004
 30
0.0
  0
SPLINE
  5
47
100
AcDbEntity
  8
Ebene 1
 62
     7
100
AcDbSpline
210
0.0
220
0.0
230
1.0
 70
     1
 71
     3
 72
    36
 73
    32
 74
     0
 42
0.0000000001
 43
0.0000000001
 40
0.0
 40
0.0
 40
0.0
 40
0.0
 40
0.125
 40
0.125
 40
0.125
 40
0.125
 40
0.25
 40
0.25
 40
0.25
 40
0.25
 40
0.375
 40
0.375
 40
0.375
 40
0.375
 40
0.5
 40
0.5
 40
0.5
 40
0.5
 40
0.625
 40
0.625
 40
0.625
 40
0.625
 40
0.75
 40
0.75
 40
0.75
 40
0.75
 40
0.875
 40
0.875
 40
0.875
 40
0.875
 40
1.0
 40
1.0
 40
1.0
 40
1.0
 10
-2.9310100000000001
 20
-2.7640800000000003
 30
0.0
 10
-2.6820900000000001
 20
-2.8885400000000003
 30
0.0
 10
-2.3366500000000001
 20
-3.0511000000000004
 30
0.0
 10
-2.4103100000000004
 20
-3.4117800000000003
 30
0.0
 10
-2.4103100000000004
 20
-3.4117800000000003
 30
0.0
 10
-2.4763500000000001
 20
-3.5387800000000005
 30
0.0
 10
-2.6160500000000004
 20
-3.5006800000000005
 30
0.0
 10
-2.6617700000000002
 20
-3.3863800000000004
 30
0.0
 10
-2.6617700000000002
 20
-3.3863800000000004
 30
0.0
 10
-2.6363700000000003
 20
-3.2797000000000001
 30
0.0
 10
-2.5804900000000002
 20
-3.1425400000000003
 30
0.0
 10
-2.6566900000000002
 20
-3.0434800000000002
 30
0.0
 10
-2.6566900000000002
 20
-3.0434800000000002
 30
0.0
 10
-2.7303500000000001
 20
-3.0003000000000002
 30
0.0
 10
-2.8497300000000001
 20
-2.9723600000000001
 30
0.0
 10
-2.9056100000000002
 20
-3.0561800000000003
 30
0.0
 10
-2.9056100000000002
 20
-3.0561800000000003
 30
0.0
 10
-2.9665700000000004
 20
-3.1298400000000002
 30
0.0
 10
-2.9335500000000003
 20
-3.2695400000000001
 30
0.0
 10
-2.8344900000000002
 20
-3.2847800000000005
 30
0.0
 10
-2.8344900000000002
 20
-3.2847800000000005
 30
0.0
 10
-2.8090900000000003
 20
-3.2187400000000004
 30
0.0
 10
-2.9005300000000003
 20
-3.0866600000000002
 30
0.0
 10
-2.7760700000000003
 20
-3.1044400000000003
 30
0.0
 10
-2.7760700000000003
 20
-3.1044400000000003
 30
0.0
 10
-2.7303500000000001
 20
-3.0663400000000003
 30
0.0
 10
-2.69225
 20
-3.1400000000000001
 30
0.0
 10
-2.6770100000000001
 20
-3.1755600000000004
 30
0.0
 10
-2.6770100000000001
 20
-3.1755600000000004
 30
0.0
 10
-2.86497
 20
-3.7292800000000002
 30
0.0
 10
-3.4491700000000001
 20
-2.8961600000000001
 30
0.0
 10
-2.9310100000000001
 20
-2.7640800000000003
 30
0.0
  0
SPLINE
  5
48
100
AcDbEntity
  8
Ebene 1
 62
     7
100
AcDbSpline
210
0.0
220
0.0
230
1.0
 70
     1
 71
     3
 72
    12
 73
     8
 74
     0
 42
0.0000000001
 43
0.0000000001
 40
0.0
 40
0.0
 40
0.0
 40
0.0
 40
0.5
 40
0.5
 40
0.5
 40
0.5
 40
1.0
 40
1.0
 40
1.0
 40
1.0
 10
-0.55103
 20
-2.9063200000000005
 30
0.0
 10
-0.5840500000000001
 20
-2.9698200000000003
 30
0.0
 10
-0.6069100000000001
 20
-3.0561800000000003
 30
0.0
 10
-0.6653300000000001
 20
-3.1044400000000003
 30
0.0
 10
-0.6653300000000001
 20
-3.1044400000000003
 30
0.0
 10
-0.63993
 20
-3.0358600000000004
 30
0.0
 10
-0.6069100000000001
 20
-2.9545800000000004
 30
0.0
 10
-0.55103
 20
-2.9063200000000005
 30
0.0
  0
SPLINE
  5
49
100
AcDbEntity
  8
Ebene 1
 62
     7
100
AcDbSpline
210
0.0
220
0.0
230
1.0
 70
     1
 71
     3
 72
    20
 73
    16
 74
     0
 42
0.0000000001
 43
0.0000000001
 40
0.0
 40
0.0
 40
0.0
 40
0.0
 40
0.25
 40
0.25
 40
0.25
 40
0.25
 40
0.5
 40
0.5
 40
0.5
 40
0.5
 40
0.75
 40
0.75
 40
0.75
 40
0.75
 40
1.0
 40
1.0
 40
1.0
 40
1.0
 10
-1.1047500000000001
 20
-3.9248600000000002
 30
0.0
 10
-0.9853700000000001
 20
-3.9248600000000002
 30
0.0
 10
-0.7085100000000001
 20
-3.9858200000000004
 30
0.0
 10
-0.82281
 20
-4.1483800000000004
 30
0.0
 10
-0.82281
 20
-4.1483800000000004
 30
0.0
 10
-0.9066300000000001
 20
-4.0798000000000005
 30
0.0
 10
-1.0564900000000002
 20
-4.0975800000000007
 30
0.0
 10
-1.0641100000000001
 20
-3.9705800000000004
 30
0.0
 10
-1.0641100000000001
 20
-3.9705800000000004
 30
0.0
 10
-1.0641100000000001
 20
-3.9705800000000004
 30
0.0
 10
-1.12761
 20
-4.0213800000000006
 30
0.0
 10
-1.12761
 20
-4.0213800000000006
 30
0.0
 10
-1.12761
 20
-4.0213800000000006
 30
0.0
 10
-1.1453900000000001
 20
-3.9858200000000004
 30
0.0
 10
-1.1174500000000001
 20
-3.9553400000000005
 30
0.0
 10
-1.1047500000000001
 20
-3.9248600000000002
 30
0.0
  0
SPLINE
  5
4A
100
AcDbEntity
  8
Ebene 1
 62
     7
100
AcDbSpline
210
0.0
220
0.0
230
1.0
 70
     1
 71
     3
 72
    32
 73
    28
 74
     0
 42
0.0000000001
 43
0.0000000001
 40
0.0
 40
0.0
 40
0.0
 40
0.0
 40
0.1428571428571429
 40
0.1428571428571429
 40
0.1428571428571429
 40
0.1428571428571429
 40
0.2857142857142857
 40
0.2857142857142857
 40
0.2857142857142857
 40
0.2857142857142857
 40
0.4285714285714286
 40
0.4285714285714286
 40
0.4285714285714286
 40
0.4285714285714286
 40
0.5714285714285714
 40
0.5714285714285714
 40
0.5714285714285714
 40
0.5714285714285714
 40
0.7142857142857142
 40
0.7142857142857142
 40
0.7142857142857142
 40
0.7142857142857142
 40
0.857142857142857
 40
0.857142857142857
 40
0.857142857142857
 40
0.857142857142857
 40
1.0
 40
1.0
 40
1.0
 40
1.0
 10
-1.0615700000000001
 20
-4.1102800000000004
 30
0.0
 10
-1.0615700000000001
 20
-4.1102800000000004
 30
0.0
 10
-0.8507500000000001
 20
-4.1991800000000001
 30
0.0
 10
-0.8507500000000001
 20
-4.1991800000000001
 30
0.0
 10
-0.8507500000000001
 20
-4.1991800000000001
 30
0.0
 10
-0.8507500000000001
 20
-4.1991800000000001
 30
0.0
 10
-1.0717300000000001
 20
-5.3802800000000008
 30
0.0
 10
-1.0717300000000001
 20
-5.3802800000000008
 30
0.0
 10
-1.0717300000000001
 20
-5.3802800000000008
 30
0.0
 10
-1.07681
 20
-5.1161200000000004
 30
0.0
 10
-1.1326900000000002
 20
-4.8418000000000001
 30
0.0
 10
-1.16317
 20
-4.5954200000000007
 30
0.0
 10
-1.16317
 20
-4.5954200000000007
 30
0.0
 10
-1.16317
 20
-4.5954200000000007
 30
0.0
 10
-1.2596900000000002
 20
-4.5065200000000001
 30
0.0
 10
-1.2596900000000002
 20
-4.5065200000000001
 30
0.0
 10
-1.2596900000000002
 20
-4.5065200000000001
 30
0.0
 10
-1.2596900000000002
 20
-4.5065200000000001
 30
0.0
 10
-1.2266700000000001
 20
-4.4100000000000001
 30
0.0
 10
-1.2266700000000001
 20
-4.4100000000000001
 30
0.0
 10
-1.2266700000000001
 20
-4.4100000000000001
 30
0.0
 10
-1.2266700000000001
 20
-4.4100000000000001
 30
0.0
 10
-1.1885700000000001
 20
-4.4938200000000004
 30
0.0
 10
-1.1885700000000001
 20
-4.4938200000000004
 30
0.0
 10
-1.1885700000000001
 20
-4.4938200000000004
 30
0.0
 10
-1.12507
 20
-4.3846000000000007
 30
0.0
 10
-1.1479300000000001
 20
-4.2068000000000003
 30
0.0
 10
-1.0615700000000001
 20
-4.1102800000000004
 30
0.0
  0
SPLINE
  5
4B
100
AcDbEntity
  8
Ebene 1
 62
     7
100
AcDbSpline
210
0.0
220
0.0
230
1.0
 70
     1
 71
     3
 72
    32
 73
    28
 74
     0
 42
0.0000000001
 43
0.0000000001
 40
0.0
 40
0.0
 40
0.0
 40
0.0
 40
0.1428571428571429
 40
0.1428571428571429
 40
0.1428571428571429
 40
0.1428571428571429
 40
0.2857142857142857
 40
0.2857142857142857
 40
0.2857142857142857
 40
0.2857142857142857
 40
0.4285714285714286
 40
0.4285714285714286
 40
0.4285714285714286
 40
0.4285714285714286
 40
0.5714285714285714
 40
0.5714285714285714
 40
0.5714285714285714
 40
0.5714285714285714
 40
0.7142857142857142
 40
0.7142857142857142
 40
0.7142857142857142
 40
0.7142857142857142
 40
0.857142857142857
 40
0.857142857142857
 40
0.857142857142857
 40
0.857142857142857
 40
1.0
 40
1.0
 40
1.0
 40
1.0
 10
-1.67117
 20
-4.5192200000000007
 30
0.0
 10
-1.5390900000000001
 20
-4.5674800000000007
 30
0.0
 10
-1.3866900000000002
 20
-4.5776400000000006
 30
0.0
 10
-1.2774700000000001
 20
-4.6792400000000001
 30
0.0
 10
-1.2774700000000001
 20
-4.6792400000000001
 30
0.0
 10
-1.5568700000000002
 20
-5.1491400000000001
 30
0.0
 10
-2.3722100000000004
 20
-5.2151800000000001
 30
0.0
 10
-2.6871700000000001
 20
-4.7630600000000003
 30
0.0
 10
-2.6871700000000001
 20
-4.7630600000000003
 30
0.0
 10
-2.6211300000000004
 20
-4.7046400000000004
 30
0.0
 10
-2.5017500000000004
 20
-4.6081200000000004
 30
0.0
 10
-2.4230100000000001
 20
-4.6716200000000008
 30
0.0
 10
-2.4230100000000001
 20
-4.6716200000000008
 30
0.0
 10
-2.48651
 20
-4.7046400000000004
 30
0.0
 10
-2.4712700000000001
 20
-4.7910000000000004
 30
0.0
 10
-2.4077700000000002
 20
-4.8037000000000001
 30
0.0
 10
-2.4077700000000002
 20
-4.8037000000000001
 30
0.0
 10
-2.2680700000000003
 20
-4.8799000000000001
 30
0.0
 10
-2.1105900000000002
 20
-4.8697400000000002
 30
0.0
 10
-1.9531100000000001
 20
-4.86212
 30
0.0
 10
-1.9531100000000001
 20
-4.86212
 30
0.0
 10
-1.7880100000000001
 20
-4.8976800000000003
 30
0.0
 10
-1.3841500000000002
 20
-4.73766
 30
0.0
 10
-1.6813300000000002
 20
-4.60304
 30
0.0
 10
-1.6813300000000002
 20
-4.60304
 30
0.0
 10
-1.6889500000000002
 20
-4.5750999999999999
 30
0.0
 10
-1.6864100000000002
 20
-4.5446200000000001
 30
0.0
 10
-1.67117
 20
-4.5192200000000007
 30
0.0
  0
SPLINE
  5
4C
100
AcDbEntity
  8
Ebene 1
 62
     7
100
AcDbSpline
210
0.0
220
0.0
230
1.0
 70
     1
 71
     3
 72
    24
 73
    20
 74
     0
 42
0.0000000001
 43
0.0000000001
 40
0.0
 40
0.0
 40
0.0
 40
0.0
 40
0.2
 40
0.2
 40
0.2
 40
0.2
 40
0.4
 40
0.4
 40
0.4
 40
0.4
 40
0.6000000000000001
 40
0.6000000000000001
 40
0.6000000000000001
 40
0.6000000000000001
 40
0.8
 40
0.8
 40
0.8
 40
0.8
 40
1.0
 40
1.0
 40
1.0
 40
1.0
 10
-1.2723900000000001
 20
-4.8316400000000002
 30
0.0
 10
-1.1758700000000002
 20
-4.8291000000000004
 30
0.0
 10
-1.2317500000000001
 20
-4.9637200000000004
 30
0.0
 10
-1.1885700000000001
 20
-5.0170600000000007
 30
0.0
 10
-1.1885700000000001
 20
-5.0170600000000007
 30
0.0
 10
-1.4501900000000001
 20
-5.3294800000000002
 30
0.0
 10
-1.9277100000000003
 20
-5.3853600000000004
 30
0.0
 10
-2.31887
 20
-5.3244000000000007
 30
0.0
 10
-2.31887
 20
-5.3244000000000007
 30
0.0
 10
-2.3747500000000001
 20
-5.2888400000000004
 30
0.0
 10
-2.3417300000000001
 20
-5.2151800000000001
 30
0.0
 10
-2.35189
 20
-5.1593
 30
0.0
 10
-2.35189
 20
-5.1593
 30
0.0
 10
-2.3442700000000003
 20
-5.1389800000000001
 30
0.0
 10
-2.3264900000000002
 20
-5.1237400000000006
 30
0.0
 10
-2.30871
 20
-5.1161200000000004
 30
0.0
 10
-2.30871
 20
-5.1161200000000004
 30
0.0
 10
-1.9454900000000002
 20
-5.1669200000000002
 30
0.0
 10
-1.5136900000000002
 20
-5.1567600000000002
 30
0.0
 10
-1.2723900000000001
 20
-4.8316400000000002
 30
0.0
  0
SPLINE
  5
4D
100
AcDbEntity
  8
Ebene 1
 62
     7
100
AcDbSpline
210
0.0
220
0.0
230
1.0
 70
     1
 71
     3
 72
    12
 73
     8
 74
     0
 42
0.0000000001
 43
0.0000000001
 40
0.0
 40
0.0
 40
0.0
 40
0.0
 40
0.5
 40
0.5
 40
0.5
 40
0.5
 40
1.0
 40
1.0
 40
1.0
 40
1.0
 10
-2.7760700000000003
 20
-4.9307000000000007
 30
0.0
 10
-2.64907
 20
-4.9611800000000006
 30
0.0
 10
-2.5398500000000004
 20
-5.0983400000000003
 30
0.0
 10
-2.5957300000000001
 20
-5.2253400000000001
 30
0.0
 10
-2.5957300000000001
 20
-5.2253400000000001
 30
0.0
 10
-2.7303500000000001
 20
-5.2126400000000004
 30
0.0
 10
-2.8065500000000001
 20
-5.0653200000000007
 30
0.0
 10
-2.7760700000000003
 20
-4.9307000000000007
 30
0.0
  0
SPLINE
  5
4E
100
AcDbEntity
  8
Ebene 1
 62
     7
100
AcDbSpline
210
0.0
220
0.0
230
1.0
 70
     1
 71
     3
 72
    12
 73
     8
 74
     0
 42
0.0000000001
 43
0.0000000001
 40
0.0
 40
0.0
 40
0.0
 40
0.0
 40
0.5
 40
0.5
 40
0.5
 40
0.5
 40
1.0
 40
1.0
 40
1.0
 40
1.0
 10
-2.4788900000000003
 20
-5.07294
 30
0.0
 10
-2.3823700000000003
 20
-5.0881800000000004
 30
0.0
 10
-2.39507
 20
-5.2329600000000003
 30
0.0
 10
-2.4230100000000001
 20
-5.2964600000000006
 30
0.0
 10
-2.4230100000000001
 20
-5.2964600000000006
 30
0.0
 10
-2.5373100000000002
 20
-5.3167800000000005
 30
0.0
 10
-2.52461
 20
-5.1313600000000008
 30
0.0
 10
-2.4788900000000003
 20
-5.07294
 30
0.0
  0
SPLINE
  5
4F
100
AcDbEntity
  8
Ebene 1
 62
     7
100
AcDbSpline
210
0.0
220
0.0
230
1.0
 70
     1
 71
     3
 72
    56
 73
    52
 74
     0
 42
0.0000000001
 43
0.0000000001
 40
0.0
 40
0.0
 40
0.0
 40
0.0
 40
0.0769230769230769
 40
0.0769230769230769
 40
0.0769230769230769
 40
0.0769230769230769
 40
0.1538461538461539
 40
0.1538461538461539
 40
0.1538461538461539
 40
0.1538461538461539
 40
0.2307692307692308
 40
0.2307692307692308
 40
0.2307692307692308
 40
0.2307692307692308
 40
0.3076923076923077
 40
0.3076923076923077
 40
0.3076923076923077
 40
0.3076923076923077
 40
0.3846153846153846
 40
0.3846153846153846
 40
0.3846153846153846
 40
0.3846153846153846
 40
0.4615384615384616
 40
0.4615384615384616
 40
0.4615384615384616
 40
0.4615384615384616
 40
0.5384615384615386
 40
0.5384615384615386
 40
0.5384615384615386
 40
0.5384615384615386
 40
0.6153846153846154
 40
0.6153846153846154
 40
0.6153846153846154
 40
0.6153846153846154
 40
0.6923076923076923
 40
0.6923076923076923
 40
0.6923076923076923
 40
0.6923076923076923
 40
0.7692307692307692
 40
0.7692307692307692
 40
0.7692307692307692
 40
0.7692307692307692
 40
0.846153846153846
 40
0.846153846153846
 40
0.846153846153846
 40
0.846153846153846
 40
0.9230769230769229
 40
0.9230769230769229
 40
0.9230769230769229
 40
0.9230769230769229
 40
1.0
 40
1.0
 40
1.0
 40
1.0
 10
-1.2749300000000001
 20
-6.2921400000000007
 30
0.0
 10
-1.3638300000000001
 20
-6.5817000000000005
 30
0.0
 10
-1.7651500000000002
 20
-6.7468000000000004
 30
0.0
 10
-2.0674100000000002
 20
-6.6883800000000004
 30
0.0
 10
-2.0674100000000002
 20
-6.6883800000000004
 30
0.0
 10
-2.44333
 20
-6.5385200000000001
 30
0.0
 10
-2.6897100000000003
 20
-6.1448200000000002
 30
0.0
 10
-2.7201900000000001
 20
-5.7536600000000009
 30
0.0
 10
-2.7201900000000001
 20
-5.7536600000000009
 30
0.0
 10
-2.7328900000000003
 20
-5.6266600000000002
 30
0.0
 10
-2.7963900000000002
 20
-5.4844200000000001
 30
0.0
 10
-2.7557500000000004
 20
-5.3599600000000001
 30
0.0
 10
-2.7557500000000004
 20
-5.3599600000000001
 30
0.0
 10
-2.57287
 20
-5.3802800000000008
 30
0.0
 10
-2.52969
 20
-5.5250600000000007
 30
0.0
 10
-2.52969
 20
-5.6927000000000003
 30
0.0
 10
-2.52969
 20
-5.6927000000000003
 30
0.0
 10
-2.4763500000000001
 20
-5.9213000000000005
 30
0.0
 10
-2.4611100000000001
 20
-5.7435
 30
0.0
 10
-2.5017500000000004
 20
-5.6088800000000001
 30
0.0
 10
-2.5017500000000004
 20
-5.6088800000000001
 30
0.0
 10
-2.4890500000000002
 20
-5.3269400000000005
 30
0.0
 10
-2.3468100000000001
 20
-5.5301400000000003
 30
0.0
 10
-2.3925300000000003
 20
-5.7104800000000004
 30
0.0
 10
-2.3925300000000003
 20
-5.7104800000000004
 30
0.0
 10
-2.3925300000000003
 20
-5.7104800000000004
 30
0.0
 10
-2.3239500000000004
 20
-6.1880000000000006
 30
0.0
 10
-2.3239500000000004
 20
-6.1880000000000006
 30
0.0
 10
-2.3239500000000004
 20
-6.1880000000000006
 30
0.0
 10
-2.40523
 20
-5.9695600000000004
 30
0.0
 10
-2.4687300000000003
 20
-6.0660800000000004
 30
0.0
 10
-2.3747500000000001
 20
-6.2464200000000005
 30
0.0
 10
-2.3747500000000001
 20
-6.2464200000000005
 30
0.0
 10
-2.3214100000000002
 20
-6.4343800000000009
 30
0.0
 10
-2.1004300000000002
 20
-6.5740800000000004
 30
0.0
 10
-2.2096500000000003
 20
-6.2794400000000001
 30
0.0
 10
-2.2096500000000003
 20
-6.2794400000000001
 30
0.0
 10
-2.2579100000000003
 20
-6.0203600000000002
 30
0.0
 10
-2.3722100000000004
 20
-5.7282600000000006
 30
0.0
 10
-2.3036300000000001
 20
-5.4742600000000001
 30
0.0
 10
-2.3036300000000001
 20
-5.4742600000000001
 30
0.0
 10
-1.9023100000000002
 20
-5.5250600000000007
 30
0.0
 10
-1.5136900000000002
 20
-5.4006000000000007
 30
0.0
 10
-1.1784100000000002
 20
-5.2177200000000008
 30
0.0
 10
-1.1784100000000002
 20
-5.2177200000000008
 30
0.0
 10
-1.1453900000000001
 20
-5.4310800000000006
 30
0.0
 10
-1.16317
 20
-5.6749200000000002
 30
0.0
 10
-1.20381
 20
-5.8882800000000008
 30
0.0
 10
-1.20381
 20
-5.8882800000000008
 30
0.0
 10
-1.2317500000000001
 20
-6.0356000000000005
 30
0.0
 10
-1.2368300000000001
 20
-6.1753000000000009
 30
0.0
 10
-1.2749300000000001
 20
-6.2921400000000007
 30
0.0
  0
ENDSEC
  0
SECTION
  2
OBJECTS
  0
DICTIONARY
  5
19
100
AcDbDictionary
280
     0
281
     1
  3
ACAD_GROUP
350
1A
  3
ACAD_MLINESTYLE
350
1B
  3
ACAD_LAYOUT
350
1E
  3
ACAD_PLOTSETTINGS
350
22
  3
ACAD_PLOTSTYLENAME
350
1F
  3
ACAD_WIPEOUT_VARS
350
23
  0
DICTIONARY
  5
1A
102
{ACAD_REACTORS
330
19
102
}
100
AcDbDictionary
280
     0
281
     1
  0
DICTIONARY
  5
1B
102
{ACAD_REACTORS
330
19
102
}
100
AcDbDictionary
280
     0
281
     1
  3
Standard
350
1C
  0
MLINESTYLE
  5
1C
102
{ACAD_REACTORS
330
1B
102
}
100
AcDbMlineStyle
  2
Standard
 70
     0
  3

 62
     0
 51
90.0
 52
90.0
 71
     2
 49
0.5
 62
   256
  6
BYLAYER
 49
-0.5
 62
   256
  6
BYLAYER
  0
ACDBDICTIONARYWDFLT
  5
1F
102
{ACAD_REACTORS
330
19
102
}
100
AcDbDictionary
281
     1
  3
Normal
350
1D
100
AcDbDictionaryWithDefault
340
1D
  0
ACDBPLACEHOLDER
  5
1D
102
{ACAD_REACTORS
330
1F
102
}
  0
LAYOUT
  5
20
102
{ACAD_REACTORS
330
1E
102
}
100
AcDbPlotSettings
  1

  2

  4

  6

 40
0.0
 41
0.0
 42
0.0
 43
0.0
 44
0.0
 45
0.0
 46
0.0
 47
0.0
 48
0.0
 49
0.0
140
0.0
141
0.0
142
1.0
143
1.0
 70
  1024
 72
     0
 73
     0
 74
     0
  7

 75
     0
147
1.0
148
0.0
149
0.0
100
AcDbLayout
  1
Model
 70
     0
 71
     0
 10
0.0
 20
0.0
 11
0.0
 21
0.0
 12
0.0
 22
0.0
 32
0.0
 14
0.0
 24
0.0
 34
0.0
 15
0.0
 25
0.0
 35
0.0
146
0.0
 13
0.0
 23
0.0
 33
0.0
 16
0.0
 26
0.0
 36
0.0
 17
0.0
 27
0.0
 37
0.0
 76
     0
330
A
331
0
345
0
346
0
  0
LAYOUT
  5
21
102
{ACAD_REACTORS
330
1E
102
}
100
AcDbPlotSettings
  1

  2

  4

  6

 40
0.0
 41
0.0
 42
0.0
 43
0.0
 44
0.0
 45
0.0
 46
0.0
 47
0.0
 48
0.0
 49
0.0
140
0.0
141
0.0
142
1.0
143
1.0
 70
     0
 72
     0
 73
     0
 74
     0
  7

 75
     0
147
1.0
148
0.0
149
0.0
100
AcDbLayout
  1
Layout1
 70
     0
 71
     0
 10
0.0
 20
0.0
 11
0.0
 21
0.0
 12
0.0
 22
0.0
 32
0.0
 14
0.0
 24
0.0
 34
0.0
 15
0.0
 25
0.0
 35
0.0
146
0.0
 13
0.0
 23
0.0
 33
0.0
 16
0.0
 26
0.0
 36
0.0
 17
0.0
 27
0.0
 37
0.0
 76
     0
330
B
331
0
345
0
346
0
  0
DICTIONARY
  5
1E
102
{ACAD_REACTORS
330
19
102
}
100
AcDbDictionary
280
     0
281
     1
  3
Layout1
350
21
  3
Model
350
20
  0
DICTIONARY
  5
22
102
{ACAD_REACTORS
330
19
102
}
100
AcDbDictionary
280
     0
281
     1
  0
WIPEOUTVARIABLES
  5
23
100
AcDbWipeoutVariables
 70
     1
  0
ENDSEC
  0
EOF
