  0
SECTION
  2
HEADER
  9
$ACADVER
  1
AC1015
  9
$ACADMAINTVER
 70
     6
  9
$DWGCODEPAGE
  3
DOS850
  9
$INSBASE
 10
0.0
 20
0.0
 30
0.0
  9
$EXTMIN
 10
-3.37226
 20
-6.70362
 30
1.000000E+20
  9
$EXTMAX
 10
3.37746
 20
6.69741
 30
-1.000000E+20
  9
$LIMMIN
 10
0.0
 20
0.0
  9
$LIMMAX
 10
0.0
 20
0.0
  9
$ORTHOMODE
 70
     0
  9
$REGENMODE
 70
     1
  9
$FILLMODE
 70
     1
  9
$QTEXTMODE
 70
     0
  9
$MIRRTEXT
 70
     1
  9
$LTSCALE
 40
1.0
  9
$ATTMODE
 70
     1
  9
$TEXTSIZE
 40
0.2
  9
$TRACEWID
 40
0.05
  9
$TEXTSTYLE
  7
Standard
  9
$CLAYER
  8
0
  9
$CELTYPE
  6
Continuous
  9
$CECOLOR
 62
   256
  9
$CELTSCALE
 40
1.0
  9
$DISPSILH
 70
     0
  9
$DIMSCALE
 40
1.0
  9
$DIMASZ
 40
0.18
  9
$DIMEXO
 40
0.0625
  9
$DIMDLI
 40
0.38
  9
$DIMRND
 40
0.0
  9
$DIMDLE
 40
0.0
  9
$DIMEXE
 40
0.18
  9
$DIMTP
 40
0.0
  9
$DIMTM
 40
0.0
  9
$DIMTXT
 40
0.18
  9
$DIMCEN
 40
0.09
  9
$DIMTSZ
 40
0.0
  9
$DIMTOL
 70
     0
  9
$DIMLIM
 70
     0
  9
$DIMTIH
 70
     1
  9
$DIMTOH
 70
     1
  9
$DIMSE1
 70
     0
  9
$DIMSE2
 70
     0
  9
$DIMTAD
 70
     0
  9
$DIMZIN
 70
     0
  9
$DIMBLK
  1

  9
$DIMASO
 70
     1
  9
$DIMSHO
 70
     1
  9
$DIMPOST
  1

  9
$DIMAPOST
  1

  9
$DIMALT
 70
     0
  9
$DIMALTD
 70
     2
  9
$DIMALTF
 40
25.4
  9
$DIMLFAC
 40
1.0
  9
$DIMTOFL
 70
     0
  9
$DIMTVP
 40
0.0
  9
$DIMTIX
 70
     0
  9
$DIMSOXD
 70
     0
  9
$DIMSAH
 70
     0
  9
$DIMBLK1
  1

  9
$DIMBLK2
  1

  9
$DIMSTYLE
  2
Standard
  9
$DIMCLRD
 70
     0
  9
$DIMCLRE
 70
     0
  9
$DIMCLRT
 70
     0
  9
$DIMTFAC
 40
1.0
  9
$DIMGAP
 40
0.09
  9
$DIMJUST
 70
     0
  9
$DIMSD1
 70
     0
  9
$DIMSD2
 70
     0
  9
$DIMTOLJ
 70
     1
  9
$DIMTZIN
 70
     0
  9
$DIMALTZ
 70
     0
  9
$DIMALTTZ
 70
     0
  9
$DIMUPT
 70
     0
  9
$DIMDEC
 70
     4
  9
$DIMTDEC
 70
     4
  9
$DIMALTU
 70
     2
  9
$DIMALTTD
 70
     2
  9
$DIMTXSTY
  7
Standard
  9
$DIMAUNIT
 70
     0
  9
$DIMADEC
 70
     0
  9
$DIMALTRND
 40
0.0
  9
$DIMAZIN
 70
     0
  9
$DIMDSEP
 70
     0
  9
$DIMATFIT
 70
     3
  9
$DIMFRAC
 70
     0
  9
$DIMLDRBLK
  1

  9
$DIMLUNIT
 70
     2
  9
$DIMLWD
 70
     0
  9
$DIMLWE
 70
     0
  9
$DIMTMOVE
 70
     0
  9
$LUNITS
 70
     2
  9
$LUPREC
 70
     4
  9
$SKETCHINC
 40
0.1
  9
$FILLETRAD
 40
0.0
  9
$AUNITS
 70
     0
  9
$AUPREC
 70
     0
  9
$MENU
  1
acad
  9
$ELEVATION
 40
0.0
  9
$PELEVATION
 40
0.0
  9
$THICKNESS
 40
0.0
  9
$LIMCHECK
 70
     0
  9
$CHAMFERA
 40
0.0
  9
$CHAMFERB
 40
0.0
  9
$CHAMFERC
 40
0.0
  9
$CHAMFERD
 40
0.0
  9
$SKPOLY
 70
     0
  9
$TDCREATE
 40
0.000000000
  9
$TDUCREATE
 40
0.000000000
  9
$TDUPDATE
 40
0.000000000
  9
$TDUUPDATE
 40
0.000000000
  9
$TDINDWG
 40
0.0000000000
  9
$TDUSRTIMER
 40
0.0000000000
  9
$USRTIMER
 70
     1
  9
$ANGBASE
 50
0.0
  9
$ANGDIR
 70
     0
  9
$PDMODE
 70
     0
  9
$PDSIZE
 40
0.0
  9
$PLINEWID
 40
0.0
  9
$SPLFRAME
 70
     0
  9
$SPLINETYPE
 70
     6
  9
$SPLINESEGS
 70
     8
  9
$HANDSEED
  5
3C
  9
$SURFTAB1
 70
     6
  9
$SURFTAB2
 70
     6
  9
$SURFTYPE
 70
     6
  9
$SURFU
 70
     6
  9
$SURFV
 70
     6
  9
$UCSBASE
  2

  9
$UCSNAME
  2

  9
$UCSORG
 10
0.0
 20
0.0
 30
0.0
  9
$UCSXDIR
 10
1.0
 20
0.0
 30
0.0
  9
$UCSYDIR
 10
0.0
 20
1.0
 30
0.0
  9
$UCSORTHOREF
  2

  9
$UCSORTHOVIEW
 70
     0
  9
$UCSORGTOP
 10
0.0
 20
0.0
 30
0.0
  9
$UCSORGBOTTOM
 10
0.0
 20
0.0
 30
0.0
  9
$UCSORGLEFT
 10
0.0
 20
0.0
 30
0.0
  9
$UCSORGRIGHT
 10
0.0
 20
0.0
 30
0.0
  9
$UCSORGFRONT
 10
0.0
 20
0.0
 30
0.0
  9
$UCSORGBACK
 10
0.0
 20
0.0
 30
0.0
  9
$PUCSBASE
  2

  9
$PUCSNAME
  2

  9
$PUCSORG
 10
0.0
 20
0.0
 30
0.0
  9
$PUCSXDIR
 10
1.0
 20
0.0
 30
0.0
  9
$PUCSYDIR
 10
0.0
 20
1.0
 30
0.0
  9
$PUCSORTHOREF
  2

  9
$PUCSORTHOVIEW
 70
     0
  9
$PUCSORGTOP
 10
0.0
 20
0.0
 30
0.0
  9
$PUCSORGBOTTOM
 10
0.0
 20
0.0
 30
0.0
  9
$PUCSORGLEFT
 10
0.0
 20
0.0
 30
0.0
  9
$PUCSORGRIGHT
 10
0.0
 20
0.0
 30
0.0
  9
$PUCSORGFRONT
 10
0.0
 20
0.0
 30
0.0
  9
$PUCSORGBACK
 10
0.0
 20
0.0
 30
0.0
  9
$USERI1
 70
     0
  9
$USERI2
 70
     0
  9
$USERI3
 70
     0
  9
$USERI4
 70
     0
  9
$USERI5
 70
     0
  9
$USERR1
 40
0.0
  9
$USERR2
 40
0.0
  9
$USERR3
 40
0.0
  9
$USERR4
 40
0.0
  9
$USERR5
 40
0.0
  9
$WORLDVIEW
 70
     1
  9
$SHADEDGE
 70
     3
  9
$SHADEDIF
 70
    70
  9
$TILEMODE
 70
     1
  9
$MAXACTVP
 70
    16
  9
$PINSBASE
 10
0.0
 20
0.0
 30
0.0
  9
$PLIMCHECK
 70
     0
  9
$PEXTMIN
 10
1.000000E+20
 20
1.000000E+20
 30
1.000000E+20
  9
$PEXTMAX
 10
-1.000000E+20
 20
-1.000000E+20
 30
-1.000000E+20
  9
$PLIMMIN
 10
0.0
 20
0.0
  9
$PLIMMAX
 10
12.0
 20
9.0
  9
$UNITMODE
 70
     0
  9
$VISRETAIN
 70
     0
  9
$PLINEGEN
 70
     1
  9
$PSLTSCALE
 70
     0
  9
$TREEDEPTH
 70
  3020
  9
$CMLSTYLE
  2
Standard
  9
$CMLJUST
 70
     0
  9
$CMLSCALE
 40
1.0
  9
$PROXYGRAPHICS
 70
     0
  9
$MEASUREMENT
 70
     0
  9
$CELWEIGHT
370
     0
  9
$ENDCAPS
280
     0
  9
$JOINSTYLE
280
     0
  9
$LWDISPLAY
290
     0
  9
$INSUNITS
 70
     5
  9
$HYPERLINKBASE
  1

  9
$XEDIT
290
     1
  9
$CEPSNTYPE
380
     0
  9
$PSTYLEMODE
290
     1
  9
$FINGERPRINTGUID
  2

  9
$VERSIONGUID
  2

  9
$EXTNAMES
290
     1
  9
$PSVPSCALE
 40
0.0
  0
ENDSEC
  0
SECTION
  2
CLASSES
  0
CLASS
  1
LWPOLYLINE
  2
AcDbPolyline
  3
AutoCAD 2000
 90
    32768
280
     0
281
     1
  0
CLASS
  1
IMAGE
  2
AcDbRasterImage
  3
ISM
 90
    32895
280
     0
281
     1
  0
CLASS
  1
OLE2FRAME
  2
AcDbOle2Frame
  3
AutoCAD 2000
 90
    32768
280
     0
281
     1
  0
CLASS
  1
HATCH
  2
AcDbHatch
  3
AutoCAD 2000
 90
    32768
280
     0
281
     1
  0
CLASS
  1
DICTIONARYVAR
  2
AcDbDictionaryVar
  3
AutoCAD 2000
 90
    32768
280
     0
281
     0
  0
CLASS
  1
RASTERVARIABLES
  2
AcDbRasterVariables
  3
ISM
 90
    32768
280
     0
281
     0
  0
CLASS
  1
IMAGEDEF
  2
AcDbRasterImageDef
  3
ISM
 90
    32768
280
     0
281
     0
  0
CLASS
  1
IMAGEDEF_REACTOR
  2
AcDbRasterImageDefReactor
  3
ISM
 90
    32769
280
     0
281
     0
  0
CLASS
  1
IDBUFFER
  2
AcDbIdBuffer
  3
AutoCAD 2000
 90
    32768
280
     0
281
     0
  0
CLASS
  1
SPATIAL_FILTER
  2
AcDbSpatialFilter
  3
AutoCAD 2000
 90
    32768
280
     0
281
     0
  0
CLASS
  1
XRECORD
  2
AcDbXrecord
  3
AutoCAD 2000
 90
    32768
280
     0
281
     0
  0
CLASS
  1
SORTENTSTABLE
  2
AcDbSortentsTable
  3
AutoCAD 2000
 90
    32768
280
     0
281
     0
  0
CLASS
  1
LAYER_INDEX
  2
AcDbLayerIndex
  3
AutoCAD 2000
 90
    32768
280
     0
281
     0
  0
CLASS
  1
SPATIAL_INDEX
  2
AcDbSpatialIndex
  3
AutoCAD 2000
 90
    32768
280
     0
281
     0
  0
CLASS
  1
OBJECT_PTR
  2
CAseDLPNTableRecord
  3
"ASE-LPNTableRecord"
 90
    32769
280
     0
281
     0
  0
CLASS
  1
LAYOUT
  2
AcDbLayout
  3
AutoCAD 2000
 90
        0
280
     0
281
     0
  0
CLASS
  1
PLOTSETTINGS
  2
AcDbPlotSettings
  3
AutoCAD 2000
 90
    32768
280
     0
281
     0
  0
CLASS
  1
ACDBDICTIONARYWDFLT
  2
AcDbDictionaryWithDefault
  3
AutoCAD 2000
 90
        0
280
     0
281
     0
  0
CLASS
  1
ACDBPLACEHOLDER
  2
AcDbPlaceHolder
  3
AutoCAD 2000
 90
        0
280
     0
281
     0
  0
CLASS
  1
VBA_PROJECT
  2
AcDbVbaProject
  3
acadvba
 90
    32768
280
     0
281
     0
  0
CLASS
  1
WIPEOUT
  2
AcDbWipeout
  3
WipeOut|AutoCAD Express Tool|expresstools@autodesk.com
 90
    32895
280
     0
281
     1
  0
CLASS
  1
WIPEOUTVARIABLES
  2
AcDbWipeoutVariables
  3
WipeOut|AutoCAD Express Tool|expresstools@autodesk.com
 90
        0
280
     0
281
     0
  0
CLASS
  1
RTEXT
  2
RText
  3
RText|AutoCAD Express Tool|expresstools@autodesk.com
 90
    32768
280
     0
281
     1
  0
CLASS
  1
ARCALIGNEDTEXT
  2
AcDbArcAlignedText
  3
ATEXT|AutoCAD Express Tool|expresstools@autodesk.com
 90
    32768
280
     0
281
     1
  0
ENDSEC
  0
SECTION
  2
TABLES
  0
TABLE
  2
VPORT
  5
7
100
AcDbSymbolTable
 70
     1
  0
VPORT
  5
15
100
AcDbSymbolTableRecord
100
AcDbViewportTableRecord
  2
*ACTIVE
 70
     0
 10
0.0
 20
0.0
 11
1.0
 21
1.0
 12
6.591288
 22
4.579184
 13
0.0
 23
0.0
 14
1.0
 24
1.0
 15
0.0
 25
0.0
 16
0.0
 26
0.0
 36
1.0
 17
0.0
 27
0.0
 37
0.0
 40
9.158369
 41
0.688564
 42
50.0
 43
0.0
 44
0.0
 50
0.0
 51
0.0
 71
     0
 72
   100
 73
     1
 74
     1
 75
     0
 76
     0
 77
     0
 78
     0
281
     0
 65
     0
110
0.0
120
0.0
130
0.0
111
1.0
121
0.0
131
0.0
112
0.0
122
1.0
132
0.0
345
0
346
0
 79
     0
146
0.0
  0
ENDTAB
  0
TABLE
  2
LTYPE
  5
4
100
AcDbSymbolTable
 70
     3
  0
LTYPE
  5
11
100
AcDbSymbolTableRecord
100
AcDbLinetypeTableRecord
  2
ByBlock
 70
    64
  3

 72
    65
 73
     0
 40
0.0
  0
LTYPE
  5
12
100
AcDbSymbolTableRecord
100
AcDbLinetypeTableRecord
  2
ByLayer
 70
    64
  3

 72
    65
 73
     0
 40
0.0
  0
LTYPE
  5
13
100
AcDbSymbolTableRecord
100
AcDbLinetypeTableRecord
  2
Continuous
 70
    64
  3
Solid line
 72
    65
 73
     0
 40
0.0
  0
ENDTAB
  0
TABLE
  2
LAYER
  5
2
100
AcDbSymbolTable
 70
     2
  0
LAYER
  5
14
100
AcDbSymbolTableRecord
100
AcDbLayerTableRecord
  2
0
 70
     0
 62
     7
  6
Continuous
290
     1
370
    -3
390
1D
  0
LAYER
  5
24
100
AcDbSymbolTableRecord
100
AcDbLayerTableRecord
  2
Ebene 1
 70
     0
 62
     7
  6
Continuous
290
     1
370
    -3
390
1F
  0
ENDTAB
  0
TABLE
  2
STYLE
  5
3
100
AcDbSymbolTable
 70
     1
  0
STYLE
  5
17
100
AcDbSymbolTableRecord
100
AcDbTextStyleTableRecord
  2
Standard
 70
     0
 40
0.0
 41
1.0
 50
0.0
 71
     0
 42
0.0
  3
txt
  4

  0
ENDTAB
  0
TABLE
  2
VIEW
  5
5
100
AcDbSymbolTable
 70
     0
  0
ENDTAB
  0
TABLE
  2
UCS
  5
6
100
AcDbSymbolTable
 70
     0
  0
ENDTAB
  0
TABLE
  2
APPID
  5
8
100
AcDbSymbolTable
 70
     1
  0
APPID
  5
16
100
AcDbSymbolTableRecord
100
AcDbRegAppTableRecord
  2
ACAD
 70
     0
  0
ENDTAB
  0
TABLE
  2
DIMSTYLE
  5
9
100
AcDbSymbolTable
 70
     1
100
AcDbDimStyleTable
 71
     0
  0
DIMSTYLE
105
18
100
AcDbSymbolTableRecord
100
AcDbDimStyleTableRecord
  2
Standard
 70
     0
  3

  4

 40
1.0
 41
0.18
 42
0.0625
 43
0.38
 44
0.18
 45
0.0
 46
0.0
 47
0.0
 48
0.0
 71
     0
 72
     0
 73
     1
 74
     1
 75
     0
 76
     0
 77
     0
 78
     0
 79
     0
140
0.18
141
0.09
142
0.0
143
25.4
144
1.0
145
0.0
146
1.0
147
0.09
148
0.0
170
     0
171
     2
172
     0
173
     0
174
     0
175
     0
176
     0
177
     0
178
     0
179
     0
271
     4
272
     4
273
     2
274
     2
275
     0
276
     0
277
     2
278
    46
279
     0
280
     0
281
     0
282
     0
283
     1
284
     0
285
     0
286
     0
288
     0
340
17
341
0
342
0
343
0
344
0
371
    -2
372
    -2
  0
ENDTAB
  0
TABLE
  2
BLOCK_RECORD
  5
1
100
AcDbSymbolTable
 70
     0
  0
BLOCK_RECORD
  5
A
100
AcDbSymbolTableRecord
100
AcDbBlockTableRecord
  2
*MODEL_SPACE
340
20
  0
BLOCK_RECORD
  5
B
100
AcDbSymbolTableRecord
100
AcDbBlockTableRecord
  2
*PAPER_SPACE
340
21
  0
ENDTAB
  0
ENDSEC
  0
SECTION
  2
BLOCKS
  0
BLOCK
  5
D
100
AcDbEntity
  8
0
100
AcDbBlockBegin
  2
*MODEL_SPACE
 70
     0
 10
0.0
 20
0.0
 30
0.0
  3
*MODEL_SPACE
  1

  0
ENDBLK
  5
E
100
AcDbEntity
  8
0
100
AcDbBlockEnd
  0
BLOCK
  5
F
100
AcDbEntity
 67
     1
  8
0
100
AcDbBlockBegin
  2
*PAPER_SPACE
 70
     0
 10
0.0
 20
0.0
 30
0.0
  3
*PAPER_SPACE
  1

  0
ENDBLK
  5
10
100
AcDbEntity
 67
     1
  8
0
100
AcDbBlockEnd
  0
ENDSEC
  0
SECTION
  2
ENTITIES
  0
SPLINE
  5
25
100
AcDbEntity
  8
Ebene 1
100
AcDbSpline
210
0.0
220
0.0
230
1.0
 70
     1
 71
     3
 72
   112
 73
   108
 74
     0
 42
0.0000000001
 43
0.0000000001
 40
0.0
 40
0.0
 40
0.0
 40
0.0
 40
0.037037037037037
 40
0.037037037037037
 40
0.037037037037037
 40
0.037037037037037
 40
0.0740740740740741
 40
0.0740740740740741
 40
0.0740740740740741
 40
0.0740740740740741
 40
0.1111111111111111
 40
0.1111111111111111
 40
0.1111111111111111
 40
0.1111111111111111
 40
0.1481481481481481
 40
0.1481481481481481
 40
0.1481481481481481
 40
0.1481481481481481
 40
0.1851851851851852
 40
0.1851851851851852
 40
0.1851851851851852
 40
0.1851851851851852
 40
0.2222222222222222
 40
0.2222222222222222
 40
0.2222222222222222
 40
0.2222222222222222
 40
0.2592592592592592
 40
0.2592592592592592
 40
0.2592592592592592
 40
0.2592592592592592
 40
0.2962962962962963
 40
0.2962962962962963
 40
0.2962962962962963
 40
0.2962962962962963
 40
0.3333333333333333
 40
0.3333333333333333
 40
0.3333333333333333
 40
0.3333333333333333
 40
0.3703703703703704
 40
0.3703703703703704
 40
0.3703703703703704
 40
0.3703703703703704
 40
0.4074074074074074
 40
0.4074074074074074
 40
0.4074074074074074
 40
0.4074074074074074
 40
0.4444444444444444
 40
0.4444444444444444
 40
0.4444444444444444
 40
0.4444444444444444
 40
0.4814814814814815
 40
0.4814814814814815
 40
0.4814814814814815
 40
0.4814814814814815
 40
0.5185185185185185
 40
0.5185185185185185
 40
0.5185185185185185
 40
0.5185185185185185
 40
0.5555555555555556
 40
0.5555555555555556
 40
0.5555555555555556
 40
0.5555555555555556
 40
0.5925925925925926
 40
0.5925925925925926
 40
0.5925925925925926
 40
0.5925925925925926
 40
0.6296296296296295
 40
0.6296296296296295
 40
0.6296296296296295
 40
0.6296296296296295
 40
0.6666666666666665
 40
0.6666666666666665
 40
0.6666666666666665
 40
0.6666666666666665
 40
0.7037037037037035
 40
0.7037037037037035
 40
0.7037037037037035
 40
0.7037037037037035
 40
0.7407407407407405
 40
0.7407407407407405
 40
0.7407407407407405
 40
0.7407407407407405
 40
0.7777777777777775
 40
0.7777777777777775
 40
0.7777777777777775
 40
0.7777777777777775
 40
0.8148148148148144
 40
0.8148148148148144
 40
0.8148148148148144
 40
0.8148148148148144
 40
0.8518518518518514
 40
0.8518518518518514
 40
0.8518518518518514
 40
0.8518518518518514
 40
0.8888888888888884
 40
0.8888888888888884
 40
0.8888888888888884
 40
0.8888888888888884
 40
0.9259259259259254
 40
0.9259259259259254
 40
0.9259259259259254
 40
0.9259259259259254
 40
0.9629629629629624
 40
0.9629629629629624
 40
0.9629629629629624
 40
0.9629629629629624
 40
1.0
 40
1.0
 40
1.0
 40
1.0
 10
-2.1588500000000002
 20
6.6974100000000005
 30
0.0
 10
-2.1563100000000004
 20
6.4002300000000005
 30
0.0
 10
-2.4509500000000002
 20
4.9194100000000001
 30
0.0
 10
-1.8134100000000002
 20
4.2640900000000004
 30
0.0
 10
-1.8134100000000002
 20
4.2640900000000004
 30
0.0
 10
-0.6500900000000001
 20
5.35121
 30
0.0
 10
1.4301600000000001
 20
5.2419900000000004
 30
0.0
 10
2.5757000000000003
 20
4.1574100000000005
 30
0.0
 10
2.5757000000000003
 20
4.1574100000000005
 30
0.0
 10
3.4799400000000005
 20
2.5343500000000003
 30
0.0
 10
3.8939600000000003
 20
0.13913
 30
0.0
 10
2.3217000000000003
 20
-1.2578600000000002
 30
0.0
 10
2.3217000000000003
 20
-1.2578600000000002
 30
0.0
 10
2.3217000000000003
 20
-1.2578600000000002
 30
0.0
 10
1.6384400000000001
 20
-1.2273800000000001
 30
0.0
 10
1.6384400000000001
 20
-1.2273800000000001
 30
0.0
 10
1.6384400000000001
 20
-1.2273800000000001
 30
0.0
 10
1.3565
 20
-1.7785600000000001
 30
0.0
 10
0.7900800000000001
 20
-1.6134600000000001
 30
0.0
 10
0.34304
 20
-1.3747
 30
0.0
 10
0.34304
 20
-1.3747
 30
0.0
 10
-0.05573
 20
-1.3467600000000002
 30
0.0
 10
-0.14971
 20
-1.9995400000000001
 30
0.0
 10
-0.6018300000000001
 20
-1.7328400000000002
 30
0.0
 10
-0.6018300000000001
 20
-1.7328400000000002
 30
0.0
 10
-0.94981
 20
-1.6287
 30
0.0
 10
-0.4697500000000001
 20
-2.1544800000000004
 30
0.0
 10
-0.5789700000000001
 20
-2.3653000000000004
 30
0.0
 10
-0.5789700000000001
 20
-2.3653000000000004
 30
0.0
 10
-0.65263
 20
-2.5100800000000003
 30
0.0
 10
-0.95235
 20
-2.7005800000000004
 30
0.0
 10
-1.0209300000000001
 20
-2.8783800000000004
 30
0.0
 10
-1.0209300000000001
 20
-2.8783800000000004
 30
0.0
 10
-1.0615700000000001
 20
-3.1603200000000005
 30
0.0
 10
-0.40879
 20
-3.7699200000000004
 30
0.0
 10
-0.9879100000000001
 20
-3.6810200000000002
 30
0.0
 10
-0.9879100000000001
 20
-3.6810200000000002
 30
0.0
 10
-0.8710700000000001
 20
-3.9045400000000003
 30
0.0
 10
-0.75931
 20
-4.1433
 30
0.0
 10
-0.7720100000000001
 20
-4.3947600000000007
 30
0.0
 10
-0.7720100000000001
 20
-4.3947600000000007
 30
0.0
 10
-0.8913900000000001
 20
-4.4557200000000003
 30
0.0
 10
-1.12253
 20
-3.9655000000000005
 30
0.0
 10
-1.0920500000000002
 20
-4.1280600000000005
 30
0.0
 10
-1.0920500000000002
 20
-4.1280600000000005
 30
0.0
 10
-1.0920500000000002
 20
-4.1280600000000005
 30
0.0
 10
-1.0183900000000001
 20
-4.2322000000000006
 30
0.0
 10
-1.0183900000000001
 20
-4.2322000000000006
 30
0.0
 10
-1.0183900000000001
 20
-4.2322000000000006
 30
0.0
 10
-1.0183900000000001
 20
-4.2322000000000006
 30
0.0
 10
-0.99553
 20
-4.2626800000000005
 30
0.0
 10
-0.99553
 20
-4.2626800000000005
 30
0.0
 10
-0.99553
 20
-4.2626800000000005
 30
0.0
 10
-0.8710700000000001
 20
-4.3820600000000001
 30
0.0
 10
-0.80503
 20
-4.9180000000000001
 30
0.0
 10
-1.0691900000000001
 20
-4.6792400000000001
 30
0.0
 10
-1.0691900000000001
 20
-4.6792400000000001
 30
0.0
 10
-1.1174500000000001
 20
-4.6055800000000007
 30
0.0
 10
-1.16571
 20
-4.5293800000000006
 30
0.0
 10
-1.2419100000000001
 20
-4.4709600000000007
 30
0.0
 10
-1.2419100000000001
 20
-4.4709600000000007
 30
0.0
 10
-1.2419100000000001
 20
-4.4709600000000007
 30
0.0
 10
-1.3511300000000002
 20
-4.2753800000000002
 30
0.0
 10
-1.3511300000000002
 20
-4.2753800000000002
 30
0.0
 10
-1.3511300000000002
 20
-4.2753800000000002
 30
0.0
 10
-1.5670300000000001
 20
-4.5750999999999999
 30
0.0
 10
-0.6500900000000001
 20
-5.0958000000000006
 30
0.0
 10
-1.2749300000000001
 20
-5.1542200000000005
 30
0.0
 10
-1.2749300000000001
 20
-5.1542200000000005
 30
0.0
 10
-1.4476500000000001
 20
-5.1542200000000005
 30
0.0
 10
-1.4400300000000001
 20
-4.9180000000000001
 30
0.0
 10
-1.5238500000000001
 20
-4.8113200000000003
 30
0.0
 10
-1.5238500000000001
 20
-4.8113200000000003
 30
0.0
 10
-1.5568700000000002
 20
-4.73766
 30
0.0
 10
-1.6229100000000001
 20
-4.7071800000000001
 30
0.0
 10
-1.6914900000000002
 20
-4.6792400000000001
 30
0.0
 10
-1.6914900000000002
 20
-4.6792400000000001
 30
0.0
 10
-2.3112500000000002
 20
-5.0221400000000003
 30
0.0
 10
-1.07935
 20
-6.0914800000000007
 30
0.0
 10
-2.0191500000000002
 20
-6.1067200000000001
 30
0.0
 10
-2.0191500000000002
 20
-6.1067200000000001
 30
0.0
 10
-1.9353300000000002
 20
-6.4039000000000001
 30
0.0
 10
-2.2020300000000002
 20
-6.5994800000000007
 30
0.0
 10
-2.4484100000000004
 20
-6.7036200000000008
 30
0.0
 10
-2.4484100000000004
 20
-6.7036200000000008
 30
0.0
 10
-2.8776700000000002
 20
-6.5258200000000004
 30
0.0
 10
-2.85989
 20
-5.8044600000000006
 30
0.0
 10
-3.0986500000000001
 20
-5.5936400000000006
 30
0.0
 10
-3.0986500000000001
 20
-5.5936400000000006
 30
0.0
 10
-3.1367500000000001
 20
-4.2703000000000007
 30
0.0
 10
-3.1215100000000002
 20
-2.9520400000000002
 30
0.0
 10
-2.9411700000000001
 20
-1.6591800000000001
 30
0.0
 10
-2.9411700000000001
 20
-1.6591800000000001
 30
0.0
 10
-3.3323300000000002
 20
-1.1384800000000002
 30
0.0
 10
-3.3247100000000001
 20
-0.52634
 30
0.0
 10
-3.1494500000000003
 20
0.09341
 30
0.0
 10
-3.1494500000000003
 20
0.09341
 30
0.0
 10
-3.7006300000000003
 20
0.8681100000000001
 30
0.0
 10
-3.0935700000000002
 20
1.5996300000000001
 30
0.0
 10
-2.7938500000000004
 20
2.29813
 30
0.0
 10
-2.7938500000000004
 20
2.29813
 30
0.0
 10
-2.8370300000000004
 20
3.3674700000000004
 30
0.0
 10
-3.3475700000000002
 20
4.4241100000000007
 30
0.0
 10
-2.9564100000000004
 20
5.4807500000000005
 30
0.0
 10
-2.9564100000000004
 20
5.4807500000000005
 30
0.0
 10
-2.8624300000000003
 20
5.9735100000000001
 30
0.0
 10
-2.5525500000000001
 20
6.443410000000001
 30
0.0
 10
-2.1588500000000002
 20
6.6974100000000005
 30
0.0
  0
SPLINE
  5
26
100
AcDbEntity
  8
Ebene 1
 62
     7
100
AcDbSpline
210
0.0
220
0.0
230
1.0
 70
     1
 71
     3
 72
   208
 73
   204
 74
     0
 42
0.0000000001
 43
0.0000000001
 40
0.0
 40
0.0
 40
0.0
 40
0.0
 40
0.0196078431372549
 40
0.0196078431372549
 40
0.0196078431372549
 40
0.0196078431372549
 40
0.0392156862745098
 40
0.0392156862745098
 40
0.0392156862745098
 40
0.0392156862745098
 40
0.0588235294117647
 40
0.0588235294117647
 40
0.0588235294117647
 40
0.0588235294117647
 40
0.0784313725490196
 40
0.0784313725490196
 40
0.0784313725490196
 40
0.0784313725490196
 40
0.0980392156862745
 40
0.0980392156862745
 40
0.0980392156862745
 40
0.0980392156862745
 40
0.1176470588235294
 40
0.1176470588235294
 40
0.1176470588235294
 40
0.1176470588235294
 40
0.1372549019607843
 40
0.1372549019607843
 40
0.1372549019607843
 40
0.1372549019607843
 40
0.1568627450980392
 40
0.1568627450980392
 40
0.1568627450980392
 40
0.1568627450980392
 40
0.1764705882352941
 40
0.1764705882352941
 40
0.1764705882352941
 40
0.1764705882352941
 40
0.196078431372549
 40
0.196078431372549
 40
0.196078431372549
 40
0.196078431372549
 40
0.2156862745098039
 40
0.2156862745098039
 40
0.2156862745098039
 40
0.2156862745098039
 40
0.2352941176470588
 40
0.2352941176470588
 40
0.2352941176470588
 40
0.2352941176470588
 40
0.2549019607843137
 40
0.2549019607843137
 40
0.2549019607843137
 40
0.2549019607843137
 40
0.2745098039215685
 40
0.2745098039215685
 40
0.2745098039215685
 40
0.2745098039215685
 40
0.2941176470588234
 40
0.2941176470588234
 40
0.2941176470588234
 40
0.2941176470588234
 40
0.3137254901960783
 40
0.3137254901960783
 40
0.3137254901960783
 40
0.3137254901960783
 40
0.3333333333333332
 40
0.3333333333333332
 40
0.3333333333333332
 40
0.3333333333333332
 40
0.3529411764705881
 40
0.3529411764705881
 40
0.3529411764705881
 40
0.3529411764705881
 40
0.372549019607843
 40
0.372549019607843
 40
0.372549019607843
 40
0.372549019607843
 40
0.3921568627450979
 40
0.3921568627450979
 40
0.3921568627450979
 40
0.3921568627450979
 40
0.4117647058823528
 40
0.4117647058823528
 40
0.4117647058823528
 40
0.4117647058823528
 40
0.4313725490196076
 40
0.4313725490196076
 40
0.4313725490196076
 40
0.4313725490196076
 40
0.4509803921568625
 40
0.4509803921568625
 40
0.4509803921568625
 40
0.4509803921568625
 40
0.4705882352941174
 40
0.4705882352941174
 40
0.4705882352941174
 40
0.4705882352941174
 40
0.4901960784313723
 40
0.4901960784313723
 40
0.4901960784313723
 40
0.4901960784313723
 40
0.5098039215686272
 40
0.5098039215686272
 40
0.5098039215686272
 40
0.5098039215686272
 40
0.5294117647058821
 40
0.5294117647058821
 40
0.5294117647058821
 40
0.5294117647058821
 40
0.5490196078431371
 40
0.5490196078431371
 40
0.5490196078431371
 40
0.5490196078431371
 40
0.568627450980392
 40
0.568627450980392
 40
0.568627450980392
 40
0.568627450980392
 40
0.588235294117647
 40
0.588235294117647
 40
0.588235294117647
 40
0.588235294117647
 40
0.6078431372549019
 40
0.6078431372549019
 40
0.6078431372549019
 40
0.6078431372549019
 40
0.6274509803921569
 40
0.6274509803921569
 40
0.6274509803921569
 40
0.6274509803921569
 40
0.6470588235294118
 40
0.6470588235294118
 40
0.6470588235294118
 40
0.6470588235294118
 40
0.6666666666666667
 40
0.6666666666666667
 40
0.6666666666666667
 40
0.6666666666666667
 40
0.6862745098039217
 40
0.6862745098039217
 40
0.6862745098039217
 40
0.6862745098039217
 40
0.7058823529411766
 40
0.7058823529411766
 40
0.7058823529411766
 40
0.7058823529411766
 40
0.7254901960784316
 40
0.7254901960784316
 40
0.7254901960784316
 40
0.7254901960784316
 40
0.7450980392156865
 40
0.7450980392156865
 40
0.7450980392156865
 40
0.7450980392156865
 40
0.7647058823529415
 40
0.7647058823529415
 40
0.7647058823529415
 40
0.7647058823529415
 40
0.7843137254901964
 40
0.7843137254901964
 40
0.7843137254901964
 40
0.7843137254901964
 40
0.8039215686274513
 40
0.8039215686274513
 40
0.8039215686274513
 40
0.8039215686274513
 40
0.8235294117647063
 40
0.8235294117647063
 40
0.8235294117647063
 40
0.8235294117647063
 40
0.8431372549019612
 40
0.8431372549019612
 40
0.8431372549019612
 40
0.8431372549019612
 40
0.8627450980392162
 40
0.8627450980392162
 40
0.8627450980392162
 40
0.8627450980392162
 40
0.8823529411764711
 40
0.8823529411764711
 40
0.8823529411764711
 40
0.8823529411764711
 40
0.9019607843137261
 40
0.9019607843137261
 40
0.9019607843137261
 40
0.9019607843137261
 40
0.921568627450981
 40
0.921568627450981
 40
0.921568627450981
 40
0.921568627450981
 40
0.941176470588236
 40
0.941176470588236
 40
0.941176470588236
 40
0.941176470588236
 40
0.9607843137254909
 40
0.9607843137254909
 40
0.9607843137254909
 40
0.9607843137254909
 40
0.9803921568627458
 40
0.9803921568627458
 40
0.9803921568627458
 40
0.9803921568627458
 40
1.0
 40
1.0
 40
1.0
 40
1.0
 10
-2.2731500000000002
 20
-4.5750999999999999
 30
0.0
 10
-2.3010900000000003
 20
-4.5750999999999999
 30
0.0
 10
-2.27061
 20
-4.6055800000000007
 30
0.0
 10
-2.2731500000000002
 20
-4.5750999999999999
 30
0.0
 10
-2.2731500000000002
 20
-4.5750999999999999
 30
0.0
 10
-1.3054100000000002
 20
-3.2441400000000002
 30
0.0
 10
-1.7448300000000001
 20
-2.1138400000000002
 30
0.0
 10
-1.8286500000000001
 20
-1.0191000000000001
 30
0.0
 10
-1.8286500000000001
 20
-1.0191000000000001
 30
0.0
 10
-1.9708900000000003
 20
-1.3899400000000002
 30
0.0
 10
-2.2502900000000001
 20
-1.7480800000000001
 30
0.0
 10
-2.57287
 20
-2.0452600000000003
 30
0.0
 10
-2.57287
 20
-2.0452600000000003
 30
0.0
 10
-2.7557500000000004
 20
-1.9411200000000002
 30
0.0
 10
-2.7328900000000003
 20
-1.6744200000000002
 30
0.0
 10
-2.8827500000000001
 20
-1.5245600000000001
 30
0.0
 10
-2.8827500000000001
 20
-1.5245600000000001
 30
0.0
 10
-2.7659100000000003
 20
-0.9987800000000001
 30
0.0
 10
-2.8243300000000002
 20
-0.0031
 30
0.0
 10
-2.35697
 20
-0.02088
 30
0.0
 10
-2.35697
 20
-0.02088
 30
0.0
 10
-1.9327900000000002
 20
-0.03866
 30
0.0
 10
-1.9785100000000002
 20
-0.08946
 30
0.0
 10
-2.0064500000000001
 20
0.05023
 30
0.0
 10
-2.0064500000000001
 20
0.05023
 30
0.0
 10
-2.3163300000000002
 20
0.00451
 30
0.0
 10
-2.56271
 20
0.22803
 30
0.0
 10
-2.5423900000000001
 20
0.60141
 30
0.0
 10
-2.5423900000000001
 20
0.60141
 30
0.0
 10
-2.7074900000000004
 20
0.7284100000000001
 30
0.0
 10
-2.5881100000000004
 20
0.27629
 30
0.0
 10
-2.61097
 20
0.20263
 30
0.0
 10
-2.61097
 20
0.20263
 30
0.0
 10
-2.6998700000000002
 20
-0.0539
 30
0.0
 10
-3.0732500000000003
 20
0.40329
 30
0.0
 10
-3.2535900000000004
 20
0.76397
 30
0.0
 10
-3.2535900000000004
 20
0.76397
 30
0.0
 10
-3.2358100000000003
 20
1.06115
 30
0.0
 10
-3.0961100000000004
 20
0.39821
 30
0.0
 10
-2.8395700000000001
 20
0.53537
 30
0.0
 10
-2.8395700000000001
 20
0.53537
 30
0.0
 10
-3.4339300000000001
 20
0.9062100000000001
 30
0.0
 10
-2.98943
 20
2.2778100000000001
 30
0.0
 10
-2.7049500000000002
 20
1.31515
 30
0.0
 10
-2.7049500000000002
 20
1.31515
 30
0.0
 10
-2.5449300000000004
 20
1.4370700000000001
 30
0.0
 10
-2.7227300000000003
 20
1.6224900000000002
 30
0.0
 10
-2.7252700000000001
 20
1.7647300000000001
 30
0.0
 10
-2.7252700000000001
 20
1.7647300000000001
 30
0.0
 10
-2.7252700000000001
 20
2.0365100000000003
 30
0.0
 10
-2.7074900000000004
 20
2.2854300000000003
 30
0.0
 10
-2.6439900000000001
 20
2.5495900000000002
 30
0.0
 10
-2.6439900000000001
 20
2.5495900000000002
 30
0.0
 10
-2.6439900000000001
 20
2.5495900000000002
 30
0.0
 10
-2.3163300000000002
 20
1.8815700000000002
 30
0.0
 10
-2.3163300000000002
 20
1.8815700000000002
 30
0.0
 10
-2.3163300000000002
 20
1.8815700000000002
 30
0.0
 10
-2.2833100000000002
 20
1.9704700000000002
 30
0.0
 10
-2.3112500000000002
 20
2.0720700000000001
 30
0.0
 10
-2.3468100000000001
 20
2.16351
 30
0.0
 10
-2.3468100000000001
 20
2.16351
 30
0.0
 10
-2.8065500000000001
 20
3.1744300000000001
 30
0.0
 10
-3.3145500000000001
 20
4.4241100000000007
 30
0.0
 10
-2.8395700000000001
 20
5.5391700000000004
 30
0.0
 10
-2.8395700000000001
 20
5.5391700000000004
 30
0.0
 10
-2.8141700000000003
 20
5.1226100000000008
 30
0.0
 10
-2.86497
 20
4.6628700000000007
 30
0.0
 10
-2.6439900000000001
 20
4.3047300000000002
 30
0.0
 10
-2.6439900000000001
 20
4.3047300000000002
 30
0.0
 10
-2.73543
 20
5.0184700000000007
 30
0.0
 10
-2.9564100000000004
 20
5.8109500000000001
 30
0.0
 10
-2.3036300000000001
 20
6.3722900000000005
 30
0.0
 10
-2.3036300000000001
 20
6.3722900000000005
 30
0.0
 10
-2.2782300000000002
 20
5.5112300000000003
 30
0.0
 10
-2.5449300000000004
 20
4.0812100000000004
 30
0.0
 10
-1.37907
 20
3.8881700000000001
 30
0.0
 10
-1.37907
 20
3.8881700000000001
 30
0.0
 10
-1.37907
 20
3.8881700000000001
 30
0.0
 10
-1.20381
 20
3.8576900000000003
 30
0.0
 10
-1.20381
 20
3.8576900000000003
 30
0.0
 10
-1.20381
 20
3.8576900000000003
 30
0.0
 10
-1.0234700000000001
 20
3.9338900000000003
 30
0.0
 10
-1.9632700000000001
 20
3.9034100000000005
 30
0.0
 10
-1.58989
 20
4.2310700000000008
 30
0.0
 10
-1.58989
 20
4.2310700000000008
 30
0.0
 10
-0.80249
 20
5.1378500000000003
 30
0.0
 10
0.6275200000000001
 20
5.0184700000000007
 30
0.0
 10
1.6689200000000002
 20
4.6933500000000006
 30
0.0
 10
1.6689200000000002
 20
4.6933500000000006
 30
0.0
 10
2.3699600000000003
 20
4.4368100000000004
 30
0.0
 10
3.2792800000000004
 20
3.3242900000000004
 30
0.0
 10
2.6442800000000002
 20
2.8035900000000002
 30
0.0
 10
2.6442800000000002
 20
2.8035900000000002
 30
0.0
 10
2.5401400000000001
 20
2.71977
 30
0.0
 10
2.2683600000000004
 20
2.5064100000000002
 30
0.0
 10
2.5325200000000003
 20
2.5648300000000002
 30
0.0
 10
2.5325200000000003
 20
2.5648300000000002
 30
0.0
 10
2.9770200000000004
 20
2.8772500000000001
 30
0.0
 10
2.9033600000000002
 20
2.5927700000000002
 30
0.0
 10
2.8297000000000003
 20
2.1330300000000002
 30
0.0
 10
2.8297000000000003
 20
2.1330300000000002
 30
0.0
 10
2.9186000000000001
 20
2.1025500000000004
 30
0.0
 10
2.8728800000000003
 20
2.3108300000000002
 30
0.0
 10
2.9465400000000002
 20
2.34131
 30
0.0
 10
2.9465400000000002
 20
2.34131
 30
0.0
 10
3.6780600000000003
 20
1.2694300000000001
 30
0.0
 10
3.2005400000000002
 20
-0.8540000000000001
 30
0.0
 10
1.8772000000000002
 20
-1.0622800000000001
 30
0.0
 10
1.8772000000000002
 20
-1.0622800000000001
 30
0.0
 10
1.8772000000000002
 20
-0.8413000000000001
 30
0.0
 10
2.5172800000000004
 20
-0.8108200000000001
 30
0.0
 10
2.08548
 20
-0.78034
 30
0.0
 10
2.08548
 20
-0.78034
 30
0.0
 10
1.9661000000000002
 20
-0.7955800000000001
 30
0.0
 10
1.8467200000000001
 20
-0.8413000000000001
 30
0.0
 10
1.7273400000000001
 20
-0.88448
 30
0.0
 10
1.7273400000000001
 20
-0.88448
 30
0.0
 10
1.4149200000000002
 20
-1.6134600000000001
 30
0.0
 10
0.80532
 20
-1.4940800000000001
 30
0.0
 10
0.21096
 20
-1.2273800000000001
 30
0.0
 10
0.21096
 20
-1.2273800000000001
 30
0.0
 10
0.2617600000000001
 20
-0.71938
 30
0.0
 10
1.1558400000000002
 20
-0.76002
 30
0.0
 10
1.1787000000000001
 20
-0.2444
 30
0.0
 10
1.1787000000000001
 20
-0.2444
 30
0.0
 10
0.6910200000000001
 20
-0.7143000000000001
 30
0.0
 10
-0.06843
 20
-0.9429000000000001
 30
0.0
 10
-0.26655
 20
-1.5982200000000002
 30
0.0
 10
-0.26655
 20
-1.5982200000000002
 30
0.0
 10
-0.8151900000000001
 20
-1.7176000000000002
 30
0.0
 10
-1.0945900000000002
 20
-1.3747
 30
0.0
 10
-1.3892300000000002
 20
-1.03434
 30
0.0
 10
-1.3892300000000002
 20
-1.03434
 30
0.0
 10
-1.6584700000000001
 20
-1.2426200000000001
 30
0.0
 10
-1.5213100000000002
 20
-1.6591800000000001
 30
0.0
 10
-1.3435100000000002
 20
-1.21214
 30
0.0
 10
-1.3435100000000002
 20
-1.21214
 30
0.0
 10
-1.1149100000000001
 20
-1.6896600000000002
 30
0.0
 10
-0.7974100000000001
 20
-1.7912600000000001
 30
0.0
 10
-0.6653300000000001
 20
-2.3272000000000004
 30
0.0
 10
-0.6653300000000001
 20
-2.3272000000000004
 30
0.0
 10
-0.8202700000000001
 20
-2.4313400000000001
 30
0.0
 10
-1.4781300000000002
 20
-3.0866600000000002
 30
0.0
 10
-1.1860300000000001
 20
-3.0434800000000002
 30
0.0
 10
-1.1860300000000001
 20
-3.0434800000000002
 30
0.0
 10
-1.16571
 20
-2.9520400000000002
 30
0.0
 10
-1.0996700000000001
 20
-2.8479000000000001
 30
0.0
 10
-1.08443
 20
-2.9977600000000004
 30
0.0
 10
-1.08443
 20
-2.9977600000000004
 30
0.0
 10
-1.08443
 20
-2.9977600000000004
 30
0.0
 10
-0.99553
 20
-3.2365200000000001
 30
0.0
 10
-0.99553
 20
-3.2365200000000001
 30
0.0
 10
-0.99553
 20
-3.2365200000000001
 30
0.0
 10
-1.2723900000000001
 20
-3.3838400000000002
 30
0.0
 10
-1.2292100000000001
 20
-3.6530800000000001
 30
0.0
 10
-1.2774700000000001
 20
-3.9350200000000002
 30
0.0
 10
-1.2774700000000001
 20
-3.9350200000000002
 30
0.0
 10
-1.3714500000000001
 20
-3.8004000000000002
 30
0.0
 10
-1.37399
 20
-3.5641800000000003
 30
0.0
 10
-1.4476500000000001
 20
-3.4448000000000003
 30
0.0
 10
-1.4476500000000001
 20
-3.4448000000000003
 30
0.0
 10
-1.37653
 20
-3.7419800000000003
 30
0.0
 10
-1.4044700000000001
 20
-4.7224200000000005
 30
0.0
 10
-1.6584700000000001
 20
-4.0544000000000002
 30
0.0
 10
-1.6584700000000001
 20
-4.0544000000000002
 30
0.0
 10
-1.50353
 20
-4.7071800000000001
 30
0.0
 10
-2.2248900000000003
 20
-4.7224200000000005
 30
0.0
 10
-2.2299700000000002
 20
-5.2736000000000001
 30
0.0
 10
-2.2299700000000002
 20
-5.2736000000000001
 30
0.0
 10
-2.30871
 20
-5.1694600000000008
 30
0.0
 10
-2.3061700000000003
 20
-4.9916600000000004
 30
0.0
 10
-2.4357100000000003
 20
-4.9307000000000007
 30
0.0
 10
-2.4357100000000003
 20
-4.9307000000000007
 30
0.0
 10
-3.1799300000000001
 20
-5.0653200000000007
 30
0.0
 10
-3.0072100000000002
 20
-3.6810200000000002
 30
0.0
 10
-3.0122900000000001
 20
-3.0714200000000003
 30
0.0
 10
-3.0122900000000001
 20
-3.0714200000000003
 30
0.0
 10
-2.9665700000000004
 20
-3.1476200000000003
 30
0.0
 10
-2.9818100000000003
 20
-3.2492200000000002
 30
0.0
 10
-2.9716500000000003
 20
-3.3381200000000004
 30
0.0
 10
-2.9716500000000003
 20
-3.3381200000000004
 30
0.0
 10
-2.9513300000000005
 20
-3.5489400000000004
 30
0.0
 10
-2.9437100000000003
 20
-3.7419800000000003
 30
0.0
 10
-2.8090900000000003
 20
-3.9045400000000003
 30
0.0
 10
-2.8090900000000003
 20
-3.9045400000000003
 30
0.0
 10
-2.7252700000000001
 20
-4.0239200000000004
 30
0.0
 10
-2.6668500000000002
 20
-4.1128200000000001
 30
0.0
 10
-2.6871700000000001
 20
-4.30586
 30
0.0
 10
-2.6871700000000001
 20
-4.30586
 30
0.0
 10
-2.6871700000000001
 20
-4.30586
 30
0.0
 10
-2.65415
 20
-4.5598600000000005
 30
0.0
 10
-2.65415
 20
-4.5598600000000005
 30
0.0
 10
-2.65415
 20
-4.5598600000000005
 30
0.0
 10
-2.5220700000000003
 20
-4.9459400000000002
 30
0.0
 10
-2.7963900000000002
 20
-3.4143200000000005
 30
0.0
 10
-2.4661900000000001
 20
-3.8004000000000002
 30
0.0
 10
-2.4661900000000001
 20
-3.8004000000000002
 30
0.0
 10
-2.3899900000000001
 20
-3.9045400000000003
 30
0.0
 10
-2.3366500000000001
 20
-4.0544000000000002
 30
0.0
 10
-2.2071100000000001
 20
-4.0975800000000007
 30
0.0
 10
-2.2071100000000001
 20
-4.0975800000000007
 30
0.0
 10
-2.2071100000000001
 20
-4.0975800000000007
 30
0.0
 10
-2.2731500000000002
 20
-4.5750999999999999
 30
0.0
 10
-2.2731500000000002
 20
-4.5750999999999999
 30
0.0
  0
SPLINE
  5
27
100
AcDbEntity
  8
Ebene 1
100
AcDbSpline
210
0.0
220
0.0
230
1.0
 70
     1
 71
     3
 72
    20
 73
    16
 74
     0
 42
0.0000000001
 43
0.0000000001
 40
0.0
 40
0.0
 40
0.0
 40
0.0
 40
0.25
 40
0.25
 40
0.25
 40
0.25
 40
0.5
 40
0.5
 40
0.5
 40
0.5
 40
0.75
 40
0.75
 40
0.75
 40
0.75
 40
1.0
 40
1.0
 40
1.0
 40
1.0
 10
-2.2858500000000004
 20
4.0075500000000002
 30
0.0
 10
-2.26553
 20
4.0075500000000002
 30
0.0
 10
-2.2426700000000004
 20
4.0075500000000002
 30
0.0
 10
-2.2299700000000002
 20
3.9923100000000002
 30
0.0
 10
-2.2299700000000002
 20
3.9923100000000002
 30
0.0
 10
-2.0343900000000001
 20
3.5909900000000001
 30
0.0
 10
-1.5746500000000001
 20
3.3369900000000001
 30
0.0
 10
-1.17079
 20
3.3090500000000005
 30
0.0
 10
-1.17079
 20
3.3090500000000005
 30
0.0
 10
-1.1758700000000002
 20
3.2785700000000002
 30
0.0
 10
-1.2012700000000001
 20
3.2353900000000002
 30
0.0
 10
-1.2292100000000001
 20
3.2201500000000003
 30
0.0
 10
-1.2292100000000001
 20
3.2201500000000003
 30
0.0
 10
-1.6838700000000002
 20
3.2785700000000002
 30
0.0
 10
-2.1055100000000002
 20
3.5909900000000001
 30
0.0
 10
-2.2858500000000004
 20
4.0075500000000002
 30
0.0
  0
SPLINE
  5
28
100
AcDbEntity
  8
Ebene 1
100
AcDbSpline
210
0.0
220
0.0
230
1.0
 70
     1
 71
     3
 72
    56
 73
    52
 74
     0
 42
0.0000000001
 43
0.0000000001
 40
0.0
 40
0.0
 40
0.0
 40
0.0
 40
0.0769230769230769
 40
0.0769230769230769
 40
0.0769230769230769
 40
0.0769230769230769
 40
0.1538461538461539
 40
0.1538461538461539
 40
0.1538461538461539
 40
0.1538461538461539
 40
0.2307692307692308
 40
0.2307692307692308
 40
0.2307692307692308
 40
0.2307692307692308
 40
0.3076923076923077
 40
0.3076923076923077
 40
0.3076923076923077
 40
0.3076923076923077
 40
0.3846153846153846
 40
0.3846153846153846
 40
0.3846153846153846
 40
0.3846153846153846
 40
0.4615384615384616
 40
0.4615384615384616
 40
0.4615384615384616
 40
0.4615384615384616
 40
0.5384615384615386
 40
0.5384615384615386
 40
0.5384615384615386
 40
0.5384615384615386
 40
0.6153846153846154
 40
0.6153846153846154
 40
0.6153846153846154
 40
0.6153846153846154
 40
0.6923076923076923
 40
0.6923076923076923
 40
0.6923076923076923
 40
0.6923076923076923
 40
0.7692307692307692
 40
0.7692307692307692
 40
0.7692307692307692
 40
0.7692307692307692
 40
0.846153846153846
 40
0.846153846153846
 40
0.846153846153846
 40
0.846153846153846
 40
0.9230769230769229
 40
0.9230769230769229
 40
0.9230769230769229
 40
0.9230769230769229
 40
1.0
 40
1.0
 40
1.0
 40
1.0
 10
1.8010000000000002
 20
3.1744300000000001
 30
0.0
 10
1.8772000000000002
 20
3.1896700000000004
 30
0.0
 10
1.8899000000000001
 20
3.1439500000000002
 30
0.0
 10
1.8314800000000002
 20
3.1007700000000002
 30
0.0
 10
1.8314800000000002
 20
3.1007700000000002
 30
0.0
 10
1.2066400000000002
 20
2.8924900000000004
 30
0.0
 10
0.9399400000000001
 20
2.1025500000000004
 30
0.0
 10
1.3412600000000001
 20
1.5818500000000002
 30
0.0
 10
1.3412600000000001
 20
1.5818500000000002
 30
0.0
 10
1.3412600000000001
 20
1.5818500000000002
 30
0.0
 10
1.39968
 20
1.31515
 30
0.0
 10
1.39968
 20
1.31515
 30
0.0
 10
1.39968
 20
1.31515
 30
0.0
 10
1.39968
 20
1.31515
 30
0.0
 10
1.39968
 20
1.1348100000000001
 30
0.0
 10
1.39968
 20
1.1348100000000001
 30
0.0
 10
1.39968
 20
1.1348100000000001
 30
0.0
 10
0.9399400000000001
 20
0.65983
 30
0.0
 10
1.5952600000000001
 20
0.09341
 30
0.0
 10
1.6384400000000001
 20
-0.4247400000000001
 30
0.0
 10
1.6384400000000001
 20
-0.4247400000000001
 30
0.0
 10
1.6384400000000001
 20
-0.4247400000000001
 30
0.0
 10
1.8010000000000002
 20
-0.57206
 30
0.0
 10
1.8010000000000002
 20
-0.57206
 30
0.0
 10
1.8010000000000002
 20
-0.57206
 30
0.0
 10
1.9051400000000001
 20
-0.63302
 30
0.0
 10
2.0550000000000002
 20
-0.4679200000000001
 30
0.0
 10
2.1312000000000002
 20
-0.5568200000000001
 30
0.0
 10
2.1312000000000002
 20
-0.5568200000000001
 30
0.0
 10
2.00928
 20
-0.5873
 30
0.0
 10
1.9051400000000001
 20
-0.6457200000000001
 30
0.0
 10
1.7730600000000001
 20
-0.61778
 30
0.0
 10
1.7730600000000001
 20
-0.61778
 30
0.0
 10
1.7730600000000001
 20
-0.61778
 30
0.0
 10
1.5800200000000002
 20
-0.4984000000000001
 30
0.0
 10
1.5800200000000002
 20
-0.4984000000000001
 30
0.0
 10
1.5800200000000002
 20
-0.4984000000000001
 30
0.0
 10
1.39968
 20
-0.02088
 30
0.0
 10
1.0440800000000001
 20
0.42361
 30
0.0
 10
0.9831200000000001
 20
0.9722500000000001
 30
0.0
 10
0.9831200000000001
 20
0.9722500000000001
 30
0.0
 10
0.9831200000000001
 20
0.9722500000000001
 30
0.0
 10
1.1787000000000001
 20
1.19577
 30
0.0
 10
1.1787000000000001
 20
1.19577
 30
0.0
 10
1.1787000000000001
 20
1.19577
 30
0.0
 10
1.2066400000000002
 20
1.2694300000000001
 30
0.0
 10
1.19394
 20
1.3456300000000001
 30
0.0
 10
1.19394
 20
1.4192900000000002
 30
0.0
 10
1.19394
 20
1.4192900000000002
 30
0.0
 10
0.7900800000000001
 20
2.0593700000000004
 30
0.0
 10
1.0440800000000001
 20
2.9356700000000004
 30
0.0
 10
1.8010000000000002
 20
3.1744300000000001
 30
0.0
  0
SPLINE
  5
29
100
AcDbEntity
  8
Ebene 1
100
AcDbSpline
210
0.0
220
0.0
230
1.0
 70
     1
 71
     3
 72
    16
 73
    12
 74
     0
 42
0.0000000001
 43
0.0000000001
 40
0.0
 40
0.0
 40
0.0
 40
0.0
 40
0.3333333333333333
 40
0.3333333333333333
 40
0.3333333333333333
 40
0.3333333333333333
 40
0.6666666666666666
 40
0.6666666666666666
 40
0.6666666666666666
 40
0.6666666666666666
 40
1.0
 40
1.0
 40
1.0
 40
1.0
 10
-2.3010900000000003
 20
2.8924900000000004
 30
0.0
 10
-2.1283700000000003
 20
2.7121500000000003
 30
0.0
 10
-2.0826500000000001
 20
2.34131
 30
0.0
 10
-1.7956300000000001
 20
2.2676500000000002
 30
0.0
 10
-1.7956300000000001
 20
2.2676500000000002
 30
0.0
 10
-1.7956300000000001
 20
2.2676500000000002
 30
0.0
 10
-2.10297
 20
2.0136500000000002
 30
0.0
 10
-2.10297
 20
2.0136500000000002
 30
0.0
 10
-2.10297
 20
2.0136500000000002
 30
0.0
 10
-2.0039100000000003
 20
2.34131
 30
0.0
 10
-2.23251
 20
2.6080100000000002
 30
0.0
 10
-2.3010900000000003
 20
2.8924900000000004
 30
0.0
  0
SPLINE
  5
2A
100
AcDbEntity
  8
Ebene 1
100
AcDbSpline
210
0.0
220
0.0
230
1.0
 70
     1
 71
     3
 72
    20
 73
    16
 74
     0
 42
0.0000000001
 43
0.0000000001
 40
0.0
 40
0.0
 40
0.0
 40
0.0
 40
0.25
 40
0.25
 40
0.25
 40
0.25
 40
0.5
 40
0.5
 40
0.5
 40
0.5
 40
0.75
 40
0.75
 40
0.75
 40
0.75
 40
1.0
 40
1.0
 40
1.0
 40
1.0
 10
-0.53071
 20
2.3717900000000003
 30
0.0
 10
-0.47483
 20
2.3870300000000002
 30
0.0
 10
-0.44689
 20
2.3260700000000001
 30
0.0
 10
-0.50531
 20
2.3108300000000002
 30
0.0
 10
-0.50531
 20
2.3108300000000002
 30
0.0
 10
-1.1174500000000001
 20
2.1762100000000002
 30
0.0
 10
-1.5695700000000001
 20
1.61233
 30
0.0
 10
-1.6025900000000002
 20
1.0027300000000001
 30
0.0
 10
-1.6025900000000002
 20
1.0027300000000001
 30
0.0
 10
-1.6787900000000002
 20
1.31515
 30
0.0
 10
-1.5644900000000002
 20
1.65551
 30
0.0
 10
-1.4476500000000001
 20
1.9552300000000002
 30
0.0
 10
-1.4476500000000001
 20
1.9552300000000002
 30
0.0
 10
-1.1784100000000002
 20
2.1482700000000001
 30
0.0
 10
-0.8583700000000001
 20
2.3260700000000001
 30
0.0
 10
-0.53071
 20
2.3717900000000003
 30
0.0
  0
SPLINE
  5
2B
100
AcDbEntity
  8
Ebene 1
100
AcDbSpline
210
0.0
220
0.0
230
1.0
 70
     1
 71
     3
 72
    32
 73
    28
 74
     0
 42
0.0000000001
 43
0.0000000001
 40
0.0
 40
0.0
 40
0.0
 40
0.0
 40
0.1428571428571429
 40
0.1428571428571429
 40
0.1428571428571429
 40
0.1428571428571429
 40
0.2857142857142857
 40
0.2857142857142857
 40
0.2857142857142857
 40
0.2857142857142857
 40
0.4285714285714286
 40
0.4285714285714286
 40
0.4285714285714286
 40
0.4285714285714286
 40
0.5714285714285714
 40
0.5714285714285714
 40
0.5714285714285714
 40
0.5714285714285714
 40
0.7142857142857142
 40
0.7142857142857142
 40
0.7142857142857142
 40
0.7142857142857142
 40
0.857142857142857
 40
0.857142857142857
 40
0.857142857142857
 40
0.857142857142857
 40
1.0
 40
1.0
 40
1.0
 40
1.0
 10
0.43448
 20
2.3717900000000003
 30
0.0
 10
0.43448
 20
2.3717900000000003
 30
0.0
 10
0.5487800000000001
 20
2.3717900000000003
 30
0.0
 10
0.5487800000000001
 20
2.3717900000000003
 30
0.0
 10
0.5487800000000001
 20
2.3717900000000003
 30
0.0
 10
0.5487800000000001
 20
2.3717900000000003
 30
0.0
 10
0.4624200000000001
 20
2.29813
 30
0.0
 10
0.4624200000000001
 20
2.29813
 30
0.0
 10
0.4624200000000001
 20
2.29813
 30
0.0
 10
0.4624200000000001
 20
2.29813
 30
0.0
 10
0.49036
 20
2.2524100000000002
 30
0.0
 10
0.49036
 20
2.2524100000000002
 30
0.0
 10
0.49036
 20
2.2524100000000002
 30
0.0
 10
0.33288
 20
2.1482700000000001
 30
0.0
 10
0.13984
 20
2.2828900000000001
 30
0.0
 10
-0.00493
 20
2.2828900000000001
 30
0.0
 10
-0.00493
 20
2.2828900000000001
 30
0.0
 10
-0.02271
 20
2.3260700000000001
 30
0.0
 10
0.023
 20
2.3717900000000003
 30
0.0
 10
0.0611
 20
2.3565500000000004
 30
0.0
 10
0.0611
 20
2.3565500000000004
 30
0.0
 10
0.0611
 20
2.3565500000000004
 30
0.0
 10
0.2262
 20
2.3108300000000002
 30
0.0
 10
0.2262
 20
2.3108300000000002
 30
0.0
 10
0.2262
 20
2.3108300000000002
 30
0.0
 10
0.3024
 20
2.3108300000000002
 30
0.0
 10
0.37352
 20
2.3565500000000004
 30
0.0
 10
0.43448
 20
2.3717900000000003
 30
0.0
  0
SPLINE
  5
2C
100
AcDbEntity
  8
Ebene 1
100
AcDbSpline
210
0.0
220
0.0
230
1.0
 70
     1
 71
     3
 72
    32
 73
    28
 74
     0
 42
0.0000000001
 43
0.0000000001
 40
0.0
 40
0.0
 40
0.0
 40
0.0
 40
0.1428571428571429
 40
0.1428571428571429
 40
0.1428571428571429
 40
0.1428571428571429
 40
0.2857142857142857
 40
0.2857142857142857
 40
0.2857142857142857
 40
0.2857142857142857
 40
0.4285714285714286
 40
0.4285714285714286
 40
0.4285714285714286
 40
0.4285714285714286
 40
0.5714285714285714
 40
0.5714285714285714
 40
0.5714285714285714
 40
0.5714285714285714
 40
0.7142857142857142
 40
0.7142857142857142
 40
0.7142857142857142
 40
0.7142857142857142
 40
0.857142857142857
 40
0.857142857142857
 40
0.857142857142857
 40
0.857142857142857
 40
1.0
 40
1.0
 40
1.0
 40
1.0
 10
-2.6439900000000001
 20
1.2999100000000001
 30
0.0
 10
-2.6439900000000001
 20
1.2999100000000001
 30
0.0
 10
-2.6160500000000004
 20
1.2999100000000001
 30
0.0
 10
-2.6160500000000004
 20
1.2999100000000001
 30
0.0
 10
-2.6160500000000004
 20
1.2999100000000001
 30
0.0
 10
-2.6414500000000003
 20
1.1805300000000001
 30
0.0
 10
-2.4839700000000002
 20
1.1652900000000002
 30
0.0
 10
-2.4204700000000003
 20
1.2262500000000001
 30
0.0
 10
-2.4204700000000003
 20
1.2262500000000001
 30
0.0
 10
-2.3366500000000001
 20
1.1805300000000001
 30
0.0
 10
-2.2401300000000002
 20
1.23895
 30
0.0
 10
-2.1563100000000004
 20
1.19577
 30
0.0
 10
-2.1563100000000004
 20
1.19577
 30
0.0
 10
-2.2807700000000004
 20
1.1805300000000001
 30
0.0
 10
-2.4534900000000004
 20
1.1195700000000002
 30
0.0
 10
-2.4687300000000003
 20
0.95701
 30
0.0
 10
-2.4687300000000003
 20
0.95701
 30
0.0
 10
-2.48651
 20
0.9417700000000001
 30
0.0
 10
-2.4992100000000002
 20
0.9290700000000001
 30
0.0
 10
-2.52461
 20
0.9290700000000001
 30
0.0
 10
-2.52461
 20
0.9290700000000001
 30
0.0
 10
-2.5423900000000001
 20
0.9290700000000001
 30
0.0
 10
-2.5398500000000004
 20
0.9417700000000001
 30
0.0
 10
-2.5398500000000004
 20
0.95701
 30
0.0
 10
-2.5398500000000004
 20
0.95701
 30
0.0
 10
-2.4407900000000002
 20
1.1195700000000002
 30
0.0
 10
-2.7049500000000002
 20
1.1348100000000001
 30
0.0
 10
-2.6439900000000001
 20
1.2999100000000001
 30
0.0
  0
SPLINE
  5
2D
100
AcDbEntity
  8
Ebene 1
100
AcDbSpline
210
0.0
220
0.0
230
1.0
 70
     1
 71
     3
 72
    32
 73
    28
 74
     0
 42
0.0000000001
 43
0.0000000001
 40
0.0
 40
0.0
 40
0.0
 40
0.0
 40
0.1428571428571429
 40
0.1428571428571429
 40
0.1428571428571429
 40
0.1428571428571429
 40
0.2857142857142857
 40
0.2857142857142857
 40
0.2857142857142857
 40
0.2857142857142857
 40
0.4285714285714286
 40
0.4285714285714286
 40
0.4285714285714286
 40
0.4285714285714286
 40
0.5714285714285714
 40
0.5714285714285714
 40
0.5714285714285714
 40
0.5714285714285714
 40
0.7142857142857142
 40
0.7142857142857142
 40
0.7142857142857142
 40
0.7142857142857142
 40
0.857142857142857
 40
0.857142857142857
 40
0.857142857142857
 40
0.857142857142857
 40
1.0
 40
1.0
 40
1.0
 40
1.0
 10
-0.09891
 20
1.15005
 30
0.0
 10
0.21604
 20
1.2541900000000001
 30
0.0
 10
0.4192400000000001
 20
0.9290700000000001
 30
0.0
 10
0.6707000000000001
 20
0.9722500000000001
 30
0.0
 10
0.6707000000000001
 20
0.9722500000000001
 30
0.0
 10
0.49036
 20
0.74873
 30
0.0
 10
0.15
 20
1.2262500000000001
 30
0.0
 10
0.06618
 20
0.95701
 30
0.0
 10
0.06618
 20
0.95701
 30
0.0
 10
0.3405
 20
0.7182500000000001
 30
0.0
 10
0.25922
 20
0.13913
 30
0.0
 10
0.63768
 20
0.05023
 30
0.0
 10
0.63768
 20
0.05023
 30
0.0
 10
-0.08875
 20
0.12389
 30
0.0
 10
-0.23607
 20
-0.9302
 30
0.0
 10
-0.9193300000000001
 20
-0.9429000000000001
 30
0.0
 10
-0.9193300000000001
 20
-0.9429000000000001
 30
0.0
 10
-1.1149100000000001
 20
-0.8540000000000001
 30
0.0
 10
-1.2825500000000001
 20
-0.7651000000000001
 30
0.0
 10
-1.4349500000000002
 20
-0.6025400000000001
 30
0.0
 10
-1.4349500000000002
 20
-0.6025400000000001
 30
0.0
 10
-1.4552700000000001
 20
-0.34854
 30
0.0
 10
-1.5340100000000001
 20
-0.10978
 30
0.0
 10
-1.6762500000000002
 20
0.06547
 30
0.0
 10
-1.6762500000000002
 20
0.06547
 30
0.0
 10
-1.08189
 20
0.22803
 30
0.0
 10
-0.8507500000000001
 20
1.2262500000000001
 30
0.0
 10
-0.09891
 20
1.15005
 30
0.0
  0
SPLINE
  5
2E
100
AcDbEntity
  8
Ebene 1
100
AcDbSpline
210
0.0
220
0.0
230
1.0
 70
     1
 71
     3
 72
    20
 73
    16
 74
     0
 42
0.0000000001
 43
0.0000000001
 40
0.0
 40
0.0
 40
0.0
 40
0.0
 40
0.25
 40
0.25
 40
0.25
 40
0.25
 40
0.5
 40
0.5
 40
0.5
 40
0.5
 40
0.75
 40
0.75
 40
0.75
 40
0.75
 40
1.0
 40
1.0
 40
1.0
 40
1.0
 10
-1.9886700000000002
 20
0.6903100000000001
 30
0.0
 10
-1.9708900000000003
 20
0.6903100000000001
 30
0.0
 10
-1.9581900000000001
 20
0.6903100000000001
 30
0.0
 10
-1.9480300000000002
 20
0.6750700000000001
 30
0.0
 10
-1.9480300000000002
 20
0.6750700000000001
 30
0.0
 10
-1.9505700000000001
 20
0.4515500000000001
 30
0.0
 10
-1.9683500000000003
 20
0.19755
 30
0.0
 10
-1.7651500000000002
 20
0.06547
 30
0.0
 10
-1.7651500000000002
 20
0.06547
 30
0.0
 10
-1.8870700000000002
 20
-0.0666
 30
0.0
 10
-1.8565900000000002
 20
-0.30536
 30
0.0
 10
-1.8997700000000002
 20
-0.48316
 30
0.0
 10
-1.8997700000000002
 20
-0.48316
 30
0.0
 10
-1.8997700000000002
 20
-0.08184
 30
0.0
 10
-2.0191500000000002
 20
0.28899
 30
0.0
 10
-1.9886700000000002
 20
0.6903100000000001
 30
0.0
  0
SPLINE
  5
2F
100
AcDbEntity
  8
Ebene 1
 62
     7
100
AcDbSpline
210
0.0
220
0.0
230
1.0
 70
     1
 71
     3
 72
    20
 73
    16
 74
     0
 42
0.0000000001
 43
0.0000000001
 40
0.0
 40
0.0
 40
0.0
 40
0.0
 40
0.25
 40
0.25
 40
0.25
 40
0.25
 40
0.5
 40
0.5
 40
0.5
 40
0.5
 40
0.75
 40
0.75
 40
0.75
 40
0.75
 40
1.0
 40
1.0
 40
1.0
 40
1.0
 10
-0.9777500000000001
 20
0.16961
 30
0.0
 10
-0.9777500000000001
 20
0.16961
 30
0.0
 10
-0.8126500000000001
 20
0.16961
 30
0.0
 10
-0.8126500000000001
 20
0.16961
 30
0.0
 10
-0.8126500000000001
 20
0.16961
 30
0.0
 10
-0.7974100000000001
 20
0.16961
 30
0.0
 10
-0.78217
 20
0.16961
 30
0.0
 10
-0.7720100000000001
 20
0.15437
 30
0.0
 10
-0.7720100000000001
 20
0.15437
 30
0.0
 10
-0.8405900000000001
 20
0.09341
 30
0.0
 10
-0.9701300000000001
 20
0.03499
 30
0.0
 10
-1.03617
 20
0.12389
 30
0.0
 10
-1.03617
 20
0.12389
 30
0.0
 10
-1.03617
 20
0.12389
 30
0.0
 10
-0.9777500000000001
 20
0.16961
 30
0.0
 10
-0.9777500000000001
 20
0.16961
 30
0.0
  0
SPLINE
  5
30
100
AcDbEntity
  8
Ebene 1
 62
     7
100
AcDbSpline
210
0.0
220
0.0
230
1.0
 70
     1
 71
     3
 72
    24
 73
    20
 74
     0
 42
0.0000000001
 43
0.0000000001
 40
0.0
 40
0.0
 40
0.0
 40
0.0
 40
0.2
 40
0.2
 40
0.2
 40
0.2
 40
0.4
 40
0.4
 40
0.4
 40
0.4
 40
0.6000000000000001
 40
0.6000000000000001
 40
0.6000000000000001
 40
0.6000000000000001
 40
0.8
 40
0.8
 40
0.8
 40
0.8
 40
1.0
 40
1.0
 40
1.0
 40
1.0
 10
-3.1646900000000002
 20
-0.45268
 30
0.0
 10
-3.1443700000000003
 20
-0.5873
 30
0.0
 10
-3.0275300000000001
 20
-0.7524000000000001
 30
0.0
 10
-2.8548100000000001
 20
-0.72192
 30
0.0
 10
-2.8548100000000001
 20
-0.72192
 30
0.0
 10
-2.8624300000000003
 20
-0.9886200000000001
 30
0.0
 10
-2.8852900000000004
 20
-1.2578600000000002
 30
0.0
 10
-2.9437100000000003
 20
-1.5093200000000002
 30
0.0
 10
-2.9437100000000003
 20
-1.5093200000000002
 30
0.0
 10
-2.9437100000000003
 20
-1.5093200000000002
 30
0.0
 10
-3.0300700000000003
 20
-1.3899400000000002
 30
0.0
 10
-3.0300700000000003
 20
-1.3899400000000002
 30
0.0
 10
-3.0300700000000003
 20
-1.3899400000000002
 30
0.0
 10
-2.9056100000000002
 20
-1.07752
 30
0.0
 10
-3.3043900000000002
 20
-0.8692400000000001
 30
0.0
 10
-3.1494500000000003
 20
-0.57206
 30
0.0
 10
-3.1494500000000003
 20
-0.57206
 30
0.0
 10
-3.1697700000000002
 20
-0.52634
 30
0.0
 10
-3.1850100000000001
 20
-0.4984000000000001
 30
0.0
 10
-3.1646900000000002
 20
-0.45268
 30
0.0
  0
SPLINE
  5
31
100
AcDbEntity
  8
Ebene 1
 62
     7
100
AcDbSpline
210
0.0
220
0.0
230
1.0
 70
     1
 71
     3
 72
    24
 73
    20
 74
     0
 42
0.0000000001
 43
0.0000000001
 40
0.0
 40
0.0
 40
0.0
 40
0.0
 40
0.2
 40
0.2
 40
0.2
 40
0.2
 40
0.4
 40
0.4
 40
0.4
 40
0.4
 40
0.6000000000000001
 40
0.6000000000000001
 40
0.6000000000000001
 40
0.6000000000000001
 40
0.8
 40
0.8
 40
0.8
 40
0.8
 40
1.0
 40
1.0
 40
1.0
 40
1.0
 10
-1.9454900000000002
 20
-2.0909800000000001
 30
0.0
 10
-1.6686300000000001
 20
-2.6421600000000001
 30
0.0
 10
-1.8184900000000002
 20
-3.4295600000000004
 30
0.0
 10
-2.2426700000000004
 20
-3.9197800000000003
 30
0.0
 10
-2.2426700000000004
 20
-3.9197800000000003
 30
0.0
 10
-2.3722100000000004
 20
-3.8308800000000005
 30
0.0
 10
-2.6262100000000004
 20
-3.4295600000000004
 30
0.0
 10
-2.3036300000000001
 20
-3.4575000000000005
 30
0.0
 10
-2.3036300000000001
 20
-3.4575000000000005
 30
0.0
 10
-2.3036300000000001
 20
-3.4575000000000005
 30
0.0
 10
-2.22743
 20
-3.3686000000000003
 30
0.0
 10
-2.22743
 20
-3.3686000000000003
 30
0.0
 10
-2.22743
 20
-3.3686000000000003
 30
0.0
 10
-2.3264900000000002
 20
-3.1171400000000005
 30
0.0
 10
-2.1664700000000003
 20
-2.9368000000000003
 30
0.0
 10
-1.9886700000000002
 20
-2.7894800000000002
 30
0.0
 10
-1.9886700000000002
 20
-2.7894800000000002
 30
0.0
 10
-2.1105900000000002
 20
-2.56596
 30
0.0
 10
-2.0318500000000004
 20
-2.31196
 30
0.0
 10
-1.9454900000000002
 20
-2.0909800000000001
 30
0.0
  0
SPLINE
  5
32
100
AcDbEntity
  8
Ebene 1
 62
     7
100
AcDbSpline
210
0.0
220
0.0
230
1.0
 70
     1
 71
     3
 72
    16
 73
    12
 74
     0
 42
0.0000000001
 43
0.0000000001
 40
0.0
 40
0.0
 40
0.0
 40
0.0
 40
0.3333333333333333
 40
0.3333333333333333
 40
0.3333333333333333
 40
0.3333333333333333
 40
0.6666666666666666
 40
0.6666666666666666
 40
0.6666666666666666
 40
0.6666666666666666
 40
1.0
 40
1.0
 40
1.0
 40
1.0
 10
-0.9777500000000001
 20
-3.3101800000000003
 30
0.0
 10
-0.9142500000000001
 20
-3.3990800000000001
 30
0.0
 10
-0.7694700000000001
 20
-3.5337000000000005
 30
0.0
 10
-0.8609100000000001
 20
-3.6378400000000002
 30
0.0
 10
-0.8609100000000001
 20
-3.6378400000000002
 30
0.0
 10
-0.95235
 20
-3.6530800000000001
 30
0.0
 10
-1.0310900000000001
 20
-3.5921200000000004
 30
0.0
 10
-1.08189
 20
-3.5184600000000001
 30
0.0
 10
-1.08189
 20
-3.5184600000000001
 30
0.0
 10
-1.0641100000000001
 20
-3.4448000000000003
 30
0.0
 10
-1.0133100000000002
 20
-3.3838400000000002
 30
0.0
 10
-0.9777500000000001
 20
-3.3101800000000003
 30
0.0
  0
SPLINE
  5
33
100
AcDbEntity
  8
Ebene 1
 62
     7
100
AcDbSpline
210
0.0
220
0.0
230
1.0
 70
     1
 71
     3
 72
    12
 73
     8
 74
     0
 42
0.0000000001
 43
0.0000000001
 40
0.0
 40
0.0
 40
0.0
 40
0.0
 40
0.5
 40
0.5
 40
0.5
 40
0.5
 40
1.0
 40
1.0
 40
1.0
 40
1.0
 10
-1.1403100000000002
 20
-3.5794200000000003
 30
0.0
 10
-0.9802900000000001
 20
-3.7699200000000004
 30
0.0
 10
-0.8304300000000001
 20
-4.0544000000000002
 30
0.0
 10
-0.8304300000000001
 20
-4.30586
 30
0.0
 10
-0.8304300000000001
 20
-4.30586
 30
0.0
 10
-0.97267
 20
-4.0848800000000001
 30
0.0
 10
-1.1784100000000002
 20
-3.8461200000000004
 30
0.0
 10
-1.1403100000000002
 20
-3.5794200000000003
 30
0.0
  0
SPLINE
  5
34
100
AcDbEntity
  8
Ebene 1
 62
     7
100
AcDbSpline
210
0.0
220
0.0
230
1.0
 70
     1
 71
     3
 72
    16
 73
    12
 74
     0
 42
0.0000000001
 43
0.0000000001
 40
0.0
 40
0.0
 40
0.0
 40
0.0
 40
0.3333333333333333
 40
0.3333333333333333
 40
0.3333333333333333
 40
0.3333333333333333
 40
0.6666666666666666
 40
0.6666666666666666
 40
0.6666666666666666
 40
0.6666666666666666
 40
1.0
 40
1.0
 40
1.0
 40
1.0
 10
-1.33589
 20
-4.0975800000000007
 30
0.0
 10
-1.12761
 20
-4.1864800000000004
 30
0.0
 10
-0.93203
 20
-4.4709600000000007
 30
0.0
 10
-0.94981
 20
-4.6944800000000004
 30
0.0
 10
-0.94981
 20
-4.6944800000000004
 30
0.0
 10
-0.94981
 20
-4.6944800000000004
 30
0.0
 10
-0.9879100000000001
 20
-4.6944800000000004
 30
0.0
 10
-0.9879100000000001
 20
-4.6944800000000004
 30
0.0
 10
-0.9879100000000001
 20
-4.6944800000000004
 30
0.0
 10
-1.0920500000000002
 20
-4.4862000000000002
 30
0.0
 10
-1.3562100000000001
 20
-4.3363400000000007
 30
0.0
 10
-1.33589
 20
-4.0975800000000007
 30
0.0
  0
SPLINE
  5
35
100
AcDbEntity
  8
Ebene 1
 62
     7
100
AcDbSpline
210
0.0
220
0.0
230
1.0
 70
     1
 71
     3
 72
    16
 73
    12
 74
     0
 42
0.0000000001
 43
0.0000000001
 40
0.0
 40
0.0
 40
0.0
 40
0.0
 40
0.3333333333333333
 40
0.3333333333333333
 40
0.3333333333333333
 40
0.3333333333333333
 40
0.6666666666666666
 40
0.6666666666666666
 40
0.6666666666666666
 40
0.6666666666666666
 40
1.0
 40
1.0
 40
1.0
 40
1.0
 10
-1.58735
 20
-4.4100000000000001
 30
0.0
 10
-1.4019300000000001
 20
-4.6055800000000007
 30
0.0
 10
-1.1961900000000001
 20
-4.7960800000000008
 30
0.0
 10
-1.08443
 20
-5.0500800000000003
 30
0.0
 10
-1.08443
 20
-5.0500800000000003
 30
0.0
 10
-1.41717
 20
-5.2736000000000001
 30
0.0
 10
-1.4349500000000002
 20
-4.7224200000000005
 30
0.0
 10
-1.6178300000000001
 20
-4.5598600000000005
 30
0.0
 10
-1.6178300000000001
 20
-4.5598600000000005
 30
0.0
 10
-1.6178300000000001
 20
-4.5598600000000005
 30
0.0
 10
-1.58735
 20
-4.4100000000000001
 30
0.0
 10
-1.58735
 20
-4.4100000000000001
 30
0.0
  0
SPLINE
  5
36
100
AcDbEntity
  8
Ebene 1
 62
     7
100
AcDbSpline
210
0.0
220
0.0
230
1.0
 70
     1
 71
     3
 72
     8
 73
     4
 74
     0
 42
0.0000000001
 43
0.0000000001
 40
0.0
 40
0.0
 40
0.0
 40
0.0
 40
1.0
 40
1.0
 40
1.0
 40
1.0
 10
-2.2731500000000002
 20
-4.5750999999999999
 30
0.0
 10
-2.27061
 20
-4.6055800000000007
 30
0.0
 10
-2.3010900000000003
 20
-4.5750999999999999
 30
0.0
 10
-2.2731500000000002
 20
-4.5750999999999999
 30
0.0
  0
SPLINE
  5
37
100
AcDbEntity
  8
Ebene 1
 62
     7
100
AcDbSpline
210
0.0
220
0.0
230
1.0
 70
     1
 71
     3
 72
    16
 73
    12
 74
     0
 42
0.0000000001
 43
0.0000000001
 40
0.0
 40
0.0
 40
0.0
 40
0.0
 40
0.3333333333333333
 40
0.3333333333333333
 40
0.3333333333333333
 40
0.3333333333333333
 40
0.6666666666666666
 40
0.6666666666666666
 40
0.6666666666666666
 40
0.6666666666666666
 40
1.0
 40
1.0
 40
1.0
 40
1.0
 10
-2.9995900000000004
 20
-4.8265600000000006
 30
0.0
 10
-2.9691100000000001
 20
-4.8418000000000001
 30
0.0
 10
-2.9411700000000001
 20
-4.8570400000000005
 30
0.0
 10
-2.9284700000000004
 20
-4.8875200000000003
 30
0.0
 10
-2.9284700000000004
 20
-4.8875200000000003
 30
0.0
 10
-2.9741900000000001
 20
-5.0653200000000007
 30
0.0
 10
-2.8903700000000003
 20
-5.3040800000000008
 30
0.0
 10
-2.9818100000000003
 20
-5.4666400000000008
 30
0.0
 10
-2.9818100000000003
 20
-5.4666400000000008
 30
0.0
 10
-3.0122900000000001
 20
-5.2583600000000006
 30
0.0
 10
-3.0351500000000002
 20
-5.0373800000000006
 30
0.0
 10
-2.9995900000000004
 20
-4.8265600000000006
 30
0.0
  0
SPLINE
  5
38
100
AcDbEntity
  8
Ebene 1
 62
     7
100
AcDbSpline
210
0.0
220
0.0
230
1.0
 70
     1
 71
     3
 72
    20
 73
    16
 74
     0
 42
0.0000000001
 43
0.0000000001
 40
0.0
 40
0.0
 40
0.0
 40
0.0
 40
0.25
 40
0.25
 40
0.25
 40
0.25
 40
0.5
 40
0.5
 40
0.5
 40
0.5
 40
0.75
 40
0.75
 40
0.75
 40
0.75
 40
1.0
 40
1.0
 40
1.0
 40
1.0
 10
-2.8370300000000004
 20
-4.9180000000000001
 30
0.0
 10
-2.6871700000000001
 20
-5.2736000000000001
 30
0.0
 10
-2.8344900000000002
 20
-5.7206400000000004
 30
0.0
 10
-2.7176500000000003
 20
-6.1067200000000001
 30
0.0
 10
-2.7176500000000003
 20
-6.1067200000000001
 30
0.0
 10
-2.7176500000000003
 20
-6.1067200000000001
 30
0.0
 10
-2.7506700000000004
 20
-6.1524400000000004
 30
0.0
 10
-2.7506700000000004
 20
-6.1524400000000004
 30
0.0
 10
-2.7506700000000004
 20
-6.1524400000000004
 30
0.0
 10
-2.7506700000000004
 20
-6.1524400000000004
 30
0.0
 10
-2.8090900000000003
 20
-6.0635400000000006
 30
0.0
 10
-2.8090900000000003
 20
-6.0635400000000006
 30
0.0
 10
-2.8090900000000003
 20
-6.0635400000000006
 30
0.0
 10
-2.8395700000000001
 20
-5.6901600000000006
 30
0.0
 10
-2.9106900000000002
 20
-5.2888400000000004
 30
0.0
 10
-2.8370300000000004
 20
-4.9180000000000001
 30
0.0
  0
SPLINE
  5
39
100
AcDbEntity
  8
Ebene 1
 62
     7
100
AcDbSpline
210
0.0
220
0.0
230
1.0
 70
     1
 71
     3
 72
    16
 73
    12
 74
     0
 42
0.0000000001
 43
0.0000000001
 40
0.0
 40
0.0
 40
0.0
 40
0.0
 40
0.3333333333333333
 40
0.3333333333333333
 40
0.3333333333333333
 40
0.3333333333333333
 40
0.6666666666666666
 40
0.6666666666666666
 40
0.6666666666666666
 40
0.6666666666666666
 40
1.0
 40
1.0
 40
1.0
 40
1.0
 10
-2.0775700000000001
 20
-4.9611800000000006
 30
0.0
 10
-1.9073900000000001
 20
-5.2431200000000002
 30
0.0
 10
-1.8337300000000001
 20
-5.5860200000000004
 30
0.0
 10
-1.7829300000000001
 20
-5.9136800000000003
 30
0.0
 10
-1.7829300000000001
 20
-5.9136800000000003
 30
0.0
 10
-1.7829300000000001
 20
-5.9136800000000003
 30
0.0
 10
-2.0293100000000002
 20
-6.0025800000000009
 30
0.0
 10
-2.0293100000000002
 20
-6.0025800000000009
 30
0.0
 10
-2.0293100000000002
 20
-6.0025800000000009
 30
0.0
 10
-2.09789
 20
-5.6596800000000007
 30
0.0
 10
-2.2045700000000004
 20
-5.3040800000000008
 30
0.0
 10
-2.0775700000000001
 20
-4.9611800000000006
 30
0.0
  0
SPLINE
  5
3A
100
AcDbEntity
  8
Ebene 1
 62
     7
100
AcDbSpline
210
0.0
220
0.0
230
1.0
 70
     1
 71
     3
 72
    20
 73
    16
 74
     0
 42
0.0000000001
 43
0.0000000001
 40
0.0
 40
0.0
 40
0.0
 40
0.0
 40
0.25
 40
0.25
 40
0.25
 40
0.25
 40
0.5
 40
0.5
 40
0.5
 40
0.5
 40
0.75
 40
0.75
 40
0.75
 40
0.75
 40
1.0
 40
1.0
 40
1.0
 40
1.0
 10
-2.6439900000000001
 20
-5.1389800000000001
 30
0.0
 10
-2.6439900000000001
 20
-5.1389800000000001
 30
0.0
 10
-2.5982700000000003
 20
-5.2278800000000007
 30
0.0
 10
-2.5982700000000003
 20
-5.2278800000000007
 30
0.0
 10
-2.5982700000000003
 20
-5.2278800000000007
 30
0.0
 10
-2.61097
 20
-5.6901600000000006
 30
0.0
 10
-2.4687300000000003
 20
-6.1372000000000009
 30
0.0
 10
-2.4661900000000001
 20
-6.5690000000000008
 30
0.0
 10
-2.4661900000000001
 20
-6.5690000000000008
 30
0.0
 10
-2.48651
 20
-6.5690000000000008
 30
0.0
 10
-2.5068300000000003
 20
-6.5690000000000008
 30
0.0
 10
-2.51953
 20
-6.5537600000000005
 30
0.0
 10
-2.51953
 20
-6.5537600000000005
 30
0.0
 10
-2.6516100000000002
 20
-6.1067200000000001
 30
0.0
 10
-2.7405100000000004
 20
-5.6012600000000008
 30
0.0
 10
-2.6439900000000001
 20
-5.1389800000000001
 30
0.0
  0
SPLINE
  5
3B
100
AcDbEntity
  8
Ebene 1
 62
     7
100
AcDbSpline
210
0.0
220
0.0
230
1.0
 70
     1
 71
     3
 72
    20
 73
    16
 74
     0
 42
0.0000000001
 43
0.0000000001
 40
0.0
 40
0.0
 40
0.0
 40
0.0
 40
0.25
 40
0.25
 40
0.25
 40
0.25
 40
0.5
 40
0.5
 40
0.5
 40
0.5
 40
0.75
 40
0.75
 40
0.75
 40
0.75
 40
1.0
 40
1.0
 40
1.0
 40
1.0
 10
-2.4661900000000001
 20
-5.1999400000000007
 30
0.0
 10
-2.2071100000000001
 20
-5.5123600000000001
 30
0.0
 10
-2.0902700000000003
 20
-5.9746400000000008
 30
0.0
 10
-2.0953500000000003
 20
-6.3912000000000004
 30
0.0
 10
-2.0953500000000003
 20
-6.3912000000000004
 30
0.0
 10
-2.0953500000000003
 20
-6.3912000000000004
 30
0.0
 10
-2.3315700000000001
 20
-6.5232800000000006
 30
0.0
 10
-2.3315700000000001
 20
-6.5232800000000006
 30
0.0
 10
-2.3315700000000001
 20
-6.5232800000000006
 30
0.0
 10
-2.3315700000000001
 20
-6.5232800000000006
 30
0.0
 10
-2.5398500000000004
 20
-5.3193200000000003
 30
0.0
 10
-2.5398500000000004
 20
-5.3193200000000003
 30
0.0
 10
-2.5398500000000004
 20
-5.3193200000000003
 30
0.0
 10
-2.5398500000000004
 20
-5.3193200000000003
 30
0.0
 10
-2.4661900000000001
 20
-5.1999400000000007
 30
0.0
 10
-2.4661900000000001
 20
-5.1999400000000007
 30
0.0
  0
ENDSEC
  0
SECTION
  2
OBJECTS
  0
DICTIONARY
  5
19
100
AcDbDictionary
280
     0
281
     1
  3
ACAD_GROUP
350
1A
  3
ACAD_MLINESTYLE
350
1B
  3
ACAD_LAYOUT
350
1E
  3
ACAD_PLOTSETTINGS
350
22
  3
ACAD_PLOTSTYLENAME
350
1F
  3
ACAD_WIPEOUT_VARS
350
23
  0
DICTIONARY
  5
1A
102
{ACAD_REACTORS
330
19
102
}
100
AcDbDictionary
280
     0
281
     1
  0
DICTIONARY
  5
1B
102
{ACAD_REACTORS
330
19
102
}
100
AcDbDictionary
280
     0
281
     1
  3
Standard
350
1C
  0
MLINESTYLE
  5
1C
102
{ACAD_REACTORS
330
1B
102
}
100
AcDbMlineStyle
  2
Standard
 70
     0
  3

 62
     0
 51
90.0
 52
90.0
 71
     2
 49
0.5
 62
   256
  6
BYLAYER
 49
-0.5
 62
   256
  6
BYLAYER
  0
ACDBDICTIONARYWDFLT
  5
1F
102
{ACAD_REACTORS
330
19
102
}
100
AcDbDictionary
281
     1
  3
Normal
350
1D
100
AcDbDictionaryWithDefault
340
1D
  0
ACDBPLACEHOLDER
  5
1D
102
{ACAD_REACTORS
330
1F
102
}
  0
LAYOUT
  5
20
102
{ACAD_REACTORS
330
1E
102
}
100
AcDbPlotSettings
  1

  2

  4

  6

 40
0.0
 41
0.0
 42
0.0
 43
0.0
 44
0.0
 45
0.0
 46
0.0
 47
0.0
 48
0.0
 49
0.0
140
0.0
141
0.0
142
1.0
143
1.0
 70
  1024
 72
     0
 73
     0
 74
     0
  7

 75
     0
147
1.0
148
0.0
149
0.0
100
AcDbLayout
  1
Model
 70
     0
 71
     0
 10
0.0
 20
0.0
 11
0.0
 21
0.0
 12
0.0
 22
0.0
 32
0.0
 14
0.0
 24
0.0
 34
0.0
 15
0.0
 25
0.0
 35
0.0
146
0.0
 13
0.0
 23
0.0
 33
0.0
 16
0.0
 26
0.0
 36
0.0
 17
0.0
 27
0.0
 37
0.0
 76
     0
330
A
331
0
345
0
346
0
  0
LAYOUT
  5
21
102
{ACAD_REACTORS
330
1E
102
}
100
AcDbPlotSettings
  1

  2

  4

  6

 40
0.0
 41
0.0
 42
0.0
 43
0.0
 44
0.0
 45
0.0
 46
0.0
 47
0.0
 48
0.0
 49
0.0
140
0.0
141
0.0
142
1.0
143
1.0
 70
     0
 72
     0
 73
     0
 74
     0
  7

 75
     0
147
1.0
148
0.0
149
0.0
100
AcDbLayout
  1
Layout1
 70
     0
 71
     0
 10
0.0
 20
0.0
 11
0.0
 21
0.0
 12
0.0
 22
0.0
 32
0.0
 14
0.0
 24
0.0
 34
0.0
 15
0.0
 25
0.0
 35
0.0
146
0.0
 13
0.0
 23
0.0
 33
0.0
 16
0.0
 26
0.0
 36
0.0
 17
0.0
 27
0.0
 37
0.0
 76
     0
330
B
331
0
345
0
346
0
  0
DICTIONARY
  5
1E
102
{ACAD_REACTORS
330
19
102
}
100
AcDbDictionary
280
     0
281
     1
  3
Layout1
350
21
  3
Model
350
20
  0
DICTIONARY
  5
22
102
{ACAD_REACTORS
330
19
102
}
100
AcDbDictionary
280
     0
281
     1
  0
WIPEOUTVARIABLES
  5
23
100
AcDbWipeoutVariables
 70
     1
  0
ENDSEC
  0
EOF
