  0
SECTION
  2
HEADER
  9
$ACADVER
  1
AC1015
  9
$ACADMAINTVER
 70
     6
  9
$DWGCODEPAGE
  3
DOS850
  9
$INSBASE
 10
0.0
 20
0.0
 30
0.0
  9
$EXTMIN
 10
-6.08382
 20
-6.4039
 30
1.000000E+20
  9
$EXTMAX
 10
6.088
 20
6.39769
 30
-1.000000E+20
  9
$LIMMIN
 10
0.0
 20
0.0
  9
$LIMMAX
 10
0.0
 20
0.0
  9
$ORTHOMODE
 70
     0
  9
$REGENMODE
 70
     1
  9
$FILLMODE
 70
     1
  9
$QTEXTMODE
 70
     0
  9
$MIRRTEXT
 70
     1
  9
$LTSCALE
 40
1.0
  9
$ATTMODE
 70
     1
  9
$TEXTSIZE
 40
0.2
  9
$TRACEWID
 40
0.05
  9
$TEXTSTYLE
  7
Standard
  9
$CLAYER
  8
0
  9
$CELTYPE
  6
Continuous
  9
$CECOLOR
 62
   256
  9
$CELTSCALE
 40
1.0
  9
$DISPSILH
 70
     0
  9
$DIMSCALE
 40
1.0
  9
$DIMASZ
 40
0.18
  9
$DIMEXO
 40
0.0625
  9
$DIMDLI
 40
0.38
  9
$DIMRND
 40
0.0
  9
$DIMDLE
 40
0.0
  9
$DIMEXE
 40
0.18
  9
$DIMTP
 40
0.0
  9
$DIMTM
 40
0.0
  9
$DIMTXT
 40
0.18
  9
$DIMCEN
 40
0.09
  9
$DIMTSZ
 40
0.0
  9
$DIMTOL
 70
     0
  9
$DIMLIM
 70
     0
  9
$DIMTIH
 70
     1
  9
$DIMTOH
 70
     1
  9
$DIMSE1
 70
     0
  9
$DIMSE2
 70
     0
  9
$DIMTAD
 70
     0
  9
$DIMZIN
 70
     0
  9
$DIMBLK
  1

  9
$DIMASO
 70
     1
  9
$DIMSHO
 70
     1
  9
$DIMPOST
  1

  9
$DIMAPOST
  1

  9
$DIMALT
 70
     0
  9
$DIMALTD
 70
     2
  9
$DIMALTF
 40
25.4
  9
$DIMLFAC
 40
1.0
  9
$DIMTOFL
 70
     0
  9
$DIMTVP
 40
0.0
  9
$DIMTIX
 70
     0
  9
$DIMSOXD
 70
     0
  9
$DIMSAH
 70
     0
  9
$DIMBLK1
  1

  9
$DIMBLK2
  1

  9
$DIMSTYLE
  2
Standard
  9
$DIMCLRD
 70
     0
  9
$DIMCLRE
 70
     0
  9
$DIMCLRT
 70
     0
  9
$DIMTFAC
 40
1.0
  9
$DIMGAP
 40
0.09
  9
$DIMJUST
 70
     0
  9
$DIMSD1
 70
     0
  9
$DIMSD2
 70
     0
  9
$DIMTOLJ
 70
     1
  9
$DIMTZIN
 70
     0
  9
$DIMALTZ
 70
     0
  9
$DIMALTTZ
 70
     0
  9
$DIMUPT
 70
     0
  9
$DIMDEC
 70
     4
  9
$DIMTDEC
 70
     4
  9
$DIMALTU
 70
     2
  9
$DIMALTTD
 70
     2
  9
$DIMTXSTY
  7
Standard
  9
$DIMAUNIT
 70
     0
  9
$DIMADEC
 70
     0
  9
$DIMALTRND
 40
0.0
  9
$DIMAZIN
 70
     0
  9
$DIMDSEP
 70
     0
  9
$DIMATFIT
 70
     3
  9
$DIMFRAC
 70
     0
  9
$DIMLDRBLK
  1

  9
$DIMLUNIT
 70
     2
  9
$DIMLWD
 70
     0
  9
$DIMLWE
 70
     0
  9
$DIMTMOVE
 70
     0
  9
$LUNITS
 70
     2
  9
$LUPREC
 70
     4
  9
$SKETCHINC
 40
0.1
  9
$FILLETRAD
 40
0.0
  9
$AUNITS
 70
     0
  9
$AUPREC
 70
     0
  9
$MENU
  1
acad
  9
$ELEVATION
 40
0.0
  9
$PELEVATION
 40
0.0
  9
$THICKNESS
 40
0.0
  9
$LIMCHECK
 70
     0
  9
$CHAMFERA
 40
0.0
  9
$CHAMFERB
 40
0.0
  9
$CHAMFERC
 40
0.0
  9
$CHAMFERD
 40
0.0
  9
$SKPOLY
 70
     0
  9
$TDCREATE
 40
0.000000000
  9
$TDUCREATE
 40
0.000000000
  9
$TDUPDATE
 40
0.000000000
  9
$TDUUPDATE
 40
0.000000000
  9
$TDINDWG
 40
0.0000000000
  9
$TDUSRTIMER
 40
0.0000000000
  9
$USRTIMER
 70
     1
  9
$ANGBASE
 50
0.0
  9
$ANGDIR
 70
     0
  9
$PDMODE
 70
     0
  9
$PDSIZE
 40
0.0
  9
$PLINEWID
 40
0.0
  9
$SPLFRAME
 70
     0
  9
$SPLINETYPE
 70
     6
  9
$SPLINESEGS
 70
     8
  9
$HANDSEED
  5
3F
  9
$SURFTAB1
 70
     6
  9
$SURFTAB2
 70
     6
  9
$SURFTYPE
 70
     6
  9
$SURFU
 70
     6
  9
$SURFV
 70
     6
  9
$UCSBASE
  2

  9
$UCSNAME
  2

  9
$UCSORG
 10
0.0
 20
0.0
 30
0.0
  9
$UCSXDIR
 10
1.0
 20
0.0
 30
0.0
  9
$UCSYDIR
 10
0.0
 20
1.0
 30
0.0
  9
$UCSORTHOREF
  2

  9
$UCSORTHOVIEW
 70
     0
  9
$UCSORGTOP
 10
0.0
 20
0.0
 30
0.0
  9
$UCSORGBOTTOM
 10
0.0
 20
0.0
 30
0.0
  9
$UCSORGLEFT
 10
0.0
 20
0.0
 30
0.0
  9
$UCSORGRIGHT
 10
0.0
 20
0.0
 30
0.0
  9
$UCSORGFRONT
 10
0.0
 20
0.0
 30
0.0
  9
$UCSORGBACK
 10
0.0
 20
0.0
 30
0.0
  9
$PUCSBASE
  2

  9
$PUCSNAME
  2

  9
$PUCSORG
 10
0.0
 20
0.0
 30
0.0
  9
$PUCSXDIR
 10
1.0
 20
0.0
 30
0.0
  9
$PUCSYDIR
 10
0.0
 20
1.0
 30
0.0
  9
$PUCSORTHOREF
  2

  9
$PUCSORTHOVIEW
 70
     0
  9
$PUCSORGTOP
 10
0.0
 20
0.0
 30
0.0
  9
$PUCSORGBOTTOM
 10
0.0
 20
0.0
 30
0.0
  9
$PUCSORGLEFT
 10
0.0
 20
0.0
 30
0.0
  9
$PUCSORGRIGHT
 10
0.0
 20
0.0
 30
0.0
  9
$PUCSORGFRONT
 10
0.0
 20
0.0
 30
0.0
  9
$PUCSORGBACK
 10
0.0
 20
0.0
 30
0.0
  9
$USERI1
 70
     0
  9
$USERI2
 70
     0
  9
$USERI3
 70
     0
  9
$USERI4
 70
     0
  9
$USERI5
 70
     0
  9
$USERR1
 40
0.0
  9
$USERR2
 40
0.0
  9
$USERR3
 40
0.0
  9
$USERR4
 40
0.0
  9
$USERR5
 40
0.0
  9
$WORLDVIEW
 70
     1
  9
$SHADEDGE
 70
     3
  9
$SHADEDIF
 70
    70
  9
$TILEMODE
 70
     1
  9
$MAXACTVP
 70
    16
  9
$PINSBASE
 10
0.0
 20
0.0
 30
0.0
  9
$PLIMCHECK
 70
     0
  9
$PEXTMIN
 10
1.000000E+20
 20
1.000000E+20
 30
1.000000E+20
  9
$PEXTMAX
 10
-1.000000E+20
 20
-1.000000E+20
 30
-1.000000E+20
  9
$PLIMMIN
 10
0.0
 20
0.0
  9
$PLIMMAX
 10
12.0
 20
9.0
  9
$UNITMODE
 70
     0
  9
$VISRETAIN
 70
     0
  9
$PLINEGEN
 70
     1
  9
$PSLTSCALE
 70
     0
  9
$TREEDEPTH
 70
  3020
  9
$CMLSTYLE
  2
Standard
  9
$CMLJUST
 70
     0
  9
$CMLSCALE
 40
1.0
  9
$PROXYGRAPHICS
 70
     0
  9
$MEASUREMENT
 70
     0
  9
$CELWEIGHT
370
     0
  9
$ENDCAPS
280
     0
  9
$JOINSTYLE
280
     0
  9
$LWDISPLAY
290
     0
  9
$INSUNITS
 70
     5
  9
$HYPERLINKBASE
  1

  9
$XEDIT
290
     1
  9
$CEPSNTYPE
380
     0
  9
$PSTYLEMODE
290
     1
  9
$FINGERPRINTGUID
  2

  9
$VERSIONGUID
  2

  9
$EXTNAMES
290
     1
  9
$PSVPSCALE
 40
0.0
  0
ENDSEC
  0
SECTION
  2
CLASSES
  0
CLASS
  1
LWPOLYLINE
  2
AcDbPolyline
  3
AutoCAD 2000
 90
    32768
280
     0
281
     1
  0
CLASS
  1
IMAGE
  2
AcDbRasterImage
  3
ISM
 90
    32895
280
     0
281
     1
  0
CLASS
  1
OLE2FRAME
  2
AcDbOle2Frame
  3
AutoCAD 2000
 90
    32768
280
     0
281
     1
  0
CLASS
  1
HATCH
  2
AcDbHatch
  3
AutoCAD 2000
 90
    32768
280
     0
281
     1
  0
CLASS
  1
DICTIONARYVAR
  2
AcDbDictionaryVar
  3
AutoCAD 2000
 90
    32768
280
     0
281
     0
  0
CLASS
  1
RASTERVARIABLES
  2
AcDbRasterVariables
  3
ISM
 90
    32768
280
     0
281
     0
  0
CLASS
  1
IMAGEDEF
  2
AcDbRasterImageDef
  3
ISM
 90
    32768
280
     0
281
     0
  0
CLASS
  1
IMAGEDEF_REACTOR
  2
AcDbRasterImageDefReactor
  3
ISM
 90
    32769
280
     0
281
     0
  0
CLASS
  1
IDBUFFER
  2
AcDbIdBuffer
  3
AutoCAD 2000
 90
    32768
280
     0
281
     0
  0
CLASS
  1
SPATIAL_FILTER
  2
AcDbSpatialFilter
  3
AutoCAD 2000
 90
    32768
280
     0
281
     0
  0
CLASS
  1
XRECORD
  2
AcDbXrecord
  3
AutoCAD 2000
 90
    32768
280
     0
281
     0
  0
CLASS
  1
SORTENTSTABLE
  2
AcDbSortentsTable
  3
AutoCAD 2000
 90
    32768
280
     0
281
     0
  0
CLASS
  1
LAYER_INDEX
  2
AcDbLayerIndex
  3
AutoCAD 2000
 90
    32768
280
     0
281
     0
  0
CLASS
  1
SPATIAL_INDEX
  2
AcDbSpatialIndex
  3
AutoCAD 2000
 90
    32768
280
     0
281
     0
  0
CLASS
  1
OBJECT_PTR
  2
CAseDLPNTableRecord
  3
"ASE-LPNTableRecord"
 90
    32769
280
     0
281
     0
  0
CLASS
  1
LAYOUT
  2
AcDbLayout
  3
AutoCAD 2000
 90
        0
280
     0
281
     0
  0
CLASS
  1
PLOTSETTINGS
  2
AcDbPlotSettings
  3
AutoCAD 2000
 90
    32768
280
     0
281
     0
  0
CLASS
  1
ACDBDICTIONARYWDFLT
  2
AcDbDictionaryWithDefault
  3
AutoCAD 2000
 90
        0
280
     0
281
     0
  0
CLASS
  1
ACDBPLACEHOLDER
  2
AcDbPlaceHolder
  3
AutoCAD 2000
 90
        0
280
     0
281
     0
  0
CLASS
  1
VBA_PROJECT
  2
AcDbVbaProject
  3
acadvba
 90
    32768
280
     0
281
     0
  0
CLASS
  1
WIPEOUT
  2
AcDbWipeout
  3
WipeOut|AutoCAD Express Tool|expresstools@autodesk.com
 90
    32895
280
     0
281
     1
  0
CLASS
  1
WIPEOUTVARIABLES
  2
AcDbWipeoutVariables
  3
WipeOut|AutoCAD Express Tool|expresstools@autodesk.com
 90
        0
280
     0
281
     0
  0
CLASS
  1
RTEXT
  2
RText
  3
RText|AutoCAD Express Tool|expresstools@autodesk.com
 90
    32768
280
     0
281
     1
  0
CLASS
  1
ARCALIGNEDTEXT
  2
AcDbArcAlignedText
  3
ATEXT|AutoCAD Express Tool|expresstools@autodesk.com
 90
    32768
280
     0
281
     1
  0
ENDSEC
  0
SECTION
  2
TABLES
  0
TABLE
  2
VPORT
  5
7
100
AcDbSymbolTable
 70
     1
  0
VPORT
  5
15
100
AcDbSymbolTableRecord
100
AcDbViewportTableRecord
  2
*ACTIVE
 70
     0
 10
0.0
 20
0.0
 11
1.0
 21
1.0
 12
6.591288
 22
4.579184
 13
0.0
 23
0.0
 14
1.0
 24
1.0
 15
0.0
 25
0.0
 16
0.0
 26
0.0
 36
1.0
 17
0.0
 27
0.0
 37
0.0
 40
9.158369
 41
0.688564
 42
50.0
 43
0.0
 44
0.0
 50
0.0
 51
0.0
 71
     0
 72
   100
 73
     1
 74
     1
 75
     0
 76
     0
 77
     0
 78
     0
281
     0
 65
     0
110
0.0
120
0.0
130
0.0
111
1.0
121
0.0
131
0.0
112
0.0
122
1.0
132
0.0
345
0
346
0
 79
     0
146
0.0
  0
ENDTAB
  0
TABLE
  2
LTYPE
  5
4
100
AcDbSymbolTable
 70
     3
  0
LTYPE
  5
11
100
AcDbSymbolTableRecord
100
AcDbLinetypeTableRecord
  2
ByBlock
 70
    64
  3

 72
    65
 73
     0
 40
0.0
  0
LTYPE
  5
12
100
AcDbSymbolTableRecord
100
AcDbLinetypeTableRecord
  2
ByLayer
 70
    64
  3

 72
    65
 73
     0
 40
0.0
  0
LTYPE
  5
13
100
AcDbSymbolTableRecord
100
AcDbLinetypeTableRecord
  2
Continuous
 70
    64
  3
Solid line
 72
    65
 73
     0
 40
0.0
  0
ENDTAB
  0
TABLE
  2
LAYER
  5
2
100
AcDbSymbolTable
 70
     2
  0
LAYER
  5
14
100
AcDbSymbolTableRecord
100
AcDbLayerTableRecord
  2
0
 70
     0
 62
     7
  6
Continuous
290
     1
370
    -3
390
1D
  0
LAYER
  5
24
100
AcDbSymbolTableRecord
100
AcDbLayerTableRecord
  2
Ebene 1
 70
     0
 62
     7
  6
Continuous
290
     1
370
    -3
390
1F
  0
ENDTAB
  0
TABLE
  2
STYLE
  5
3
100
AcDbSymbolTable
 70
     1
  0
STYLE
  5
17
100
AcDbSymbolTableRecord
100
AcDbTextStyleTableRecord
  2
Standard
 70
     0
 40
0.0
 41
1.0
 50
0.0
 71
     0
 42
0.0
  3
txt
  4

  0
ENDTAB
  0
TABLE
  2
VIEW
  5
5
100
AcDbSymbolTable
 70
     0
  0
ENDTAB
  0
TABLE
  2
UCS
  5
6
100
AcDbSymbolTable
 70
     0
  0
ENDTAB
  0
TABLE
  2
APPID
  5
8
100
AcDbSymbolTable
 70
     1
  0
APPID
  5
16
100
AcDbSymbolTableRecord
100
AcDbRegAppTableRecord
  2
ACAD
 70
     0
  0
ENDTAB
  0
TABLE
  2
DIMSTYLE
  5
9
100
AcDbSymbolTable
 70
     1
100
AcDbDimStyleTable
 71
     0
  0
DIMSTYLE
105
18
100
AcDbSymbolTableRecord
100
AcDbDimStyleTableRecord
  2
Standard
 70
     0
  3

  4

 40
1.0
 41
0.18
 42
0.0625
 43
0.38
 44
0.18
 45
0.0
 46
0.0
 47
0.0
 48
0.0
 71
     0
 72
     0
 73
     1
 74
     1
 75
     0
 76
     0
 77
     0
 78
     0
 79
     0
140
0.18
141
0.09
142
0.0
143
25.4
144
1.0
145
0.0
146
1.0
147
0.09
148
0.0
170
     0
171
     2
172
     0
173
     0
174
     0
175
     0
176
     0
177
     0
178
     0
179
     0
271
     4
272
     4
273
     2
274
     2
275
     0
276
     0
277
     2
278
    46
279
     0
280
     0
281
     0
282
     0
283
     1
284
     0
285
     0
286
     0
288
     0
340
17
341
0
342
0
343
0
344
0
371
    -2
372
    -2
  0
ENDTAB
  0
TABLE
  2
BLOCK_RECORD
  5
1
100
AcDbSymbolTable
 70
     0
  0
BLOCK_RECORD
  5
A
100
AcDbSymbolTableRecord
100
AcDbBlockTableRecord
  2
*MODEL_SPACE
340
20
  0
BLOCK_RECORD
  5
B
100
AcDbSymbolTableRecord
100
AcDbBlockTableRecord
  2
*PAPER_SPACE
340
21
  0
ENDTAB
  0
ENDSEC
  0
SECTION
  2
BLOCKS
  0
BLOCK
  5
D
100
AcDbEntity
  8
0
100
AcDbBlockBegin
  2
*MODEL_SPACE
 70
     0
 10
0.0
 20
0.0
 30
0.0
  3
*MODEL_SPACE
  1

  0
ENDBLK
  5
E
100
AcDbEntity
  8
0
100
AcDbBlockEnd
  0
BLOCK
  5
F
100
AcDbEntity
 67
     1
  8
0
100
AcDbBlockBegin
  2
*PAPER_SPACE
 70
     0
 10
0.0
 20
0.0
 30
0.0
  3
*PAPER_SPACE
  1

  0
ENDBLK
  5
10
100
AcDbEntity
 67
     1
  8
0
100
AcDbBlockEnd
  0
ENDSEC
  0
SECTION
  2
ENTITIES
  0
SPLINE
  5
25
100
AcDbEntity
  8
Ebene 1
100
AcDbSpline
210
0.0
220
0.0
230
1.0
 70
     1
 71
     3
 72
   160
 73
   156
 74
     0
 42
0.0000000001
 43
0.0000000001
 40
0.0
 40
0.0
 40
0.0
 40
0.0
 40
0.0256410256410256
 40
0.0256410256410256
 40
0.0256410256410256
 40
0.0256410256410256
 40
0.0512820512820513
 40
0.0512820512820513
 40
0.0512820512820513
 40
0.0512820512820513
 40
0.0769230769230769
 40
0.0769230769230769
 40
0.0769230769230769
 40
0.0769230769230769
 40
0.1025641025641026
 40
0.1025641025641026
 40
0.1025641025641026
 40
0.1025641025641026
 40
0.1282051282051282
 40
0.1282051282051282
 40
0.1282051282051282
 40
0.1282051282051282
 40
0.1538461538461538
 40
0.1538461538461538
 40
0.1538461538461538
 40
0.1538461538461538
 40
0.1794871794871795
 40
0.1794871794871795
 40
0.1794871794871795
 40
0.1794871794871795
 40
0.2051282051282051
 40
0.2051282051282051
 40
0.2051282051282051
 40
0.2051282051282051
 40
0.2307692307692307
 40
0.2307692307692307
 40
0.2307692307692307
 40
0.2307692307692307
 40
0.2564102564102564
 40
0.2564102564102564
 40
0.2564102564102564
 40
0.2564102564102564
 40
0.2820512820512821
 40
0.2820512820512821
 40
0.2820512820512821
 40
0.2820512820512821
 40
0.3076923076923077
 40
0.3076923076923077
 40
0.3076923076923077
 40
0.3076923076923077
 40
0.3333333333333334
 40
0.3333333333333334
 40
0.3333333333333334
 40
0.3333333333333334
 40
0.358974358974359
 40
0.358974358974359
 40
0.358974358974359
 40
0.358974358974359
 40
0.3846153846153847
 40
0.3846153846153847
 40
0.3846153846153847
 40
0.3846153846153847
 40
0.4102564102564104
 40
0.4102564102564104
 40
0.4102564102564104
 40
0.4102564102564104
 40
0.435897435897436
 40
0.435897435897436
 40
0.435897435897436
 40
0.435897435897436
 40
0.4615384615384617
 40
0.4615384615384617
 40
0.4615384615384617
 40
0.4615384615384617
 40
0.4871794871794873
 40
0.4871794871794873
 40
0.4871794871794873
 40
0.4871794871794873
 40
0.512820512820513
 40
0.512820512820513
 40
0.512820512820513
 40
0.512820512820513
 40
0.5384615384615387
 40
0.5384615384615387
 40
0.5384615384615387
 40
0.5384615384615387
 40
0.5641025641025643
 40
0.5641025641025643
 40
0.5641025641025643
 40
0.5641025641025643
 40
0.58974358974359
 40
0.58974358974359
 40
0.58974358974359
 40
0.58974358974359
 40
0.6153846153846156
 40
0.6153846153846156
 40
0.6153846153846156
 40
0.6153846153846156
 40
0.6410256410256413
 40
0.6410256410256413
 40
0.6410256410256413
 40
0.6410256410256413
 40
0.666666666666667
 40
0.666666666666667
 40
0.666666666666667
 40
0.666666666666667
 40
0.6923076923076926
 40
0.6923076923076926
 40
0.6923076923076926
 40
0.6923076923076926
 40
0.7179487179487183
 40
0.7179487179487183
 40
0.7179487179487183
 40
0.7179487179487183
 40
0.743589743589744
 40
0.743589743589744
 40
0.743589743589744
 40
0.743589743589744
 40
0.7692307692307696
 40
0.7692307692307696
 40
0.7692307692307696
 40
0.7692307692307696
 40
0.7948717948717953
 40
0.7948717948717953
 40
0.7948717948717953
 40
0.7948717948717953
 40
0.8205128205128209
 40
0.8205128205128209
 40
0.8205128205128209
 40
0.8205128205128209
 40
0.8461538461538466
 40
0.8461538461538466
 40
0.8461538461538466
 40
0.8461538461538466
 40
0.8717948717948723
 40
0.8717948717948723
 40
0.8717948717948723
 40
0.8717948717948723
 40
0.8974358974358979
 40
0.8974358974358979
 40
0.8974358974358979
 40
0.8974358974358979
 40
0.9230769230769236
 40
0.9230769230769236
 40
0.9230769230769236
 40
0.9230769230769236
 40
0.9487179487179492
 40
0.9487179487179492
 40
0.9487179487179492
 40
0.9487179487179492
 40
0.9743589743589749
 40
0.9743589743589749
 40
0.9743589743589749
 40
0.9743589743589749
 40
1.0
 40
1.0
 40
1.0
 40
1.0
 10
-5.6183300000000003
 20
6.3976900000000008
 30
0.0
 10
-5.6792900000000008
 20
6.2351300000000007
 30
0.0
 10
-5.7427900000000003
 20
6.2046500000000009
 30
0.0
 10
-5.7580300000000006
 20
5.8541300000000005
 30
0.0
 10
-5.7580300000000006
 20
5.8541300000000005
 30
0.0
 10
-4.8410900000000003
 20
4.55619
 30
0.0
 10
-2.3341100000000004
 20
4.6044500000000008
 30
0.0
 10
-0.9599700000000001
 20
5.3435900000000007
 30
0.0
 10
-0.9599700000000001
 20
5.3435900000000007
 30
0.0
 10
-0.5586500000000001
 20
5.3613700000000009
 30
0.0
 10
-0.18527
 20
5.3105700000000002
 30
0.0
 10
0.17794
 20
5.2140500000000003
 30
0.0
 10
0.17794
 20
5.2140500000000003
 30
0.0
 10
1.6638400000000002
 20
5.7093500000000006
 30
0.0
 10
3.4215200000000001
 20
4.8127300000000002
 30
0.0
 10
5.1893600000000006
 20
5.1962700000000002
 30
0.0
 10
5.1893600000000006
 20
5.1962700000000002
 30
0.0
 10
5.7888000000000002
 20
5.4426500000000004
 30
0.0
 10
5.4332000000000003
 20
6.1487700000000007
 30
0.0
 10
5.5297200000000002
 20
6.3799100000000006
 30
0.0
 10
5.5297200000000002
 20
6.3799100000000006
 30
0.0
 10
5.8650000000000002
 20
5.9354100000000001
 30
0.0
 10
6.2841000000000005
 20
5.4274100000000001
 30
0.0
 10
5.9869200000000005
 20
4.9016300000000008
 30
0.0
 10
5.9869200000000005
 20
4.9016300000000008
 30
0.0
 10
5.34938
 20
3.8500700000000001
 30
0.0
 10
3.8482400000000001
 20
3.9846900000000005
 30
0.0
 10
2.7001600000000003
 20
3.7637100000000001
 30
0.0
 10
2.7001600000000003
 20
3.7637100000000001
 30
0.0
 10
2.2988400000000002
 20
3.1972900000000002
 30
0.0
 10
2.7738200000000002
 20
2.5927700000000002
 30
0.0
 10
2.9541600000000003
 20
2.0415900000000002
 30
0.0
 10
2.9541600000000003
 20
2.0415900000000002
 30
0.0
 10
2.5884
 20
1.52851
 30
0.0
 10
2.4131400000000003
 20
0.8604900000000001
 30
0.0
 10
3.3199200000000002
 20
0.6674500000000001
 30
0.0
 10
3.3199200000000002
 20
0.6674500000000001
 30
0.0
 10
3.3199200000000002
 20
0.6674500000000001
 30
0.0
 10
3.3351600000000001
 20
0.47949
 30
0.0
 10
3.3351600000000001
 20
0.47949
 30
0.0
 10
3.3351600000000001
 20
0.47949
 30
0.0
 10
3.0456000000000003
 20
0.29407
 30
0.0
 10
2.8754200000000001
 20
0.01213
 30
0.0
 10
2.5731600000000001
 20
-0.15804
 30
0.0
 10
2.5731600000000001
 20
-0.15804
 30
0.0
 10
2.3217000000000003
 20
-0.12248
 30
0.0
 10
2.0499200000000002
 20
0.2737500000000001
 30
0.0
 10
1.8010000000000002
 20
0.01721
 30
0.0
 10
1.8010000000000002
 20
0.01721
 30
0.0
 10
1.8035400000000001
 20
-0.5161800000000001
 30
0.0
 10
2.2328000000000001
 20
-1.1969000000000001
 30
0.0
 10
1.7298800000000001
 20
-1.2807200000000001
 30
0.0
 10
1.7298800000000001
 20
-1.2807200000000001
 30
0.0
 10
1.4962000000000002
 20
-1.3188200000000001
 30
0.0
 10
1.56986
 20
-1.6541000000000001
 30
0.0
 10
1.4758800000000001
 20
-1.8496800000000002
 30
0.0
 10
1.4758800000000001
 20
-1.8496800000000002
 30
0.0
 10
2.2632800000000004
 20
-2.6929600000000002
 30
0.0
 10
1.5520800000000001
 20
-3.2593800000000002
 30
0.0
 10
1.5952600000000001
 20
-4.2169600000000003
 30
0.0
 10
1.5952600000000001
 20
-4.2169600000000003
 30
0.0
 10
1.5952600000000001
 20
-4.2169600000000003
 30
0.0
 10
1.3819000000000001
 20
-3.7673800000000002
 30
0.0
 10
1.3819000000000001
 20
-3.7673800000000002
 30
0.0
 10
1.3819000000000001
 20
-3.7673800000000002
 30
0.0
 10
1.2980800000000001
 20
-3.6937200000000003
 30
0.0
 10
1.3285600000000002
 20
-3.8613600000000003
 30
0.0
 10
1.3361800000000001
 20
-3.9045400000000003
 30
0.0
 10
1.3361800000000001
 20
-3.9045400000000003
 30
0.0
 10
1.3717400000000002
 20
-3.9477200000000003
 30
0.0
 10
1.3488800000000001
 20
-4.0036000000000005
 30
0.0
 10
1.3565
 20
-4.0518600000000005
 30
0.0
 10
1.3565
 20
-4.0518600000000005
 30
0.0
 10
1.44286
 20
-4.4227000000000007
 30
0.0
 10
1.3336400000000002
 20
-4.8494200000000003
 30
0.0
 10
1.1355200000000001
 20
-5.1542200000000005
 30
0.0
 10
1.1355200000000001
 20
-5.1542200000000005
 30
0.0
 10
1.02122
 20
-4.8672000000000004
 30
0.0
 10
1.0491600000000001
 20
-4.4100000000000001
 30
0.0
 10
0.8612000000000001
 20
-4.2042600000000006
 30
0.0
 10
0.8612000000000001
 20
-4.2042600000000006
 30
0.0
 10
0.8535800000000001
 20
-4.9307000000000007
 30
0.0
 10
1.0110600000000001
 20
-5.7130200000000002
 30
0.0
 10
0.7342000000000001
 20
-6.4039000000000001
 30
0.0
 10
0.7342000000000001
 20
-6.4039000000000001
 30
0.0
 10
0.5487800000000001
 20
-5.7968400000000004
 30
0.0
 10
0.7392800000000001
 20
-4.9764200000000001
 30
0.0
 10
0.5030600000000001
 20
-4.3515800000000002
 30
0.0
 10
0.5030600000000001
 20
-4.3515800000000002
 30
0.0
 10
0.46496
 20
-4.7554400000000001
 30
0.0
 10
0.51068
 20
-5.1974
 30
0.0
 10
0.37606
 20
-5.5809400000000009
 30
0.0
 10
0.37606
 20
-5.5809400000000009
 30
0.0
 10
0.2135
 20
-5.3828200000000006
 30
0.0
 10
0.29732
 20
-5.0018200000000004
 30
0.0
 10
0.25668
 20
-4.7275
 30
0.0
 10
0.25668
 20
-4.7275
 30
0.0
 10
0.09666
 20
-4.7960800000000008
 30
0.0
 10
0.18048
 20
-5.8527200000000006
 30
0.0
 10
0.05602
 20
-6.1880000000000006
 30
0.0
 10
0.05602
 20
-6.1880000000000006
 30
0.0
 10
-0.12177
 20
-5.4971200000000007
 30
0.0
 10
-0.08621
 20
-4.7325800000000005
 30
0.0
 10
-0.16495
 20
-4.0061400000000003
 30
0.0
 10
-0.16495
 20
-4.0061400000000003
 30
0.0
 10
-0.25639
 20
-4.1661600000000005
 30
0.0
 10
-0.28433
 20
-4.4684200000000001
 30
0.0
 10
-0.47483
 20
-4.5395400000000006
 30
0.0
 10
-0.47483
 20
-4.5395400000000006
 30
0.0
 10
-0.47229
 20
-4.1864800000000004
 30
0.0
 10
-0.5434100000000001
 20
-3.8232600000000003
 30
0.0
 10
-0.46213
 20
-3.4778200000000004
 30
0.0
 10
-0.46213
 20
-3.4778200000000004
 30
0.0
 10
-0.5408700000000001
 20
-3.3432000000000004
 30
0.0
 10
-0.5815100000000001
 20
-3.5946600000000002
 30
0.0
 10
-0.6932700000000001
 20
-3.5870400000000005
 30
0.0
 10
-0.6932700000000001
 20
-3.5870400000000005
 30
0.0
 10
-0.7770900000000001
 20
-3.1679400000000002
 30
0.0
 10
-0.9244100000000001
 20
-2.8377400000000002
 30
0.0
 10
-0.8710700000000001
 20
-2.4973800000000002
 30
0.0
 10
-0.8710700000000001
 20
-2.4973800000000002
 30
0.0
 10
-0.8329700000000001
 20
-2.2560800000000003
 30
0.0
 10
-0.65517
 20
-2.0173200000000002
 30
0.0
 10
-0.44181
 20
-1.7176000000000002
 30
0.0
 10
-0.44181
 20
-1.7176000000000002
 30
0.0
 10
-0.44181
 20
-1.7176000000000002
 30
0.0
 10
-0.50531
 20
-1.5093200000000002
 30
0.0
 10
-0.50531
 20
-1.5093200000000002
 30
0.0
 10
-0.50531
 20
-1.5093200000000002
 30
0.0
 10
-1.4374900000000002
 20
-1.3569200000000001
 30
0.0
 10
-0.63739
 20
-0.4857
 30
0.0
 10
-0.9244100000000001
 20
-0.03104
 30
0.0
 10
-0.9244100000000001
 20
-0.03104
 30
0.0
 10
-1.29525
 20
0.33471
 30
0.0
 10
-1.7194300000000002
 20
-0.04628
 30
0.0
 10
-2.0191500000000002
 20
-0.20884
 30
0.0
 10
-2.0191500000000002
 20
-0.20884
 30
0.0
 10
-2.2452100000000002
 20
0.02991
 30
0.0
 10
-2.4687300000000003
 20
0.32201
 30
0.0
 10
-2.7582900000000001
 20
0.53029
 30
0.0
 10
-2.7582900000000001
 20
0.53029
 30
0.0
 10
-2.7811500000000002
 20
0.60141
 30
0.0
 10
-2.7328900000000003
 20
0.66491
 30
0.0
 10
-2.65415
 20
0.6903100000000001
 30
0.0
 10
-2.65415
 20
0.6903100000000001
 30
0.0
 10
-1.6838700000000002
 20
0.70047
 30
0.0
 10
-1.9150100000000001
 20
1.4751700000000001
 30
0.0
 10
-2.3010900000000003
 20
1.8764900000000002
 30
0.0
 10
-2.3010900000000003
 20
1.8764900000000002
 30
0.0
 10
-2.18425
 20
2.4886300000000001
 30
0.0
 10
-1.4882900000000001
 20
3.0677500000000002
 30
0.0
 10
-1.9835900000000002
 20
3.6976700000000005
 30
0.0
 10
-1.9835900000000002
 20
3.6976700000000005
 30
0.0
 10
-3.6472900000000004
 20
3.6163900000000004
 30
0.0
 10
-7.3912500000000003
 20
4.6374700000000004
 30
0.0
 10
-5.6183300000000003
 20
6.3976900000000008
 30
0.0
  0
SPLINE
  5
26
100
AcDbEntity
  8
Ebene 1
 62
     7
100
AcDbSpline
210
0.0
220
0.0
230
1.0
 70
     1
 71
     3
 72
    84
 73
    80
 74
     0
 42
0.0000000001
 43
0.0000000001
 40
0.0
 40
0.0
 40
0.0
 40
0.0
 40
0.05
 40
0.05
 40
0.05
 40
0.05
 40
0.1
 40
0.1
 40
0.1
 40
0.1
 40
0.15
 40
0.15
 40
0.15
 40
0.15
 40
0.2
 40
0.2
 40
0.2
 40
0.2
 40
0.25
 40
0.25
 40
0.25
 40
0.25
 40
0.3
 40
0.3
 40
0.3
 40
0.3
 40
0.35
 40
0.35
 40
0.35
 40
0.35
 40
0.4
 40
0.4
 40
0.4
 40
0.4
 40
0.45
 40
0.45
 40
0.45
 40
0.45
 40
0.4999999999999999
 40
0.4999999999999999
 40
0.4999999999999999
 40
0.4999999999999999
 40
0.5499999999999999
 40
0.5499999999999999
 40
0.5499999999999999
 40
0.5499999999999999
 40
0.6
 40
0.6
 40
0.6
 40
0.6
 40
0.65
 40
0.65
 40
0.65
 40
0.65
 40
0.7000000000000001
 40
0.7000000000000001
 40
0.7000000000000001
 40
0.7000000000000001
 40
0.7500000000000001
 40
0.7500000000000001
 40
0.7500000000000001
 40
0.7500000000000001
 40
0.8000000000000002
 40
0.8000000000000002
 40
0.8000000000000002
 40
0.8000000000000002
 40
0.8500000000000002
 40
0.8500000000000002
 40
0.8500000000000002
 40
0.8500000000000002
 40
0.9000000000000002
 40
0.9000000000000002
 40
0.9000000000000002
 40
0.9000000000000002
 40
0.9500000000000003
 40
0.9500000000000003
 40
0.9500000000000003
 40
0.9500000000000003
 40
1.0
 40
1.0
 40
1.0
 40
1.0
 10
-5.8977300000000001
 20
5.8871500000000001
 30
0.0
 10
-5.5802300000000002
 20
5.2292900000000007
 30
0.0
 10
-4.6734500000000008
 20
4.8686100000000003
 30
0.0
 10
-3.9571700000000005
 20
4.6552500000000006
 30
0.0
 10
-3.9571700000000005
 20
4.6552500000000006
 30
0.0
 10
-3.8149300000000004
 20
4.67049
 30
0.0
 10
-4.0740100000000004
 20
4.7543100000000003
 30
0.0
 10
-4.1121100000000004
 20
4.7873300000000008
 30
0.0
 10
-4.1121100000000004
 20
4.7873300000000008
 30
0.0
 10
-3.2840700000000003
 20
4.67049
 30
0.0
 10
-2.9183100000000004
 20
4.8355900000000007
 30
0.0
 10
-1.9632700000000001
 20
4.8025700000000002
 30
0.0
 10
-1.9632700000000001
 20
4.8025700000000002
 30
0.0
 10
-1.9785100000000002
 20
4.67049
 30
0.0
 10
-2.4458700000000002
 20
4.5714300000000003
 30
0.0
 10
-2.0191500000000002
 20
4.6222300000000001
 30
0.0
 10
-2.0191500000000002
 20
4.6222300000000001
 30
0.0
 10
-2.0191500000000002
 20
4.6222300000000001
 30
0.0
 10
-1.6229100000000001
 20
4.7365300000000001
 30
0.0
 10
-1.6229100000000001
 20
4.7365300000000001
 30
0.0
 10
-1.6229100000000001
 20
4.7365300000000001
 30
0.0
 10
-1.5568700000000002
 20
4.8355900000000007
 30
0.0
 10
-1.7270500000000002
 20
4.7365300000000001
 30
0.0
 10
-1.7727700000000002
 20
4.7543100000000003
 30
0.0
 10
-1.7727700000000002
 20
4.7543100000000003
 30
0.0
 10
-1.3612900000000001
 20
5.2775500000000006
 30
0.0
 10
-0.4697500000000001
 20
5.3435900000000007
 30
0.0
 10
0.09412
 20
4.9879900000000008
 30
0.0
 10
0.09412
 20
4.9879900000000008
 30
0.0
 10
0.1373
 20
4.64255
 30
0.0
 10
0.17286
 20
4.4164900000000005
 30
0.0
 10
0.04586
 20
4.0812100000000004
 30
0.0
 10
0.04586
 20
4.0812100000000004
 30
0.0
 10
-0.25131
 20
3.9465900000000005
 30
0.0
 10
-0.8380500000000001
 20
3.4614500000000001
 30
0.0
 10
-1.03363
 20
3.5986100000000003
 30
0.0
 10
-1.03363
 20
3.5986100000000003
 30
0.0
 10
-1.11999
 20
3.3674700000000004
 30
0.0
 10
-1.24699
 20
3.0398100000000001
 30
0.0
 10
-1.6127500000000001
 20
3.1134700000000004
 30
0.0
 10
-1.6127500000000001
 20
3.1134700000000004
 30
0.0
 10
-1.7473700000000001
 20
3.2353900000000002
 30
0.0
 10
-1.6940300000000001
 20
3.4208100000000004
 30
0.0
 10
-1.7346700000000002
 20
3.5655900000000003
 30
0.0
 10
-1.7346700000000002
 20
3.5655900000000003
 30
0.0
 10
-1.54671
 20
3.6417900000000003
 30
0.0
 10
-1.4019300000000001
 20
3.05505
 30
0.0
 10
-1.3612900000000001
 20
3.2912700000000004
 30
0.0
 10
-1.3612900000000001
 20
3.2912700000000004
 30
0.0
 10
-1.33843
 20
3.3776300000000004
 30
0.0
 10
-1.3943100000000002
 20
3.4436700000000005
 30
0.0
 10
-1.4247900000000002
 20
3.5173300000000003
 30
0.0
 10
-1.4247900000000002
 20
3.5173300000000003
 30
0.0
 10
-2.0089900000000003
 20
4.2412300000000007
 30
0.0
 10
-3.4517100000000003
 20
3.5782900000000004
 30
0.0
 10
-4.2137100000000007
 20
4.1574100000000005
 30
0.0
 10
-4.2137100000000007
 20
4.1574100000000005
 30
0.0
 10
-3.5202900000000001
 20
4.2336100000000005
 30
0.0
 10
-2.7862300000000002
 20
4.1447100000000008
 30
0.0
 10
-2.06487
 20
4.1497900000000003
 30
0.0
 10
-2.06487
 20
4.1497900000000003
 30
0.0
 10
-2.06487
 20
4.1497900000000003
 30
0.0
 10
-2.2807700000000004
 20
4.1777300000000004
 30
0.0
 10
-2.2807700000000004
 20
4.1777300000000004
 30
0.0
 10
-2.2807700000000004
 20
4.1777300000000004
 30
0.0
 10
-3.4669500000000002
 20
4.3580700000000006
 30
0.0
 10
-4.77759
 20
3.9719900000000004
 30
0.0
 10
-5.5700700000000003
 20
4.7695500000000006
 30
0.0
 10
-5.5700700000000003
 20
4.7695500000000006
 30
0.0
 10
-5.4633900000000004
 20
4.6552500000000006
 30
0.0
 10
-4.8969700000000005
 20
4.4749100000000004
 30
0.0
 10
-5.0214300000000005
 20
4.5892100000000005
 30
0.0
 10
-5.0214300000000005
 20
4.5892100000000005
 30
0.0
 10
-5.4329100000000006
 20
4.7543100000000003
 30
0.0
 10
-5.9028100000000006
 20
5.01593
 30
0.0
 10
-5.9967900000000007
 20
5.4096300000000008
 30
0.0
 10
-5.9967900000000007
 20
5.4096300000000008
 30
0.0
 10
-6.0171100000000006
 20
5.5747300000000006
 30
0.0
 10
-5.9459900000000001
 20
5.7398300000000004
 30
0.0
 10
-5.8977300000000001
 20
5.8871500000000001
 30
0.0
  0
SPLINE
  5
27
100
AcDbEntity
  8
Ebene 1
 62
     7
100
AcDbSpline
210
0.0
220
0.0
230
1.0
 70
     1
 71
     3
 72
    76
 73
    72
 74
     0
 42
0.0000000001
 43
0.0000000001
 40
0.0
 40
0.0
 40
0.0
 40
0.0
 40
0.0555555555555556
 40
0.0555555555555556
 40
0.0555555555555556
 40
0.0555555555555556
 40
0.1111111111111111
 40
0.1111111111111111
 40
0.1111111111111111
 40
0.1111111111111111
 40
0.1666666666666667
 40
0.1666666666666667
 40
0.1666666666666667
 40
0.1666666666666667
 40
0.2222222222222222
 40
0.2222222222222222
 40
0.2222222222222222
 40
0.2222222222222222
 40
0.2777777777777778
 40
0.2777777777777778
 40
0.2777777777777778
 40
0.2777777777777778
 40
0.3333333333333334
 40
0.3333333333333334
 40
0.3333333333333334
 40
0.3333333333333334
 40
0.388888888888889
 40
0.388888888888889
 40
0.388888888888889
 40
0.388888888888889
 40
0.4444444444444445
 40
0.4444444444444445
 40
0.4444444444444445
 40
0.4444444444444445
 40
0.5000000000000001
 40
0.5000000000000001
 40
0.5000000000000001
 40
0.5000000000000001
 40
0.5555555555555557
 40
0.5555555555555557
 40
0.5555555555555557
 40
0.5555555555555557
 40
0.6111111111111113
 40
0.6111111111111113
 40
0.6111111111111113
 40
0.6111111111111113
 40
0.6666666666666669
 40
0.6666666666666669
 40
0.6666666666666669
 40
0.6666666666666669
 40
0.7222222222222224
 40
0.7222222222222224
 40
0.7222222222222224
 40
0.7222222222222224
 40
0.777777777777778
 40
0.777777777777778
 40
0.777777777777778
 40
0.777777777777778
 40
0.8333333333333336
 40
0.8333333333333336
 40
0.8333333333333336
 40
0.8333333333333336
 40
0.8888888888888892
 40
0.8888888888888892
 40
0.8888888888888892
 40
0.8888888888888892
 40
0.9444444444444448
 40
0.9444444444444448
 40
0.9444444444444448
 40
0.9444444444444448
 40
1.0
 40
1.0
 40
1.0
 40
1.0
 10
5.7532400000000008
 20
5.7398300000000004
 30
0.0
 10
5.9513600000000002
 20
5.5264700000000007
 30
0.0
 10
6.0936000000000003
 20
5.1962700000000002
 30
0.0
 10
5.9081800000000007
 20
4.9168700000000003
 30
0.0
 10
5.9081800000000007
 20
4.9168700000000003
 30
0.0
 10
5.5881400000000001
 20
4.4291900000000002
 30
0.0
 10
5.0141
 20
4.3148900000000001
 30
0.0
 10
4.0743
 20
4.2767900000000001
 30
0.0
 10
4.0743
 20
4.2767900000000001
 30
0.0
 10
3.8126800000000003
 20
4.2132900000000006
 30
0.0
 10
4.1378000000000004
 20
4.08629
 30
0.0
 10
4.7093000000000007
 20
4.1574100000000005
 30
0.0
 10
4.7093000000000007
 20
4.1574100000000005
 30
0.0
 10
4.0235000000000003
 20
3.8576900000000003
 30
0.0
 10
3.1294200000000001
 20
4.0177100000000001
 30
0.0
 10
2.3953600000000002
 20
3.8500700000000001
 30
0.0
 10
2.3953600000000002
 20
3.8500700000000001
 30
0.0
 10
2.2124800000000002
 20
3.7891100000000004
 30
0.0
 10
2.1185
 20
3.6798900000000003
 30
0.0
 10
2.1159600000000003
 20
3.5376500000000002
 30
0.0
 10
2.1159600000000003
 20
3.5376500000000002
 30
0.0
 10
1.8772000000000002
 20
3.1642700000000001
 30
0.0
 10
2.16168
 20
3.3090500000000005
 30
0.0
 10
2.2810600000000001
 20
3.5833700000000004
 30
0.0
 10
2.2810600000000001
 20
3.5833700000000004
 30
0.0
 10
2.5884
 20
3.7281500000000003
 30
0.0
 10
2.2556600000000002
 20
3.2480900000000004
 30
0.0
 10
2.2353400000000003
 20
3.0779100000000001
 30
0.0
 10
2.2353400000000003
 20
3.0779100000000001
 30
0.0
 10
1.9076800000000003
 20
3.0779100000000001
 30
0.0
 10
1.9229200000000002
 20
3.7738700000000005
 30
0.0
 10
1.6333600000000001
 20
3.3623900000000004
 30
0.0
 10
1.6333600000000001
 20
3.3623900000000004
 30
0.0
 10
1.5038200000000002
 20
3.5884500000000004
 30
0.0
 10
1.3311000000000002
 20
3.7332300000000003
 30
0.0
 10
1.0059800000000001
 20
3.7941900000000004
 30
0.0
 10
1.0059800000000001
 20
3.7941900000000004
 30
0.0
 10
0.74182
 20
3.9973900000000002
 30
0.0
 10
0.6326000000000001
 20
4.2056700000000005
 30
0.0
 10
0.2617600000000001
 20
4.2640900000000004
 30
0.0
 10
0.2617600000000001
 20
4.2640900000000004
 30
0.0
 10
0.25922
 20
4.5231700000000004
 30
0.0
 10
0.18302
 20
4.7695500000000006
 30
0.0
 10
0.2617600000000001
 20
5.01593
 30
0.0
 10
0.2617600000000001
 20
5.01593
 30
0.0
 10
0.7367400000000001
 20
5.3435900000000007
 30
0.0
 10
1.4784200000000001
 20
5.3613700000000009
 30
0.0
 10
1.9762600000000001
 20
5.0667300000000006
 30
0.0
 10
1.9762600000000001
 20
5.0667300000000006
 30
0.0
 10
1.9356200000000001
 20
4.9829100000000004
 30
0.0
 10
1.6105
 20
5.01593
 30
0.0
 10
1.69432
 20
4.8686100000000003
 30
0.0
 10
1.69432
 20
4.8686100000000003
 30
0.0
 10
2.4944200000000003
 20
5.0489500000000005
 30
0.0
 10
3.30722
 20
4.8508300000000002
 30
0.0
 10
4.1149400000000007
 20
4.8178100000000006
 30
0.0
 10
4.1149400000000007
 20
4.8178100000000006
 30
0.0
 10
3.9981000000000004
 20
4.9168700000000003
 30
0.0
 10
3.6552000000000002
 20
4.9168700000000003
 30
0.0
 10
3.4799400000000005
 20
4.9981500000000008
 30
0.0
 10
3.4799400000000005
 20
4.9981500000000008
 30
0.0
 10
4.0717600000000003
 20
5.0489500000000005
 30
0.0
 10
4.7118400000000005
 20
4.9981500000000008
 30
0.0
 10
5.2731800000000009
 20
5.1632500000000006
 30
0.0
 10
5.2731800000000009
 20
5.1632500000000006
 30
0.0
 10
5.2985800000000003
 20
5.1480100000000002
 30
0.0
 10
5.1995200000000006
 20
5.0667300000000006
 30
0.0
 10
5.3087400000000002
 20
5.0819700000000001
 30
0.0
 10
5.3087400000000002
 20
5.0819700000000001
 30
0.0
 10
5.5475000000000003
 20
5.2470700000000008
 30
0.0
 10
5.6618000000000004
 20
5.4934500000000002
 30
0.0
 10
5.7532400000000008
 20
5.7398300000000004
 30
0.0
  0
SPLINE
  5
28
100
AcDbEntity
  8
Ebene 1
100
AcDbSpline
210
0.0
220
0.0
230
1.0
 70
     1
 71
     3
 72
    20
 73
    16
 74
     0
 42
0.0000000001
 43
0.0000000001
 40
0.0
 40
0.0
 40
0.0
 40
0.0
 40
0.25
 40
0.25
 40
0.25
 40
0.25
 40
0.5
 40
0.5
 40
0.5
 40
0.5
 40
0.75
 40
0.75
 40
0.75
 40
0.75
 40
1.0
 40
1.0
 40
1.0
 40
1.0
 10
2.0346800000000003
 20
4.25901
 30
0.0
 10
2.0346800000000003
 20
4.25901
 30
0.0
 10
2.4537800000000001
 20
4.25901
 30
0.0
 10
2.4537800000000001
 20
4.25901
 30
0.0
 10
2.4537800000000001
 20
4.25901
 30
0.0
 10
2.4537800000000001
 20
4.25901
 30
0.0
 10
2.6900000000000004
 20
4.2564700000000002
 30
0.0
 10
2.6900000000000004
 20
4.2564700000000002
 30
0.0
 10
2.6900000000000004
 20
4.2564700000000002
 30
0.0
 10
2.4969600000000001
 20
4.1675700000000004
 30
0.0
 10
2.1921600000000003
 20
4.1904300000000001
 30
0.0
 10
1.9813400000000001
 20
4.20059
 30
0.0
 10
1.9813400000000001
 20
4.20059
 30
0.0
 10
1.9813400000000001
 20
4.20059
 30
0.0
 10
2.0346800000000003
 20
4.25901
 30
0.0
 10
2.0346800000000003
 20
4.25901
 30
0.0
  0
SPLINE
  5
29
100
AcDbEntity
  8
Ebene 1
100
AcDbSpline
210
0.0
220
0.0
230
1.0
 70
     1
 71
     3
 72
    20
 73
    16
 74
     0
 42
0.0000000001
 43
0.0000000001
 40
0.0
 40
0.0
 40
0.0
 40
0.0
 40
0.25
 40
0.25
 40
0.25
 40
0.25
 40
0.5
 40
0.5
 40
0.5
 40
0.5
 40
0.75
 40
0.75
 40
0.75
 40
0.75
 40
1.0
 40
1.0
 40
1.0
 40
1.0
 10
3.7745800000000003
 20
4.2437700000000005
 30
0.0
 10
3.7974400000000004
 20
4.2463100000000003
 30
0.0
 10
3.8533200000000005
 20
4.2463100000000003
 30
0.0
 10
3.8279200000000002
 20
4.2158300000000004
 30
0.0
 10
3.8279200000000002
 20
4.2158300000000004
 30
0.0
 10
3.4875600000000002
 20
4.1777300000000004
 30
0.0
 10
3.13958
 20
4.1497900000000003
 30
0.0
 10
2.8195400000000004
 20
4.0685100000000007
 30
0.0
 10
2.8195400000000004
 20
4.0685100000000007
 30
0.0
 10
2.8195400000000004
 20
4.0685100000000007
 30
0.0
 10
2.8195400000000004
 20
4.1091500000000005
 30
0.0
 10
2.8195400000000004
 20
4.1091500000000005
 30
0.0
 10
2.8195400000000004
 20
4.1091500000000005
 30
0.0
 10
3.1192600000000001
 20
4.2082100000000002
 30
0.0
 10
3.4672400000000003
 20
4.2031300000000007
 30
0.0
 10
3.7745800000000003
 20
4.2437700000000005
 30
0.0
  0
SPLINE
  5
2A
100
AcDbEntity
  8
Ebene 1
100
AcDbSpline
210
0.0
220
0.0
230
1.0
 70
     1
 71
     3
 72
    28
 73
    24
 74
     0
 42
0.0000000001
 43
0.0000000001
 40
0.0
 40
0.0
 40
0.0
 40
0.0
 40
0.1666666666666667
 40
0.1666666666666667
 40
0.1666666666666667
 40
0.1666666666666667
 40
0.3333333333333333
 40
0.3333333333333333
 40
0.3333333333333333
 40
0.3333333333333333
 40
0.5
 40
0.5
 40
0.5
 40
0.5
 40
0.6666666666666666
 40
0.6666666666666666
 40
0.6666666666666666
 40
0.6666666666666666
 40
0.8333333333333333
 40
0.8333333333333333
 40
0.8333333333333333
 40
0.8333333333333333
 40
1.0
 40
1.0
 40
1.0
 40
1.0
 10
-1.2800100000000001
 20
4.1777300000000004
 30
0.0
 10
-1.2800100000000001
 20
4.1777300000000004
 30
0.0
 10
-1.46035
 20
4.0786700000000007
 30
0.0
 10
-1.46035
 20
4.0786700000000007
 30
0.0
 10
-1.46035
 20
4.0786700000000007
 30
0.0
 10
-1.46035
 20
4.0786700000000007
 30
0.0
 10
-1.2444500000000001
 20
4.0024700000000006
 30
0.0
 10
-1.2444500000000001
 20
4.0024700000000006
 30
0.0
 10
-1.2444500000000001
 20
4.0024700000000006
 30
0.0
 10
-1.2444500000000001
 20
4.0024700000000006
 30
0.0
 10
-1.9937500000000001
 20
4.0024700000000006
 30
0.0
 10
-1.9937500000000001
 20
4.0024700000000006
 30
0.0
 10
-1.9937500000000001
 20
4.0024700000000006
 30
0.0
 10
-2.0191500000000002
 20
4.0354900000000002
 30
0.0
 10
-1.9810500000000002
 20
4.0507300000000006
 30
0.0
 10
-1.9429500000000002
 20
4.0507300000000006
 30
0.0
 10
-1.9429500000000002
 20
4.0507300000000006
 30
0.0
 10
-1.9429500000000002
 20
4.0507300000000006
 30
0.0
 10
-1.6229100000000001
 20
4.1015300000000003
 30
0.0
 10
-1.6229100000000001
 20
4.1015300000000003
 30
0.0
 10
-1.6229100000000001
 20
4.1015300000000003
 30
0.0
 10
-1.6229100000000001
 20
4.1015300000000003
 30
0.0
 10
-1.2800100000000001
 20
4.1777300000000004
 30
0.0
 10
-1.2800100000000001
 20
4.1777300000000004
 30
0.0
  0
SPLINE
  5
2B
100
AcDbEntity
  8
Ebene 1
 62
     7
100
AcDbSpline
210
0.0
220
0.0
230
1.0
 70
     1
 71
     3
 72
   232
 73
   228
 74
     0
 42
0.0000000001
 43
0.0000000001
 40
0.0
 40
0.0
 40
0.0
 40
0.0
 40
0.0175438596491228
 40
0.0175438596491228
 40
0.0175438596491228
 40
0.0175438596491228
 40
0.0350877192982456
 40
0.0350877192982456
 40
0.0350877192982456
 40
0.0350877192982456
 40
0.0526315789473684
 40
0.0526315789473684
 40
0.0526315789473684
 40
0.0526315789473684
 40
0.0701754385964912
 40
0.0701754385964912
 40
0.0701754385964912
 40
0.0701754385964912
 40
0.087719298245614
 40
0.087719298245614
 40
0.087719298245614
 40
0.087719298245614
 40
0.1052631578947368
 40
0.1052631578947368
 40
0.1052631578947368
 40
0.1052631578947368
 40
0.1228070175438596
 40
0.1228070175438596
 40
0.1228070175438596
 40
0.1228070175438596
 40
0.1403508771929825
 40
0.1403508771929825
 40
0.1403508771929825
 40
0.1403508771929825
 40
0.1578947368421053
 40
0.1578947368421053
 40
0.1578947368421053
 40
0.1578947368421053
 40
0.1754385964912281
 40
0.1754385964912281
 40
0.1754385964912281
 40
0.1754385964912281
 40
0.1929824561403509
 40
0.1929824561403509
 40
0.1929824561403509
 40
0.1929824561403509
 40
0.2105263157894737
 40
0.2105263157894737
 40
0.2105263157894737
 40
0.2105263157894737
 40
0.2280701754385965
 40
0.2280701754385965
 40
0.2280701754385965
 40
0.2280701754385965
 40
0.2456140350877193
 40
0.2456140350877193
 40
0.2456140350877193
 40
0.2456140350877193
 40
0.2631578947368421
 40
0.2631578947368421
 40
0.2631578947368421
 40
0.2631578947368421
 40
0.2807017543859649
 40
0.2807017543859649
 40
0.2807017543859649
 40
0.2807017543859649
 40
0.2982456140350877
 40
0.2982456140350877
 40
0.2982456140350877
 40
0.2982456140350877
 40
0.3157894736842105
 40
0.3157894736842105
 40
0.3157894736842105
 40
0.3157894736842105
 40
0.3333333333333333
 40
0.3333333333333333
 40
0.3333333333333333
 40
0.3333333333333333
 40
0.3508771929824561
 40
0.3508771929824561
 40
0.3508771929824561
 40
0.3508771929824561
 40
0.3684210526315789
 40
0.3684210526315789
 40
0.3684210526315789
 40
0.3684210526315789
 40
0.3859649122807017
 40
0.3859649122807017
 40
0.3859649122807017
 40
0.3859649122807017
 40
0.4035087719298245
 40
0.4035087719298245
 40
0.4035087719298245
 40
0.4035087719298245
 40
0.4210526315789474
 40
0.4210526315789474
 40
0.4210526315789474
 40
0.4210526315789474
 40
0.4385964912280702
 40
0.4385964912280702
 40
0.4385964912280702
 40
0.4385964912280702
 40
0.456140350877193
 40
0.456140350877193
 40
0.456140350877193
 40
0.456140350877193
 40
0.4736842105263158
 40
0.4736842105263158
 40
0.4736842105263158
 40
0.4736842105263158
 40
0.4912280701754386
 40
0.4912280701754386
 40
0.4912280701754386
 40
0.4912280701754386
 40
0.5087719298245614
 40
0.5087719298245614
 40
0.5087719298245614
 40
0.5087719298245614
 40
0.5263157894736843
 40
0.5263157894736843
 40
0.5263157894736843
 40
0.5263157894736843
 40
0.5438596491228072
 40
0.5438596491228072
 40
0.5438596491228072
 40
0.5438596491228072
 40
0.56140350877193
 40
0.56140350877193
 40
0.56140350877193
 40
0.56140350877193
 40
0.5789473684210529
 40
0.5789473684210529
 40
0.5789473684210529
 40
0.5789473684210529
 40
0.5964912280701757
 40
0.5964912280701757
 40
0.5964912280701757
 40
0.5964912280701757
 40
0.6140350877192986
 40
0.6140350877192986
 40
0.6140350877192986
 40
0.6140350877192986
 40
0.6315789473684215
 40
0.6315789473684215
 40
0.6315789473684215
 40
0.6315789473684215
 40
0.6491228070175443
 40
0.6491228070175443
 40
0.6491228070175443
 40
0.6491228070175443
 40
0.6666666666666672
 40
0.6666666666666672
 40
0.6666666666666672
 40
0.6666666666666672
 40
0.6842105263157901
 40
0.6842105263157901
 40
0.6842105263157901
 40
0.6842105263157901
 40
0.7017543859649129
 40
0.7017543859649129
 40
0.7017543859649129
 40
0.7017543859649129
 40
0.7192982456140358
 40
0.7192982456140358
 40
0.7192982456140358
 40
0.7192982456140358
 40
0.7368421052631586
 40
0.7368421052631586
 40
0.7368421052631586
 40
0.7368421052631586
 40
0.7543859649122815
 40
0.7543859649122815
 40
0.7543859649122815
 40
0.7543859649122815
 40
0.7719298245614044
 40
0.7719298245614044
 40
0.7719298245614044
 40
0.7719298245614044
 40
0.7894736842105272
 40
0.7894736842105272
 40
0.7894736842105272
 40
0.7894736842105272
 40
0.8070175438596501
 40
0.8070175438596501
 40
0.8070175438596501
 40
0.8070175438596501
 40
0.8245614035087729
 40
0.8245614035087729
 40
0.8245614035087729
 40
0.8245614035087729
 40
0.8421052631578958
 40
0.8421052631578958
 40
0.8421052631578958
 40
0.8421052631578958
 40
0.8596491228070187
 40
0.8596491228070187
 40
0.8596491228070187
 40
0.8596491228070187
 40
0.8771929824561415
 40
0.8771929824561415
 40
0.8771929824561415
 40
0.8771929824561415
 40
0.8947368421052644
 40
0.8947368421052644
 40
0.8947368421052644
 40
0.8947368421052644
 40
0.9122807017543873
 40
0.9122807017543873
 40
0.9122807017543873
 40
0.9122807017543873
 40
0.9298245614035101
 40
0.9298245614035101
 40
0.9298245614035101
 40
0.9298245614035101
 40
0.947368421052633
 40
0.947368421052633
 40
0.947368421052633
 40
0.947368421052633
 40
0.9649122807017558
 40
0.9649122807017558
 40
0.9649122807017558
 40
0.9649122807017558
 40
0.9824561403508787
 40
0.9824561403508787
 40
0.9824561403508787
 40
0.9824561403508787
 40
1.0
 40
1.0
 40
1.0
 40
1.0
 10
-2.3341100000000004
 20
0.23565
 30
0.0
 10
-2.1690100000000001
 20
0.34487
 30
0.0
 10
-2.6236700000000002
 20
0.4312300000000001
 30
0.0
 10
-2.65415
 20
0.5912500000000001
 30
0.0
 10
-2.65415
 20
0.5912500000000001
 30
0.0
 10
-2.1817100000000003
 20
0.57601
 30
0.0
 10
-1.7727700000000002
 20
1.0763900000000002
 30
0.0
 10
-1.7727700000000002
 20
1.2237100000000001
 30
0.0
 10
-1.7727700000000002
 20
1.2237100000000001
 30
0.0
 10
-1.7067300000000001
 20
1.06115
 30
0.0
 10
-1.8337300000000001
 20
0.8960500000000001
 30
0.0
 10
-1.92517
 20
0.74873
 30
0.0
 10
-1.92517
 20
0.74873
 30
0.0
 10
-2.18425
 20
0.63951
 30
0.0
 10
-2.2045700000000004
 20
0.51759
 30
0.0
 10
-1.9200900000000001
 20
0.6776100000000001
 30
0.0
 10
-1.9200900000000001
 20
0.6776100000000001
 30
0.0
 10
-1.29525
 20
1.0459100000000001
 30
0.0
 10
-1.6203700000000001
 20
1.44469
 30
0.0
 10
-2.1613900000000004
 20
1.8637900000000001
 30
0.0
 10
-2.1613900000000004
 20
1.8637900000000001
 30
0.0
 10
-2.1613900000000004
 20
2.2016100000000001
 30
0.0
 10
-2.0318500000000004
 20
2.4632300000000003
 30
0.0
 10
-1.7829300000000001
 20
2.7299300000000004
 30
0.0
 10
-1.7829300000000001
 20
2.7299300000000004
 30
0.0
 10
-1.7651500000000002
 20
2.5394300000000003
 30
0.0
 10
-1.9708900000000003
 20
2.3286100000000003
 30
0.0
 10
-1.8540500000000002
 20
2.1127100000000003
 30
0.0
 10
-1.8540500000000002
 20
2.1127100000000003
 30
0.0
 10
-1.67371
 20
1.9653900000000002
 30
0.0
 10
-1.6610100000000001
 20
2.1228700000000003
 30
0.0
 10
-1.7600700000000002
 20
2.2397100000000001
 30
0.0
 10
-1.7600700000000002
 20
2.2397100000000001
 30
0.0
 10
-1.8286500000000001
 20
2.8467700000000002
 30
0.0
 10
-1.1758700000000002
 20
3.0042500000000003
 30
0.0
 10
-0.9752100000000001
 20
3.5020900000000004
 30
0.0
 10
-0.9752100000000001
 20
3.5020900000000004
 30
0.0
 10
-0.6069100000000001
 20
3.4817700000000005
 30
0.0
 10
-0.00239
 20
3.9008700000000003
 30
0.0
 10
0.25668
 20
4.1777300000000004
 30
0.0
 10
0.25668
 20
4.1777300000000004
 30
0.0
 10
0.69864
 20
3.7916500000000002
 30
0.0
 10
1.2015600000000002
 20
3.6316300000000004
 30
0.0
 10
1.6333600000000001
 20
3.2074500000000001
 30
0.0
 10
1.6333600000000001
 20
3.2074500000000001
 30
0.0
 10
1.7476600000000002
 20
3.1769700000000003
 30
0.0
 10
1.7629000000000001
 20
3.3090500000000005
 30
0.0
 10
1.8314800000000002
 20
3.3192100000000004
 30
0.0
 10
1.8314800000000002
 20
3.3192100000000004
 30
0.0
 10
2.1947000000000001
 20
2.8162900000000004
 30
0.0
 10
2.6087200000000004
 20
2.7375500000000001
 30
0.0
 10
2.38266
 20
2.0619100000000001
 30
0.0
 10
2.38266
 20
2.0619100000000001
 30
0.0
 10
2.8322400000000001
 20
2.16351
 30
0.0
 10
2.3623400000000001
 20
2.8213700000000004
 30
0.0
 10
2.5096600000000002
 20
2.8924900000000004
 30
0.0
 10
2.5096600000000002
 20
2.8924900000000004
 30
0.0
 10
2.5096600000000002
 20
2.8924900000000004
 30
0.0
 10
2.8551000000000002
 20
2.0644500000000003
 30
0.0
 10
2.8551000000000002
 20
2.0644500000000003
 30
0.0
 10
2.8551000000000002
 20
2.0644500000000003
 30
0.0
 10
2.6468200000000004
 20
1.7418700000000003
 30
0.0
 10
2.2759800000000001
 20
1.3710300000000002
 30
0.0
 10
2.1820000000000004
 20
0.9951100000000001
 30
0.0
 10
2.1820000000000004
 20
0.9951100000000001
 30
0.0
 10
2.1820000000000004
 20
0.9951100000000001
 30
0.0
 10
2.2505800000000002
 20
0.9951100000000001
 30
0.0
 10
2.2505800000000002
 20
0.9951100000000001
 30
0.0
 10
2.2505800000000002
 20
0.9951100000000001
 30
0.0
 10
2.2378800000000001
 20
1.10433
 30
0.0
 10
2.7382600000000004
 20
0.4947300000000001
 30
0.0
 10
2.6696800000000001
 20
0.7563500000000001
 30
0.0
 10
2.6696800000000001
 20
0.7563500000000001
 30
0.0
 10
2.6696800000000001
 20
0.7563500000000001
 30
0.0
 10
2.4309200000000004
 20
0.9697100000000001
 30
0.0
 10
2.4309200000000004
 20
0.9697100000000001
 30
0.0
 10
2.4309200000000004
 20
0.9697100000000001
 30
0.0
 10
2.2658200000000002
 20
1.6021700000000001
 30
0.0
 10
2.9617800000000001
 20
0.4007500000000001
 30
0.0
 10
3.1903800000000002
 20
0.65729
 30
0.0
 10
3.1903800000000002
 20
0.65729
 30
0.0
 10
3.2056200000000001
 20
0.64205
 30
0.0
 10
3.2488000000000001
 20
0.6445900000000001
 30
0.0
 10
3.2335600000000002
 20
0.6115700000000001
 30
0.0
 10
3.2335600000000002
 20
0.6115700000000001
 30
0.0
 10
3.2335600000000002
 20
0.6115700000000001
 30
0.0
 10
3.1903800000000002
 20
0.46933
 30
0.0
 10
3.1903800000000002
 20
0.46933
 30
0.0
 10
3.1903800000000002
 20
0.46933
 30
0.0
 10
2.7027000000000001
 20
0.3372500000000001
 30
0.0
 10
2.8500200000000002
 20
0.11627
 30
0.0
 10
2.4944200000000003
 20
-0.07422
 30
0.0
 10
2.4944200000000003
 20
-0.07422
 30
0.0
 10
2.2455000000000003
 20
0.14675
 30
0.0
 10
1.69432
 20
0.38805
 30
0.0
 10
1.5952600000000001
 20
-0.05898
 30
0.0
 10
1.5952600000000001
 20
-0.05898
 30
0.0
 10
1.6587600000000002
 20
-0.36886
 30
0.0
 10
1.8594200000000001
 20
-0.6431800000000001
 30
0.0
 10
1.8746600000000002
 20
-0.9632200000000001
 30
0.0
 10
1.8746600000000002
 20
-0.9632200000000001
 30
0.0
 10
1.7451200000000002
 20
-1.12578
 30
0.0
 10
1.5647800000000001
 20
-1.3162800000000001
 30
0.0
 10
1.3819000000000001
 20
-1.16388
 30
0.0
 10
1.3819000000000001
 20
-1.16388
 30
0.0
 10
1.3234800000000002
 20
-2.4440400000000002
 30
0.0
 10
1.4454
 20
-2.3678400000000002
 30
0.0
 10
1.5139800000000001
 20
-3.2136600000000004
 30
0.0
 10
1.5139800000000001
 20
-3.2136600000000004
 30
0.0
 10
1.3869800000000001
 20
-3.1577800000000003
 30
0.0
 10
1.3539600000000001
 20
-3.2924000000000002
 30
0.0
 10
1.2955400000000001
 20
-3.3787600000000002
 30
0.0
 10
1.2955400000000001
 20
-3.3787600000000002
 30
0.0
 10
1.1710800000000001
 20
-3.2898600000000005
 30
0.0
 10
1.2295
 20
-3.1044400000000003
 30
0.0
 10
1.1406000000000001
 20
-3.0028400000000004
 30
0.0
 10
1.1406000000000001
 20
-3.0028400000000004
 30
0.0
 10
1.0110600000000001
 20
-3.0130000000000003
 30
0.0
 10
1.1329800000000001
 20
-3.1882600000000001
 30
0.0
 10
1.11266
 20
-3.2797000000000001
 30
0.0
 10
1.11266
 20
-3.2797000000000001
 30
0.0
 10
1.0390000000000001
 20
-3.5870400000000005
 30
0.0
 10
0.6884800000000001
 20
-3.7648400000000004
 30
0.0
 10
0.7545200000000001
 20
-3.2314400000000001
 30
0.0
 10
0.7545200000000001
 20
-3.2314400000000001
 30
0.0
 10
0.69864
 20
-3.1400000000000001
 30
0.0
 10
0.6834
 20
-3.2898600000000005
 30
0.0
 10
0.66054
 20
-3.3559000000000001
 30
0.0
 10
0.66054
 20
-3.3559000000000001
 30
0.0
 10
0.6300600000000001
 20
-3.4397200000000003
 30
0.0
 10
0.6224400000000001
 20
-3.5616400000000001
 30
0.0
 10
0.4624200000000001
 20
-3.6022800000000004
 30
0.0
 10
0.4624200000000001
 20
-3.6022800000000004
 30
0.0
 10
0.36336
 20
-3.4168600000000002
 30
0.0
 10
0.53608
 20
-3.1527000000000003
 30
0.0
 10
0.4167
 20
-3.0003000000000002
 30
0.0
 10
0.4167
 20
-3.0003000000000002
 30
0.0
 10
0.33796
 20
-2.9952200000000002
 30
0.0
 10
0.35828
 20
-3.1273000000000004
 30
0.0
 10
0.35828
 20
-3.1831800000000001
 30
0.0
 10
0.35828
 20
-3.1831800000000001
 30
0.0
 10
0.34304
 20
-3.6175200000000003
 30
0.0
 10
0.00268
 20
-3.6048200000000001
 30
0.0
 10
-0.06589
 20
-3.1857200000000003
 30
0.0
 10
-0.06589
 20
-3.1857200000000003
 30
0.0
 10
-0.07351
 20
-3.1450800000000001
 30
0.0
 10
-0.08875
 20
-2.9317200000000003
 30
0.0
 10
-0.13447
 20
-3.0536400000000001
 30
0.0
 10
-0.13447
 20
-3.0536400000000001
 30
0.0
 10
-0.13447
 20
-3.0536400000000001
 30
0.0
 10
-0.18019
 20
-3.2797000000000001
 30
0.0
 10
-0.18019
 20
-3.2797000000000001
 30
0.0
 10
-0.18019
 20
-3.2797000000000001
 30
0.0
 10
-0.51039
 20
-3.1831800000000001
 30
0.0
 10
-0.18781
 20
-2.8123400000000003
 30
0.0
 10
-0.28433
 20
-2.5761200000000004
 30
0.0
 10
-0.28433
 20
-2.5761200000000004
 30
0.0
 10
-0.4367300000000001
 20
-3.1171400000000005
 30
0.0
 10
-0.4494300000000001
 20
-2.4948400000000004
 30
0.0
 10
-0.3021100000000001
 20
-2.2459200000000004
 30
0.0
 10
-0.3021100000000001
 20
-2.2459200000000004
 30
0.0
 10
-0.12177
 20
-1.5398000000000001
 30
0.0
 10
0.0484
 20
-3.2035000000000005
 30
0.0
 10
0.1373
 20
-2.9672800000000001
 30
0.0
 10
0.1373
 20
-2.9672800000000001
 30
0.0
 10
0.1373
 20
-2.9672800000000001
 30
0.0
 10
0.32272
 20
-2.60914
 30
0.0
 10
0.32272
 20
-2.60914
 30
0.0
 10
0.32272
 20
-2.60914
 30
0.0
 10
0.38622
 20
-2.2560800000000003
 30
0.0
 10
0.6707000000000001
 20
-2.4948400000000004
 30
0.0
 10
0.7519800000000001
 20
-2.7082000000000002
 30
0.0
 10
0.7519800000000001
 20
-2.7082000000000002
 30
0.0
 10
0.8002400000000001
 20
-2.7920200000000004
 30
0.0
 10
0.8205600000000001
 20
-2.9190200000000002
 30
0.0
 10
0.912
 20
-2.9622000000000002
 30
0.0
 10
0.912
 20
-2.9622000000000002
 30
0.0
 10
1.2218800000000001
 20
-1.9995400000000001
 30
0.0
 10
0.9882000000000001
 20
-0.9403600000000001
 30
0.0
 10
0.7215
 20
-0.00056
 30
0.0
 10
0.7215
 20
-0.00056
 30
0.0
 10
0.6910200000000001
 20
-0.32568
 30
0.0
 10
0.8586600000000001
 20
-0.67366
 30
0.0
 10
0.61482
 20
-0.9632200000000001
 30
0.0
 10
0.61482
 20
-0.9632200000000001
 30
0.0
 10
0.4827400000000001
 20
-1.4077200000000001
 30
0.0
 10
0.21858
 20
-0.9987800000000001
 30
0.0
 10
0.1373
 20
-0.7651000000000001
 30
0.0
 10
0.1373
 20
-0.7651000000000001
 30
0.0
 10
-0.26147
 20
-0.4349
 30
0.0
 10
-0.11669
 20
-2.2713200000000002
 30
0.0
 10
-0.3224300000000001
 20
-1.4229600000000002
 30
0.0
 10
-0.3224300000000001
 20
-1.4229600000000002
 30
0.0
 10
-0.3224300000000001
 20
-1.4229600000000002
 30
0.0
 10
-0.3859300000000001
 20
-1.1308600000000002
 30
0.0
 10
-0.3859300000000001
 20
-1.1308600000000002
 30
0.0
 10
-0.3859300000000001
 20
-1.1308600000000002
 30
0.0
 10
-0.4900700000000001
 20
-1.1562600000000001
 30
0.0
 10
-0.4900700000000001
 20
-1.3493000000000002
 30
0.0
 10
-0.61453
 20
-1.3518400000000002
 30
0.0
 10
-0.61453
 20
-1.3518400000000002
 30
0.0
 10
-0.7694700000000001
 20
-1.2629400000000002
 30
0.0
 10
-0.8101100000000001
 20
-1.12578
 30
0.0
 10
-0.8812300000000001
 20
-0.9962400000000001
 30
0.0
 10
-0.8812300000000001
 20
-0.9962400000000001
 30
0.0
 10
-0.84567
 20
-0.65334
 30
0.0
 10
-0.37323
 20
-0.30282
 30
0.0
 10
-0.61453
 20
0.01721
 30
0.0
 10
-0.61453
 20
0.01721
 30
0.0
 10
-0.6729500000000001
 20
-0.04374
 30
0.0
 10
-0.5815100000000001
 20
-0.13518
 30
0.0
 10
-0.63993
 20
-0.20884
 30
0.0
 10
-0.63993
 20
-0.20884
 30
0.0
 10
-0.6627900000000001
 20
-0.26726
 30
0.0
 10
-0.7135900000000001
 20
-0.31552
 30
0.0
 10
-0.72121
 20
-0.22408
 30
0.0
 10
-0.72121
 20
-0.22408
 30
0.0
 10
-0.7313700000000001
 20
0.16199
 30
0.0
 10
-1.2444500000000001
 20
0.24581
 30
0.0
 10
-1.6102100000000001
 20
0.14929
 30
0.0
 10
-1.6102100000000001
 20
0.14929
 30
0.0
 10
-1.6102100000000001
 20
0.14929
 30
0.0
 10
-1.9785100000000002
 20
-0.14026
 30
0.0
 10
-1.9785100000000002
 20
-0.14026
 30
0.0
 10
-1.9785100000000002
 20
-0.14026
 30
0.0
 10
-2.1664700000000003
 20
-0.08946
 30
0.0
 10
-2.2020300000000002
 20
0.13405
 30
0.0
 10
-2.3341100000000004
 20
0.23565
 30
0.0
  0
SPLINE
  5
2C
100
AcDbEntity
  8
Ebene 1
100
AcDbSpline
210
0.0
220
0.0
230
1.0
 70
     1
 71
     3
 72
    24
 73
    20
 74
     0
 42
0.0000000001
 43
0.0000000001
 40
0.0
 40
0.0
 40
0.0
 40
0.0
 40
0.2
 40
0.2
 40
0.2
 40
0.2
 40
0.4
 40
0.4
 40
0.4
 40
0.4
 40
0.6000000000000001
 40
0.6000000000000001
 40
0.6000000000000001
 40
0.6000000000000001
 40
0.8
 40
0.8
 40
0.8
 40
0.8
 40
1.0
 40
1.0
 40
1.0
 40
1.0
 10
-0.70089
 20
2.8137500000000002
 30
0.0
 10
-0.5027700000000001
 20
2.7756500000000002
 30
0.0
 10
-0.37831
 20
2.6003900000000004
 30
0.0
 10
-0.20051
 20
2.5191100000000004
 30
0.0
 10
-0.20051
 20
2.5191100000000004
 30
0.0
 10
-0.13193
 20
2.5445100000000003
 30
0.0
 10
-0.10907
 20
2.6080100000000002
 30
0.0
 10
-0.09637
 20
2.6613500000000001
 30
0.0
 10
-0.09637
 20
2.6613500000000001
 30
0.0
 10
-0.09637
 20
2.6613500000000001
 30
0.0
 10
-0.04557
 20
2.6613500000000001
 30
0.0
 10
-0.04557
 20
2.6613500000000001
 30
0.0
 10
-0.04557
 20
2.6613500000000001
 30
0.0
 10
-0.07605
 20
2.5064100000000002
 30
0.0
 10
-0.04049
 20
2.33623
 30
0.0
 10
0.01284
 20
2.1939900000000003
 30
0.0
 10
0.01284
 20
2.1939900000000003
 30
0.0
 10
-0.23353
 20
2.3768700000000003
 30
0.0
 10
-0.52817
 20
2.5749900000000001
 30
0.0
 10
-0.70089
 20
2.8137500000000002
 30
0.0
  0
SPLINE
  5
2D
100
AcDbEntity
  8
Ebene 1
100
AcDbSpline
210
0.0
220
0.0
230
1.0
 70
     1
 71
     3
 72
    20
 73
    16
 74
     0
 42
0.0000000001
 43
0.0000000001
 40
0.0
 40
0.0
 40
0.0
 40
0.0
 40
0.25
 40
0.25
 40
0.25
 40
0.25
 40
0.5
 40
0.5
 40
0.5
 40
0.5
 40
0.75
 40
0.75
 40
0.75
 40
0.75
 40
1.0
 40
1.0
 40
1.0
 40
1.0
 10
1.0567800000000001
 20
2.4530700000000003
 30
0.0
 10
1.0720200000000002
 20
2.4505300000000001
 30
0.0
 10
1.0923400000000001
 20
2.4378300000000004
 30
0.0
 10
1.0923400000000001
 20
2.4251300000000002
 30
0.0
 10
1.0923400000000001
 20
2.4251300000000002
 30
0.0
 10
0.8967600000000001
 20
2.2397100000000001
 30
0.0
 10
0.80532
 20
2.00603
 30
0.0
 10
0.70118
 20
1.8002900000000002
 30
0.0
 10
0.70118
 20
1.8002900000000002
 30
0.0
 10
0.6834
 20
1.9450700000000001
 30
0.0
 10
0.6478400000000001
 20
2.1076300000000003
 30
0.0
 10
0.70118
 20
2.2524100000000002
 30
0.0
 10
0.70118
 20
2.2524100000000002
 30
0.0
 10
0.8231000000000001
 20
2.1127100000000003
 30
0.0
 10
0.9247000000000001
 20
2.4022700000000001
 30
0.0
 10
1.0567800000000001
 20
2.4530700000000003
 30
0.0
  0
SPLINE
  5
2E
100
AcDbEntity
  8
Ebene 1
100
AcDbSpline
210
0.0
220
0.0
230
1.0
 70
     1
 71
     3
 72
    60
 73
    56
 74
     0
 42
0.0000000001
 43
0.0000000001
 40
0.0
 40
0.0
 40
0.0
 40
0.0
 40
0.0714285714285714
 40
0.0714285714285714
 40
0.0714285714285714
 40
0.0714285714285714
 40
0.1428571428571429
 40
0.1428571428571429
 40
0.1428571428571429
 40
0.1428571428571429
 40
0.2142857142857143
 40
0.2142857142857143
 40
0.2142857142857143
 40
0.2142857142857143
 40
0.2857142857142857
 40
0.2857142857142857
 40
0.2857142857142857
 40
0.2857142857142857
 40
0.3571428571428571
 40
0.3571428571428571
 40
0.3571428571428571
 40
0.3571428571428571
 40
0.4285714285714285
 40
0.4285714285714285
 40
0.4285714285714285
 40
0.4285714285714285
 40
0.4999999999999999
 40
0.4999999999999999
 40
0.4999999999999999
 40
0.4999999999999999
 40
0.5714285714285713
 40
0.5714285714285713
 40
0.5714285714285713
 40
0.5714285714285713
 40
0.6428571428571427
 40
0.6428571428571427
 40
0.6428571428571427
 40
0.6428571428571427
 40
0.7142857142857141
 40
0.7142857142857141
 40
0.7142857142857141
 40
0.7142857142857141
 40
0.7857142857142855
 40
0.7857142857142855
 40
0.7857142857142855
 40
0.7857142857142855
 40
0.8571428571428569
 40
0.8571428571428569
 40
0.8571428571428569
 40
0.8571428571428569
 40
0.9285714285714283
 40
0.9285714285714283
 40
0.9285714285714283
 40
0.9285714285714283
 40
1.0
 40
1.0
 40
1.0
 40
1.0
 10
-1.5416300000000001
 20
2.12541
 30
0.0
 10
-1.12507
 20
2.0415900000000002
 30
0.0
 10
-0.9980700000000001
 20
1.6047100000000001
 30
0.0
 10
-0.70089
 20
1.3837300000000001
 30
0.0
 10
-0.70089
 20
1.3837300000000001
 30
0.0
 10
-0.59167
 20
1.3862700000000001
 30
0.0
 10
-0.54849
 20
1.52851
 30
0.0
 10
-0.42403
 20
1.4954900000000002
 30
0.0
 10
-0.42403
 20
1.4954900000000002
 30
0.0
 10
-0.75931
 20
1.2846700000000002
 30
0.0
 10
-0.39101
 20
1.02813
 30
0.0
 10
-0.21575
 20
0.84779
 30
0.0
 10
-0.21575
 20
0.84779
 30
0.0
 10
-0.05573
 20
0.87065
 30
0.0
 10
0.0611
 20
1.0484500000000001
 30
0.0
 10
0.2516000000000001
 20
1.01797
 30
0.0
 10
0.2516000000000001
 20
1.01797
 30
0.0
 10
0.29732
 20
0.8020700000000001
 30
0.0
 10
0.27192
 20
0.53537
 30
0.0
 10
0.22366
 20
0.3372500000000001
 30
0.0
 10
0.22366
 20
0.3372500000000001
 30
0.0
 10
0.22366
 20
0.3372500000000001
 30
0.0
 10
0.17794
 20
0.6776100000000001
 30
0.0
 10
0.17794
 20
0.6776100000000001
 30
0.0
 10
0.17794
 20
0.6776100000000001
 30
0.0
 10
0.14746
 20
0.7538100000000001
 30
0.0
 10
0.1373
 20
0.85033
 30
0.0
 10
0.0357
 20
0.89097
 30
0.0
 10
0.0357
 20
0.89097
 30
0.0
 10
-0.08621
 20
0.7919100000000001
 30
0.0
 10
-0.26147
 20
0.70301
 30
0.0
 10
-0.36053
 20
0.8579500000000001
 30
0.0
 10
-0.36053
 20
0.8579500000000001
 30
0.0
 10
-0.6297700000000001
 20
0.66491
 30
0.0
 10
-1.0691900000000001
 20
0.6699900000000001
 30
0.0
 10
-1.3155700000000001
 20
0.91383
 30
0.0
 10
-1.3155700000000001
 20
0.91383
 30
0.0
 10
-1.33335
 20
0.9417700000000001
 30
0.0
 10
-1.3155700000000001
 20
0.9925700000000001
 30
0.0
 10
-1.2647700000000002
 20
0.9697100000000001
 30
0.0
 10
-1.2647700000000002
 20
0.9697100000000001
 30
0.0
 10
-1.2647700000000002
 20
0.9697100000000001
 30
0.0
 10
-1.0742700000000001
 20
0.9392300000000001
 30
0.0
 10
-1.0742700000000001
 20
0.9392300000000001
 30
0.0
 10
-1.0742700000000001
 20
0.9392300000000001
 30
0.0
 10
-1.37399
 20
1.2541900000000001
 30
0.0
 10
-1.4070100000000001
 20
1.6631300000000002
 30
0.0
 10
-1.46289
 20
2.03905
 30
0.0
 10
-1.46289
 20
2.03905
 30
0.0
 10
-1.5670300000000001
 20
2.0314300000000003
 30
0.0
 10
-1.6076700000000002
 20
1.8256900000000003
 30
0.0
 10
-1.7194300000000002
 20
1.8764900000000002
 30
0.0
 10
-1.7194300000000002
 20
1.8764900000000002
 30
0.0
 10
-1.7092700000000001
 20
1.9730100000000002
 30
0.0
 10
-1.6127500000000001
 20
2.04921
 30
0.0
 10
-1.5416300000000001
 20
2.12541
 30
0.0
  0
SPLINE
  5
2F
100
AcDbEntity
  8
Ebene 1
100
AcDbSpline
210
0.0
220
0.0
230
1.0
 70
     1
 71
     3
 72
    48
 73
    44
 74
     0
 42
0.0000000001
 43
0.0000000001
 40
0.0
 40
0.0
 40
0.0
 40
0.0
 40
0.0909090909090909
 40
0.0909090909090909
 40
0.0909090909090909
 40
0.0909090909090909
 40
0.1818181818181818
 40
0.1818181818181818
 40
0.1818181818181818
 40
0.1818181818181818
 40
0.2727272727272727
 40
0.2727272727272727
 40
0.2727272727272727
 40
0.2727272727272727
 40
0.3636363636363637
 40
0.3636363636363637
 40
0.3636363636363637
 40
0.3636363636363637
 40
0.4545454545454546
 40
0.4545454545454546
 40
0.4545454545454546
 40
0.4545454545454546
 40
0.5454545454545455
 40
0.5454545454545455
 40
0.5454545454545455
 40
0.5454545454545455
 40
0.6363636363636365
 40
0.6363636363636365
 40
0.6363636363636365
 40
0.6363636363636365
 40
0.7272727272727274
 40
0.7272727272727274
 40
0.7272727272727274
 40
0.7272727272727274
 40
0.8181818181818183
 40
0.8181818181818183
 40
0.8181818181818183
 40
0.8181818181818183
 40
0.9090909090909093
 40
0.9090909090909093
 40
0.9090909090909093
 40
0.9090909090909093
 40
1.0
 40
1.0
 40
1.0
 40
1.0
 10
2.0550000000000002
 20
2.0898500000000002
 30
0.0
 10
2.0550000000000002
 20
2.0898500000000002
 30
0.0
 10
2.4512400000000003
 20
1.9730100000000002
 30
0.0
 10
2.4512400000000003
 20
1.9730100000000002
 30
0.0
 10
2.4512400000000003
 20
1.9730100000000002
 30
0.0
 10
2.4080600000000003
 20
1.8866500000000002
 30
0.0
 10
2.29122
 20
2.01111
 30
0.0
 10
2.2404200000000003
 20
1.9552300000000002
 30
0.0
 10
2.2404200000000003
 20
1.9552300000000002
 30
0.0
 10
2.1972400000000003
 20
1.6453500000000001
 30
0.0
 10
2.1362800000000002
 20
1.3430900000000001
 30
0.0
 10
2.0499200000000002
 20
1.0433700000000001
 30
0.0
 10
2.0499200000000002
 20
1.0433700000000001
 30
0.0
 10
1.8162400000000001
 20
0.82747
 30
0.0
 10
1.48604
 20
0.64205
 30
0.0
 10
1.15076
 20
0.8401700000000001
 30
0.0
 10
1.15076
 20
0.8401700000000001
 30
0.0
 10
1.0364600000000002
 20
0.74873
 30
0.0
 10
0.8866000000000001
 20
0.78937
 30
0.0
 10
0.76214
 20
0.8223900000000001
 30
0.0
 10
0.76214
 20
0.8223900000000001
 30
0.0
 10
0.6199
 20
0.68523
 30
0.0
 10
0.7799200000000001
 20
0.39313
 30
0.0
 10
0.64276
 20
0.30423
 30
0.0
 10
0.64276
 20
0.30423
 30
0.0
 10
0.64276
 20
0.30423
 30
0.0
 10
0.5818000000000001
 20
1.0357500000000002
 30
0.0
 10
0.5818000000000001
 20
1.0357500000000002
 30
0.0
 10
0.5818000000000001
 20
1.0357500000000002
 30
0.0
 10
0.74436
 20
1.0535300000000001
 30
0.0
 10
0.7951600000000001
 20
0.82747
 30
0.0
 10
0.9755
 20
0.8427100000000001
 30
0.0
 10
0.9755
 20
0.8427100000000001
 30
0.0
 10
1.3336400000000002
 20
1.1221100000000002
 30
0.0
 10
1.4987400000000002
 20
1.6047100000000001
 30
0.0
 10
1.52922
 20
2.0136500000000002
 30
0.0
 10
1.52922
 20
2.0136500000000002
 30
0.0
 10
1.6994000000000002
 20
2.0847700000000002
 30
0.0
 10
1.5546200000000001
 20
1.7571100000000002
 30
0.0
 10
1.6003400000000001
 20
1.6859900000000001
 30
0.0
 10
1.6003400000000001
 20
1.6859900000000001
 30
0.0
 10
1.7425800000000002
 20
1.8180700000000001
 30
0.0
 10
1.8645
 20
1.9907900000000001
 30
0.0
 10
2.0550000000000002
 20
2.0898500000000002
 30
0.0
  0
SPLINE
  5
30
100
AcDbEntity
  8
Ebene 1
100
AcDbSpline
210
0.0
220
0.0
230
1.0
 70
     1
 71
     3
 72
    12
 73
     8
 74
     0
 42
0.0000000001
 43
0.0000000001
 40
0.0
 40
0.0
 40
0.0
 40
0.0
 40
0.5
 40
0.5
 40
0.5
 40
0.5
 40
1.0
 40
1.0
 40
1.0
 40
1.0
 10
0.29732
 20
2.0085700000000002
 30
0.0
 10
0.43702
 20
1.9603100000000002
 30
0.0
 10
0.57418
 20
1.6047100000000001
 30
0.0
 10
0.3532
 20
1.1703700000000001
 30
0.0
 10
0.3532
 20
1.1703700000000001
 30
0.0
 10
0.3532
 20
1.1703700000000001
 30
0.0
 10
0.29732
 20
2.0085700000000002
 30
0.0
 10
0.29732
 20
2.0085700000000002
 30
0.0
  0
SPLINE
  5
31
100
AcDbEntity
  8
Ebene 1
100
AcDbSpline
210
0.0
220
0.0
230
1.0
 70
     1
 71
     3
 72
    24
 73
    20
 74
     0
 42
0.0000000001
 43
0.0000000001
 40
0.0
 40
0.0
 40
0.0
 40
0.0
 40
0.2
 40
0.2
 40
0.2
 40
0.2
 40
0.4
 40
0.4
 40
0.4
 40
0.4
 40
0.6000000000000001
 40
0.6000000000000001
 40
0.6000000000000001
 40
0.6000000000000001
 40
0.8
 40
0.8
 40
0.8
 40
0.8
 40
1.0
 40
1.0
 40
1.0
 40
1.0
 10
-1.3612900000000001
 20
0.39821
 30
0.0
 10
-1.1961900000000001
 20
0.42869
 30
0.0
 10
-1.12507
 20
0.28899
 30
0.0
 10
-0.9802900000000001
 20
0.25089
 30
0.0
 10
-0.9802900000000001
 20
0.25089
 30
0.0
 10
-0.9193300000000001
 20
0.25089
 30
0.0
 10
-0.8202700000000001
 20
0.13913
 30
0.0
 10
-0.9345700000000001
 20
0.15691
 30
0.0
 10
-0.9345700000000001
 20
0.15691
 30
0.0
 10
-1.2317500000000001
 20
0.39821
 30
0.0
 10
-1.62799
 20
0.21533
 30
0.0
 10
-1.9327900000000002
 20
0.09087
 30
0.0
 10
-1.9327900000000002
 20
0.09087
 30
0.0
 10
-1.9454900000000002
 20
0.18739
 30
0.0
 10
-1.7880100000000001
 20
0.20263
 30
0.0
 10
-1.71435
 20
0.24835
 30
0.0
 10
-1.71435
 20
0.24835
 30
0.0
 10
-1.5924300000000002
 20
0.28137
 30
0.0
 10
-1.4578100000000001
 20
0.33217
 30
0.0
 10
-1.3612900000000001
 20
0.39821
 30
0.0
  0
SPLINE
  5
32
100
AcDbEntity
  8
Ebene 1
100
AcDbSpline
210
0.0
220
0.0
230
1.0
 70
     1
 71
     3
 72
    28
 73
    24
 74
     0
 42
0.0000000001
 43
0.0000000001
 40
0.0
 40
0.0
 40
0.0
 40
0.0
 40
0.1666666666666667
 40
0.1666666666666667
 40
0.1666666666666667
 40
0.1666666666666667
 40
0.3333333333333333
 40
0.3333333333333333
 40
0.3333333333333333
 40
0.3333333333333333
 40
0.5
 40
0.5
 40
0.5
 40
0.5
 40
0.6666666666666666
 40
0.6666666666666666
 40
0.6666666666666666
 40
0.6666666666666666
 40
0.8333333333333333
 40
0.8333333333333333
 40
0.8333333333333333
 40
0.8333333333333333
 40
1.0
 40
1.0
 40
1.0
 40
1.0
 10
1.7146400000000002
 20
0.3804300000000001
 30
0.0
 10
1.9102200000000003
 20
0.38805
 30
0.0
 10
2.0600800000000001
 20
0.29915
 30
0.0
 10
2.2302600000000004
 20
0.23057
 30
0.0
 10
2.2302600000000004
 20
0.23057
 30
0.0
 10
2.2302600000000004
 20
0.23057
 30
0.0
 10
2.29122
 20
0.19755
 30
0.0
 10
2.29122
 20
0.19755
 30
0.0
 10
2.29122
 20
0.19755
 30
0.0
 10
2.3852000000000002
 20
0.17469
 30
0.0
 10
2.3902800000000002
 20
0.11627
 30
0.0
 10
2.2759800000000001
 20
0.13405
 30
0.0
 10
2.2759800000000001
 20
0.13405
 30
0.0
 10
2.0651600000000001
 20
0.26613
 30
0.0
 10
1.7629000000000001
 20
0.35503
 30
0.0
 10
1.5724
 20
0.15691
 30
0.0
 10
1.5724
 20
0.15691
 30
0.0
 10
1.5724
 20
0.15691
 30
0.0
 10
1.5216000000000001
 20
0.15691
 30
0.0
 10
1.5216000000000001
 20
0.15691
 30
0.0
 10
1.5216000000000001
 20
0.15691
 30
0.0
 10
1.5089000000000001
 20
0.26105
 30
0.0
 10
1.6765400000000001
 20
0.29661
 30
0.0
 10
1.7146400000000002
 20
0.3804300000000001
 30
0.0
  0
SPLINE
  5
33
100
AcDbEntity
  8
Ebene 1
100
AcDbSpline
210
0.0
220
0.0
230
1.0
 70
     1
 71
     3
 72
    20
 73
    16
 74
     0
 42
0.0000000001
 43
0.0000000001
 40
0.0
 40
0.0
 40
0.0
 40
0.0
 40
0.25
 40
0.25
 40
0.25
 40
0.25
 40
0.5
 40
0.5
 40
0.5
 40
0.5
 40
0.75
 40
0.75
 40
0.75
 40
0.75
 40
1.0
 40
1.0
 40
1.0
 40
1.0
 10
0.17794
 20
0.07055
 30
0.0
 10
0.19064
 20
0.07055
 30
0.0
 10
0.22112
 20
0.07309
 30
0.0
 10
0.21604
 20
0.05277
 30
0.0
 10
0.21604
 20
0.05277
 30
0.0
 10
0.21604
 20
0.05277
 30
0.0
 10
0.07126
 20
-0.53142
 30
0.0
 10
0.07126
 20
-0.53142
 30
0.0
 10
0.07126
 20
-0.53142
 30
0.0
 10
0.07126
 20
-0.53142
 30
0.0
 10
0.00268
 20
-0.53142
 30
0.0
 10
0.00268
 20
-0.53142
 30
0.0
 10
0.00268
 20
-0.53142
 30
0.0
 10
0.00268
 20
-0.53142
 30
0.0
 10
0.17794
 20
0.07055
 30
0.0
 10
0.17794
 20
0.07055
 30
0.0
  0
SPLINE
  5
34
100
AcDbEntity
  8
Ebene 1
100
AcDbSpline
210
0.0
220
0.0
230
1.0
 70
     1
 71
     3
 72
    16
 73
    12
 74
     0
 42
0.0000000001
 43
0.0000000001
 40
0.0
 40
0.0
 40
0.0
 40
0.0
 40
0.3333333333333333
 40
0.3333333333333333
 40
0.3333333333333333
 40
0.3333333333333333
 40
0.6666666666666666
 40
0.6666666666666666
 40
0.6666666666666666
 40
0.6666666666666666
 40
1.0
 40
1.0
 40
1.0
 40
1.0
 10
1.5546200000000001
 20
-0.6025400000000001
 30
0.0
 10
1.4835
 20
-0.4374400000000001
 30
0.0
 10
1.2015600000000002
 20
-0.1047
 30
0.0
 10
1.4911200000000002
 20
-0.00056
 30
0.0
 10
1.4911200000000002
 20
-0.00056
 30
0.0
 10
1.4911200000000002
 20
-0.00056
 30
0.0
 10
1.4962000000000002
 20
-0.05898
 30
0.0
 10
1.4962000000000002
 20
-0.05898
 30
0.0
 10
1.4962000000000002
 20
-0.05898
 30
0.0
 10
1.3666600000000002
 20
-0.23424
 30
0.0
 10
1.5825600000000002
 20
-0.4095
 30
0.0
 10
1.5546200000000001
 20
-0.6025400000000001
 30
0.0
  0
SPLINE
  5
35
100
AcDbEntity
  8
Ebene 1
 62
     7
100
AcDbSpline
210
0.0
220
0.0
230
1.0
 70
     1
 71
     3
 72
    28
 73
    24
 74
     0
 42
0.0000000001
 43
0.0000000001
 40
0.0
 40
0.0
 40
0.0
 40
0.0
 40
0.1666666666666667
 40
0.1666666666666667
 40
0.1666666666666667
 40
0.1666666666666667
 40
0.3333333333333333
 40
0.3333333333333333
 40
0.3333333333333333
 40
0.3333333333333333
 40
0.5
 40
0.5
 40
0.5
 40
0.5
 40
0.6666666666666666
 40
0.6666666666666666
 40
0.6666666666666666
 40
0.6666666666666666
 40
0.8333333333333333
 40
0.8333333333333333
 40
0.8333333333333333
 40
0.8333333333333333
 40
1.0
 40
1.0
 40
1.0
 40
1.0
 10
-0.44181
 20
-2.39324
 30
0.0
 10
-0.46213
 20
-2.4872200000000002
 30
0.0
 10
-0.42149
 20
-2.6980400000000002
 30
0.0
 10
-0.59421
 20
-2.6675600000000004
 30
0.0
 10
-0.59421
 20
-2.6675600000000004
 30
0.0
 10
-0.59421
 20
-2.6675600000000004
 30
0.0
 10
-0.6196100000000001
 20
-2.4592800000000001
 30
0.0
 10
-0.6196100000000001
 20
-2.4592800000000001
 30
0.0
 10
-0.6196100000000001
 20
-2.4592800000000001
 30
0.0
 10
-0.7999500000000001
 20
-2.3094200000000003
 30
0.0
 10
-0.49769
 20
-2.13924
 30
0.0
 10
-0.3859300000000001
 20
-2.0173200000000002
 30
0.0
 10
-0.3859300000000001
 20
-2.0173200000000002
 30
0.0
 10
-0.34783
 20
-2.0376400000000001
 30
0.0
 10
-0.36053
 20
-2.0732000000000004
 30
0.0
 10
-0.38085
 20
-2.09606
 30
0.0
 10
-0.38085
 20
-2.09606
 30
0.0
 10
-0.38085
 20
-2.09606
 30
0.0
 10
-0.5408700000000001
 20
-2.4262600000000001
 30
0.0
 10
-0.5408700000000001
 20
-2.4262600000000001
 30
0.0
 10
-0.5408700000000001
 20
-2.4262600000000001
 30
0.0
 10
-0.5408700000000001
 20
-2.4262600000000001
 30
0.0
 10
-0.44181
 20
-2.39324
 30
0.0
 10
-0.44181
 20
-2.39324
 30
0.0
  0
SPLINE
  5
36
100
AcDbEntity
  8
Ebene 1
 62
     7
100
AcDbSpline
210
0.0
220
0.0
230
1.0
 70
     1
 71
     3
 72
    16
 73
    12
 74
     0
 42
0.0000000001
 43
0.0000000001
 40
0.0
 40
0.0
 40
0.0
 40
0.0
 40
0.3333333333333333
 40
0.3333333333333333
 40
0.3333333333333333
 40
0.3333333333333333
 40
0.6666666666666666
 40
0.6666666666666666
 40
0.6666666666666666
 40
0.6666666666666666
 40
1.0
 40
1.0
 40
1.0
 40
1.0
 10
1.4758800000000001
 20
-2.01478
 30
0.0
 10
1.6105
 20
-2.13924
 30
0.0
 10
1.8645
 20
-2.3195800000000002
 30
0.0
 10
1.6333600000000001
 20
-2.4745200000000001
 30
0.0
 10
1.6333600000000001
 20
-2.4745200000000001
 30
0.0
 10
1.5876400000000002
 20
-2.3526000000000002
 30
0.0
 10
1.3031600000000001
 20
-2.1951200000000002
 30
0.0
 10
1.4708000000000001
 20
-2.0605000000000002
 30
0.0
 10
1.4708000000000001
 20
-2.0605000000000002
 30
0.0
 10
1.4708000000000001
 20
-2.0605000000000002
 30
0.0
 10
1.4758800000000001
 20
-2.01478
 30
0.0
 10
1.4758800000000001
 20
-2.01478
 30
0.0
  0
SPLINE
  5
37
100
AcDbEntity
  8
Ebene 1
 62
     7
100
AcDbSpline
210
0.0
220
0.0
230
1.0
 70
     1
 71
     3
 72
    12
 73
     8
 74
     0
 42
0.0000000001
 43
0.0000000001
 40
0.0
 40
0.0
 40
0.0
 40
0.0
 40
0.5
 40
0.5
 40
0.5
 40
0.5
 40
1.0
 40
1.0
 40
1.0
 40
1.0
 10
-0.73899
 20
-2.5075400000000001
 30
0.0
 10
-0.67803
 20
-2.5913600000000003
 30
0.0
 10
-0.65771
 20
-2.8047200000000001
 30
0.0
 10
-0.8151900000000001
 20
-2.8326600000000002
 30
0.0
 10
-0.8151900000000001
 20
-2.8326600000000002
 30
0.0
 10
-0.8126500000000001
 20
-2.7234400000000001
 30
0.0
 10
-0.8101100000000001
 20
-2.60406
 30
0.0
 10
-0.73899
 20
-2.5075400000000001
 30
0.0
  0
SPLINE
  5
38
100
AcDbEntity
  8
Ebene 1
 62
     7
100
AcDbSpline
210
0.0
220
0.0
230
1.0
 70
     1
 71
     3
 72
    12
 73
     8
 74
     0
 42
0.0000000001
 43
0.0000000001
 40
0.0
 40
0.0
 40
0.0
 40
0.0
 40
0.5
 40
0.5
 40
0.5
 40
0.5
 40
1.0
 40
1.0
 40
1.0
 40
1.0
 10
-0.6018300000000001
 20
-2.7717000000000001
 30
0.0
 10
-0.3656100000000001
 20
-2.8123400000000003
 30
0.0
 10
-0.41895
 20
-3.1527000000000003
 30
0.0
 10
-0.57389
 20
-3.2593800000000002
 30
0.0
 10
-0.57389
 20
-3.2593800000000002
 30
0.0
 10
-0.63485
 20
-3.11206
 30
0.0
 10
-0.65517
 20
-2.9215600000000004
 30
0.0
 10
-0.6018300000000001
 20
-2.7717000000000001
 30
0.0
  0
SPLINE
  5
39
100
AcDbEntity
  8
Ebene 1
 62
     7
100
AcDbSpline
210
0.0
220
0.0
230
1.0
 70
     1
 71
     3
 72
    20
 73
    16
 74
     0
 42
0.0000000001
 43
0.0000000001
 40
0.0
 40
0.0
 40
0.0
 40
0.0
 40
0.25
 40
0.25
 40
0.25
 40
0.25
 40
0.5
 40
0.5
 40
0.5
 40
0.5
 40
0.75
 40
0.75
 40
0.75
 40
0.75
 40
1.0
 40
1.0
 40
1.0
 40
1.0
 10
-0.3021100000000001
 20
-3.3127200000000001
 30
0.0
 10
-0.24623
 20
-3.3000200000000004
 30
0.0
 10
-0.21829
 20
-3.3406600000000002
 30
0.0
 10
-0.18527
 20
-3.3660600000000005
 30
0.0
 10
-0.18527
 20
-3.3660600000000005
 30
0.0
 10
-0.16749
 20
-3.6276800000000002
 30
0.0
 10
-0.22337
 20
-3.9299400000000002
 30
0.0
 10
-0.35545
 20
-4.1636200000000008
 30
0.0
 10
-0.35545
 20
-4.1636200000000008
 30
0.0
 10
-0.4291100000000001
 20
-3.8994600000000004
 30
0.0
 10
-0.30973
 20
-3.6353000000000004
 30
0.0
 10
-0.3427500000000001
 20
-3.3609800000000001
 30
0.0
 10
-0.3427500000000001
 20
-3.3609800000000001
 30
0.0
 10
-0.3427500000000001
 20
-3.3609800000000001
 30
0.0
 10
-0.3021100000000001
 20
-3.3127200000000001
 30
0.0
 10
-0.3021100000000001
 20
-3.3127200000000001
 30
0.0
  0
SPLINE
  5
3A
100
AcDbEntity
  8
Ebene 1
 62
     7
100
AcDbSpline
210
0.0
220
0.0
230
1.0
 70
     1
 71
     3
 72
    12
 73
     8
 74
     0
 42
0.0000000001
 43
0.0000000001
 40
0.0
 40
0.0
 40
0.0
 40
0.0
 40
0.5
 40
0.5
 40
0.5
 40
0.5
 40
1.0
 40
1.0
 40
1.0
 40
1.0
 10
1.4962000000000002
 20
-3.3457400000000002
 30
0.0
 10
1.5978000000000001
 20
-3.4879800000000003
 30
0.0
 10
1.5825600000000002
 20
-3.6048200000000001
 30
0.0
 10
1.5012800000000002
 20
-3.8156400000000001
 30
0.0
 10
1.5012800000000002
 20
-3.8156400000000001
 30
0.0
 10
1.40476
 20
-3.6683200000000005
 30
0.0
 10
1.4174600000000002
 20
-3.5210000000000004
 30
0.0
 10
1.4962000000000002
 20
-3.3457400000000002
 30
0.0
  0
SPLINE
  5
3B
100
AcDbEntity
  8
Ebene 1
 62
     7
100
AcDbSpline
210
0.0
220
0.0
230
1.0
 70
     1
 71
     3
 72
    16
 73
    12
 74
     0
 42
0.0000000001
 43
0.0000000001
 40
0.0
 40
0.0
 40
0.0
 40
0.0
 40
0.3333333333333333
 40
0.3333333333333333
 40
0.3333333333333333
 40
0.3333333333333333
 40
0.6666666666666666
 40
0.6666666666666666
 40
0.6666666666666666
 40
0.6666666666666666
 40
1.0
 40
1.0
 40
1.0
 40
1.0
 10
-0.04049
 20
-3.5108400000000004
 30
0.0
 10
0.023
 20
-3.5362400000000003
 30
0.0
 10
0.06364
 20
-3.6226000000000003
 30
0.0
 10
0.1119
 20
-3.6784800000000004
 30
0.0
 10
0.1119
 20
-3.6784800000000004
 30
0.0
 10
0.17794
 20
-4.1255200000000007
 30
0.0
 10
0.1627
 20
-4.5954200000000007
 30
0.0
 10
0.07126
 20
-5.03484
 30
0.0
 10
0.07126
 20
-5.03484
 30
0.0
 10
-0.09129
 20
-4.5700200000000004
 30
0.0
 10
-0.10653
 20
-4.0036000000000005
 30
0.0
 10
-0.04049
 20
-3.5108400000000004
 30
0.0
  0
SPLINE
  5
3C
100
AcDbEntity
  8
Ebene 1
 62
     7
100
AcDbSpline
210
0.0
220
0.0
230
1.0
 70
     1
 71
     3
 72
    16
 73
    12
 74
     0
 42
0.0000000001
 43
0.0000000001
 40
0.0
 40
0.0
 40
0.0
 40
0.0
 40
0.3333333333333333
 40
0.3333333333333333
 40
0.3333333333333333
 40
0.3333333333333333
 40
0.6666666666666666
 40
0.6666666666666666
 40
0.6666666666666666
 40
0.6666666666666666
 40
1.0
 40
1.0
 40
1.0
 40
1.0
 10
0.277
 20
-3.5438600000000005
 30
0.0
 10
0.32272
 20
-3.5667200000000001
 30
0.0
 10
0.3659
 20
-3.6048200000000001
 30
0.0
 10
0.39384
 20
-3.6454600000000004
 30
0.0
 10
0.39384
 20
-3.6454600000000004
 30
0.0
 10
0.4090800000000001
 20
-3.9401000000000002
 30
0.0
 10
0.46496
 20
-4.2728400000000004
 30
0.0
 10
0.37352
 20
-4.5573200000000007
 30
0.0
 10
0.37352
 20
-4.5573200000000007
 30
0.0
 10
0.26938
 20
-4.2347400000000004
 30
0.0
 10
0.17286
 20
-3.8740600000000005
 30
0.0
 10
0.277
 20
-3.5438600000000005
 30
0.0
  0
SPLINE
  5
3D
100
AcDbEntity
  8
Ebene 1
 62
     7
100
AcDbSpline
210
0.0
220
0.0
230
1.0
 70
     1
 71
     3
 72
    20
 73
    16
 74
     0
 42
0.0000000001
 43
0.0000000001
 40
0.0
 40
0.0
 40
0.0
 40
0.0
 40
0.25
 40
0.25
 40
0.25
 40
0.25
 40
0.5
 40
0.5
 40
0.5
 40
0.5
 40
0.75
 40
0.75
 40
0.75
 40
0.75
 40
1.0
 40
1.0
 40
1.0
 40
1.0
 10
0.63514
 20
-3.5438600000000005
 30
0.0
 10
0.63514
 20
-3.5438600000000005
 30
0.0
 10
0.7519800000000001
 20
-3.5794200000000003
 30
0.0
 10
0.7519800000000001
 20
-3.5794200000000003
 30
0.0
 10
0.7519800000000001
 20
-3.5794200000000003
 30
0.0
 10
0.785
 20
-4.1458400000000006
 30
0.0
 10
0.8535800000000001
 20
-4.7325800000000005
 30
0.0
 10
0.8104000000000001
 20
-5.2964600000000006
 30
0.0
 10
0.8104000000000001
 20
-5.2964600000000006
 30
0.0
 10
0.8104000000000001
 20
-5.2964600000000006
 30
0.0
 10
0.47512
 20
-3.7724600000000001
 30
0.0
 10
0.47512
 20
-3.7724600000000001
 30
0.0
 10
0.47512
 20
-3.7724600000000001
 30
0.0
 10
0.51322
 20
-3.6911800000000001
 30
0.0
 10
0.5665600000000001
 20
-3.6022800000000004
 30
0.0
 10
0.63514
 20
-3.5438600000000005
 30
0.0
  0
SPLINE
  5
3E
100
AcDbEntity
  8
Ebene 1
 62
     7
100
AcDbSpline
210
0.0
220
0.0
230
1.0
 70
     1
 71
     3
 72
    20
 73
    16
 74
     0
 42
0.0000000001
 43
0.0000000001
 40
0.0
 40
0.0
 40
0.0
 40
0.0
 40
0.25
 40
0.25
 40
0.25
 40
0.25
 40
0.5
 40
0.5
 40
0.5
 40
0.5
 40
0.75
 40
0.75
 40
0.75
 40
0.75
 40
1.0
 40
1.0
 40
1.0
 40
1.0
 10
1.0567800000000001
 20
-3.5438600000000005
 30
0.0
 10
1.0567800000000001
 20
-3.5438600000000005
 30
0.0
 10
1.1710800000000001
 20
-3.5794200000000003
 30
0.0
 10
1.1710800000000001
 20
-3.5794200000000003
 30
0.0
 10
1.1710800000000001
 20
-3.5794200000000003
 30
0.0
 10
1.2879200000000002
 20
-3.8918400000000002
 30
0.0
 10
1.31586
 20
-4.2804600000000006
 30
0.0
 10
1.2117200000000001
 20
-4.5903400000000003
 30
0.0
 10
1.2117200000000001
 20
-4.5903400000000003
 30
0.0
 10
1.2117200000000001
 20
-4.5903400000000003
 30
0.0
 10
0.8764400000000001
 20
-3.7572200000000002
 30
0.0
 10
0.8764400000000001
 20
-3.7572200000000002
 30
0.0
 10
0.8764400000000001
 20
-3.7572200000000002
 30
0.0
 10
0.91454
 20
-3.6784800000000004
 30
0.0
 10
0.9678800000000001
 20
-3.5895800000000002
 30
0.0
 10
1.0567800000000001
 20
-3.5438600000000005
 30
0.0
  0
ENDSEC
  0
SECTION
  2
OBJECTS
  0
DICTIONARY
  5
19
100
AcDbDictionary
280
     0
281
     1
  3
ACAD_GROUP
350
1A
  3
ACAD_MLINESTYLE
350
1B
  3
ACAD_LAYOUT
350
1E
  3
ACAD_PLOTSETTINGS
350
22
  3
ACAD_PLOTSTYLENAME
350
1F
  3
ACAD_WIPEOUT_VARS
350
23
  0
DICTIONARY
  5
1A
102
{ACAD_REACTORS
330
19
102
}
100
AcDbDictionary
280
     0
281
     1
  0
DICTIONARY
  5
1B
102
{ACAD_REACTORS
330
19
102
}
100
AcDbDictionary
280
     0
281
     1
  3
Standard
350
1C
  0
MLINESTYLE
  5
1C
102
{ACAD_REACTORS
330
1B
102
}
100
AcDbMlineStyle
  2
Standard
 70
     0
  3

 62
     0
 51
90.0
 52
90.0
 71
     2
 49
0.5
 62
   256
  6
BYLAYER
 49
-0.5
 62
   256
  6
BYLAYER
  0
ACDBDICTIONARYWDFLT
  5
1F
102
{ACAD_REACTORS
330
19
102
}
100
AcDbDictionary
281
     1
  3
Normal
350
1D
100
AcDbDictionaryWithDefault
340
1D
  0
ACDBPLACEHOLDER
  5
1D
102
{ACAD_REACTORS
330
1F
102
}
  0
LAYOUT
  5
20
102
{ACAD_REACTORS
330
1E
102
}
100
AcDbPlotSettings
  1

  2

  4

  6

 40
0.0
 41
0.0
 42
0.0
 43
0.0
 44
0.0
 45
0.0
 46
0.0
 47
0.0
 48
0.0
 49
0.0
140
0.0
141
0.0
142
1.0
143
1.0
 70
  1024
 72
     0
 73
     0
 74
     0
  7

 75
     0
147
1.0
148
0.0
149
0.0
100
AcDbLayout
  1
Model
 70
     0
 71
     0
 10
0.0
 20
0.0
 11
0.0
 21
0.0
 12
0.0
 22
0.0
 32
0.0
 14
0.0
 24
0.0
 34
0.0
 15
0.0
 25
0.0
 35
0.0
146
0.0
 13
0.0
 23
0.0
 33
0.0
 16
0.0
 26
0.0
 36
0.0
 17
0.0
 27
0.0
 37
0.0
 76
     0
330
A
331
0
345
0
346
0
  0
LAYOUT
  5
21
102
{ACAD_REACTORS
330
1E
102
}
100
AcDbPlotSettings
  1

  2

  4

  6

 40
0.0
 41
0.0
 42
0.0
 43
0.0
 44
0.0
 45
0.0
 46
0.0
 47
0.0
 48
0.0
 49
0.0
140
0.0
141
0.0
142
1.0
143
1.0
 70
     0
 72
     0
 73
     0
 74
     0
  7

 75
     0
147
1.0
148
0.0
149
0.0
100
AcDbLayout
  1
Layout1
 70
     0
 71
     0
 10
0.0
 20
0.0
 11
0.0
 21
0.0
 12
0.0
 22
0.0
 32
0.0
 14
0.0
 24
0.0
 34
0.0
 15
0.0
 25
0.0
 35
0.0
146
0.0
 13
0.0
 23
0.0
 33
0.0
 16
0.0
 26
0.0
 36
0.0
 17
0.0
 27
0.0
 37
0.0
 76
     0
330
B
331
0
345
0
346
0
  0
DICTIONARY
  5
1E
102
{ACAD_REACTORS
330
19
102
}
100
AcDbDictionary
280
     0
281
     1
  3
Layout1
350
21
  3
Model
350
20
  0
DICTIONARY
  5
22
102
{ACAD_REACTORS
330
19
102
}
100
AcDbDictionary
280
     0
281
     1
  0
WIPEOUTVARIABLES
  5
23
100
AcDbWipeoutVariables
 70
     1
  0
ENDSEC
  0
EOF
