  0
SECTION
  2
HEADER
  9
$ACADVER
  1
AC1015
  9
$ACADMAINTVER
 70
     6
  9
$DWGCODEPAGE
  3
DOS850
  9
$INSBASE
 10
0.0
 20
0.0
 30
0.0
  9
$EXTMIN
 10
-4.19593
 20
-7.03382
 30
1.000000E+20
  9
$EXTMAX
 10
4.20089
 20
7.02705
 30
-1.000000E+20
  9
$LIMMIN
 10
0.0
 20
0.0
  9
$LIMMAX
 10
0.0
 20
0.0
  9
$ORTHOMODE
 70
     0
  9
$REGENMODE
 70
     1
  9
$FILLMODE
 70
     1
  9
$QTEXTMODE
 70
     0
  9
$MIRRTEXT
 70
     1
  9
$LTSCALE
 40
1.0
  9
$ATTMODE
 70
     1
  9
$TEXTSIZE
 40
0.2
  9
$TRACEWID
 40
0.05
  9
$TEXTSTYLE
  7
Standard
  9
$CLAYER
  8
0
  9
$CELTYPE
  6
Continuous
  9
$CECOLOR
 62
   256
  9
$CELTSCALE
 40
1.0
  9
$DISPSILH
 70
     0
  9
$DIMSCALE
 40
1.0
  9
$DIMASZ
 40
0.18
  9
$DIMEXO
 40
0.0625
  9
$DIMDLI
 40
0.38
  9
$DIMRND
 40
0.0
  9
$DIMDLE
 40
0.0
  9
$DIMEXE
 40
0.18
  9
$DIMTP
 40
0.0
  9
$DIMTM
 40
0.0
  9
$DIMTXT
 40
0.18
  9
$DIMCEN
 40
0.09
  9
$DIMTSZ
 40
0.0
  9
$DIMTOL
 70
     0
  9
$DIMLIM
 70
     0
  9
$DIMTIH
 70
     1
  9
$DIMTOH
 70
     1
  9
$DIMSE1
 70
     0
  9
$DIMSE2
 70
     0
  9
$DIMTAD
 70
     0
  9
$DIMZIN
 70
     0
  9
$DIMBLK
  1

  9
$DIMASO
 70
     1
  9
$DIMSHO
 70
     1
  9
$DIMPOST
  1

  9
$DIMAPOST
  1

  9
$DIMALT
 70
     0
  9
$DIMALTD
 70
     2
  9
$DIMALTF
 40
25.4
  9
$DIMLFAC
 40
1.0
  9
$DIMTOFL
 70
     0
  9
$DIMTVP
 40
0.0
  9
$DIMTIX
 70
     0
  9
$DIMSOXD
 70
     0
  9
$DIMSAH
 70
     0
  9
$DIMBLK1
  1

  9
$DIMBLK2
  1

  9
$DIMSTYLE
  2
Standard
  9
$DIMCLRD
 70
     0
  9
$DIMCLRE
 70
     0
  9
$DIMCLRT
 70
     0
  9
$DIMTFAC
 40
1.0
  9
$DIMGAP
 40
0.09
  9
$DIMJUST
 70
     0
  9
$DIMSD1
 70
     0
  9
$DIMSD2
 70
     0
  9
$DIMTOLJ
 70
     1
  9
$DIMTZIN
 70
     0
  9
$DIMALTZ
 70
     0
  9
$DIMALTTZ
 70
     0
  9
$DIMUPT
 70
     0
  9
$DIMDEC
 70
     4
  9
$DIMTDEC
 70
     4
  9
$DIMALTU
 70
     2
  9
$DIMALTTD
 70
     2
  9
$DIMTXSTY
  7
Standard
  9
$DIMAUNIT
 70
     0
  9
$DIMADEC
 70
     0
  9
$DIMALTRND
 40
0.0
  9
$DIMAZIN
 70
     0
  9
$DIMDSEP
 70
     0
  9
$DIMATFIT
 70
     3
  9
$DIMFRAC
 70
     0
  9
$DIMLDRBLK
  1

  9
$DIMLUNIT
 70
     2
  9
$DIMLWD
 70
     0
  9
$DIMLWE
 70
     0
  9
$DIMTMOVE
 70
     0
  9
$LUNITS
 70
     2
  9
$LUPREC
 70
     4
  9
$SKETCHINC
 40
0.1
  9
$FILLETRAD
 40
0.0
  9
$AUNITS
 70
     0
  9
$AUPREC
 70
     0
  9
$MENU
  1
acad
  9
$ELEVATION
 40
0.0
  9
$PELEVATION
 40
0.0
  9
$THICKNESS
 40
0.0
  9
$LIMCHECK
 70
     0
  9
$CHAMFERA
 40
0.0
  9
$CHAMFERB
 40
0.0
  9
$CHAMFERC
 40
0.0
  9
$CHAMFERD
 40
0.0
  9
$SKPOLY
 70
     0
  9
$TDCREATE
 40
0.000000000
  9
$TDUCREATE
 40
0.000000000
  9
$TDUPDATE
 40
0.000000000
  9
$TDUUPDATE
 40
0.000000000
  9
$TDINDWG
 40
0.0000000000
  9
$TDUSRTIMER
 40
0.0000000000
  9
$USRTIMER
 70
     1
  9
$ANGBASE
 50
0.0
  9
$ANGDIR
 70
     0
  9
$PDMODE
 70
     0
  9
$PDSIZE
 40
0.0
  9
$PLINEWID
 40
0.0
  9
$SPLFRAME
 70
     0
  9
$SPLINETYPE
 70
     6
  9
$SPLINESEGS
 70
     8
  9
$HANDSEED
  5
5A
  9
$SURFTAB1
 70
     6
  9
$SURFTAB2
 70
     6
  9
$SURFTYPE
 70
     6
  9
$SURFU
 70
     6
  9
$SURFV
 70
     6
  9
$UCSBASE
  2

  9
$UCSNAME
  2

  9
$UCSORG
 10
0.0
 20
0.0
 30
0.0
  9
$UCSXDIR
 10
1.0
 20
0.0
 30
0.0
  9
$UCSYDIR
 10
0.0
 20
1.0
 30
0.0
  9
$UCSORTHOREF
  2

  9
$UCSORTHOVIEW
 70
     0
  9
$UCSORGTOP
 10
0.0
 20
0.0
 30
0.0
  9
$UCSORGBOTTOM
 10
0.0
 20
0.0
 30
0.0
  9
$UCSORGLEFT
 10
0.0
 20
0.0
 30
0.0
  9
$UCSORGRIGHT
 10
0.0
 20
0.0
 30
0.0
  9
$UCSORGFRONT
 10
0.0
 20
0.0
 30
0.0
  9
$UCSORGBACK
 10
0.0
 20
0.0
 30
0.0
  9
$PUCSBASE
  2

  9
$PUCSNAME
  2

  9
$PUCSORG
 10
0.0
 20
0.0
 30
0.0
  9
$PUCSXDIR
 10
1.0
 20
0.0
 30
0.0
  9
$PUCSYDIR
 10
0.0
 20
1.0
 30
0.0
  9
$PUCSORTHOREF
  2

  9
$PUCSORTHOVIEW
 70
     0
  9
$PUCSORGTOP
 10
0.0
 20
0.0
 30
0.0
  9
$PUCSORGBOTTOM
 10
0.0
 20
0.0
 30
0.0
  9
$PUCSORGLEFT
 10
0.0
 20
0.0
 30
0.0
  9
$PUCSORGRIGHT
 10
0.0
 20
0.0
 30
0.0
  9
$PUCSORGFRONT
 10
0.0
 20
0.0
 30
0.0
  9
$PUCSORGBACK
 10
0.0
 20
0.0
 30
0.0
  9
$USERI1
 70
     0
  9
$USERI2
 70
     0
  9
$USERI3
 70
     0
  9
$USERI4
 70
     0
  9
$USERI5
 70
     0
  9
$USERR1
 40
0.0
  9
$USERR2
 40
0.0
  9
$USERR3
 40
0.0
  9
$USERR4
 40
0.0
  9
$USERR5
 40
0.0
  9
$WORLDVIEW
 70
     1
  9
$SHADEDGE
 70
     3
  9
$SHADEDIF
 70
    70
  9
$TILEMODE
 70
     1
  9
$MAXACTVP
 70
    16
  9
$PINSBASE
 10
0.0
 20
0.0
 30
0.0
  9
$PLIMCHECK
 70
     0
  9
$PEXTMIN
 10
1.000000E+20
 20
1.000000E+20
 30
1.000000E+20
  9
$PEXTMAX
 10
-1.000000E+20
 20
-1.000000E+20
 30
-1.000000E+20
  9
$PLIMMIN
 10
0.0
 20
0.0
  9
$PLIMMAX
 10
12.0
 20
9.0
  9
$UNITMODE
 70
     0
  9
$VISRETAIN
 70
     0
  9
$PLINEGEN
 70
     1
  9
$PSLTSCALE
 70
     0
  9
$TREEDEPTH
 70
  3020
  9
$CMLSTYLE
  2
Standard
  9
$CMLJUST
 70
     0
  9
$CMLSCALE
 40
1.0
  9
$PROXYGRAPHICS
 70
     0
  9
$MEASUREMENT
 70
     0
  9
$CELWEIGHT
370
     0
  9
$ENDCAPS
280
     0
  9
$JOINSTYLE
280
     0
  9
$LWDISPLAY
290
     0
  9
$INSUNITS
 70
     5
  9
$HYPERLINKBASE
  1

  9
$XEDIT
290
     1
  9
$CEPSNTYPE
380
     0
  9
$PSTYLEMODE
290
     1
  9
$FINGERPRINTGUID
  2

  9
$VERSIONGUID
  2

  9
$EXTNAMES
290
     1
  9
$PSVPSCALE
 40
0.0
  0
ENDSEC
  0
SECTION
  2
CLASSES
  0
CLASS
  1
LWPOLYLINE
  2
AcDbPolyline
  3
AutoCAD 2000
 90
    32768
280
     0
281
     1
  0
CLASS
  1
IMAGE
  2
AcDbRasterImage
  3
ISM
 90
    32895
280
     0
281
     1
  0
CLASS
  1
OLE2FRAME
  2
AcDbOle2Frame
  3
AutoCAD 2000
 90
    32768
280
     0
281
     1
  0
CLASS
  1
HATCH
  2
AcDbHatch
  3
AutoCAD 2000
 90
    32768
280
     0
281
     1
  0
CLASS
  1
DICTIONARYVAR
  2
AcDbDictionaryVar
  3
AutoCAD 2000
 90
    32768
280
     0
281
     0
  0
CLASS
  1
RASTERVARIABLES
  2
AcDbRasterVariables
  3
ISM
 90
    32768
280
     0
281
     0
  0
CLASS
  1
IMAGEDEF
  2
AcDbRasterImageDef
  3
ISM
 90
    32768
280
     0
281
     0
  0
CLASS
  1
IMAGEDEF_REACTOR
  2
AcDbRasterImageDefReactor
  3
ISM
 90
    32769
280
     0
281
     0
  0
CLASS
  1
IDBUFFER
  2
AcDbIdBuffer
  3
AutoCAD 2000
 90
    32768
280
     0
281
     0
  0
CLASS
  1
SPATIAL_FILTER
  2
AcDbSpatialFilter
  3
AutoCAD 2000
 90
    32768
280
     0
281
     0
  0
CLASS
  1
XRECORD
  2
AcDbXrecord
  3
AutoCAD 2000
 90
    32768
280
     0
281
     0
  0
CLASS
  1
SORTENTSTABLE
  2
AcDbSortentsTable
  3
AutoCAD 2000
 90
    32768
280
     0
281
     0
  0
CLASS
  1
LAYER_INDEX
  2
AcDbLayerIndex
  3
AutoCAD 2000
 90
    32768
280
     0
281
     0
  0
CLASS
  1
SPATIAL_INDEX
  2
AcDbSpatialIndex
  3
AutoCAD 2000
 90
    32768
280
     0
281
     0
  0
CLASS
  1
OBJECT_PTR
  2
CAseDLPNTableRecord
  3
"ASE-LPNTableRecord"
 90
    32769
280
     0
281
     0
  0
CLASS
  1
LAYOUT
  2
AcDbLayout
  3
AutoCAD 2000
 90
        0
280
     0
281
     0
  0
CLASS
  1
PLOTSETTINGS
  2
AcDbPlotSettings
  3
AutoCAD 2000
 90
    32768
280
     0
281
     0
  0
CLASS
  1
ACDBDICTIONARYWDFLT
  2
AcDbDictionaryWithDefault
  3
AutoCAD 2000
 90
        0
280
     0
281
     0
  0
CLASS
  1
ACDBPLACEHOLDER
  2
AcDbPlaceHolder
  3
AutoCAD 2000
 90
        0
280
     0
281
     0
  0
CLASS
  1
VBA_PROJECT
  2
AcDbVbaProject
  3
acadvba
 90
    32768
280
     0
281
     0
  0
CLASS
  1
WIPEOUT
  2
AcDbWipeout
  3
WipeOut|AutoCAD Express Tool|expresstools@autodesk.com
 90
    32895
280
     0
281
     1
  0
CLASS
  1
WIPEOUTVARIABLES
  2
AcDbWipeoutVariables
  3
WipeOut|AutoCAD Express Tool|expresstools@autodesk.com
 90
        0
280
     0
281
     0
  0
CLASS
  1
RTEXT
  2
RText
  3
RText|AutoCAD Express Tool|expresstools@autodesk.com
 90
    32768
280
     0
281
     1
  0
CLASS
  1
ARCALIGNEDTEXT
  2
AcDbArcAlignedText
  3
ATEXT|AutoCAD Express Tool|expresstools@autodesk.com
 90
    32768
280
     0
281
     1
  0
ENDSEC
  0
SECTION
  2
TABLES
  0
TABLE
  2
VPORT
  5
7
100
AcDbSymbolTable
 70
     1
  0
VPORT
  5
15
100
AcDbSymbolTableRecord
100
AcDbViewportTableRecord
  2
*ACTIVE
 70
     0
 10
0.0
 20
0.0
 11
1.0
 21
1.0
 12
6.591288
 22
4.579184
 13
0.0
 23
0.0
 14
1.0
 24
1.0
 15
0.0
 25
0.0
 16
0.0
 26
0.0
 36
1.0
 17
0.0
 27
0.0
 37
0.0
 40
9.158369
 41
0.688564
 42
50.0
 43
0.0
 44
0.0
 50
0.0
 51
0.0
 71
     0
 72
   100
 73
     1
 74
     1
 75
     0
 76
     0
 77
     0
 78
     0
281
     0
 65
     0
110
0.0
120
0.0
130
0.0
111
1.0
121
0.0
131
0.0
112
0.0
122
1.0
132
0.0
345
0
346
0
 79
     0
146
0.0
  0
ENDTAB
  0
TABLE
  2
LTYPE
  5
4
100
AcDbSymbolTable
 70
     3
  0
LTYPE
  5
11
100
AcDbSymbolTableRecord
100
AcDbLinetypeTableRecord
  2
ByBlock
 70
    64
  3

 72
    65
 73
     0
 40
0.0
  0
LTYPE
  5
12
100
AcDbSymbolTableRecord
100
AcDbLinetypeTableRecord
  2
ByLayer
 70
    64
  3

 72
    65
 73
     0
 40
0.0
  0
LTYPE
  5
13
100
AcDbSymbolTableRecord
100
AcDbLinetypeTableRecord
  2
Continuous
 70
    64
  3
Solid line
 72
    65
 73
     0
 40
0.0
  0
ENDTAB
  0
TABLE
  2
LAYER
  5
2
100
AcDbSymbolTable
 70
     2
  0
LAYER
  5
14
100
AcDbSymbolTableRecord
100
AcDbLayerTableRecord
  2
0
 70
     0
 62
     7
  6
Continuous
290
     1
370
    -3
390
1D
  0
LAYER
  5
24
100
AcDbSymbolTableRecord
100
AcDbLayerTableRecord
  2
Ebene 1
 70
     0
 62
     7
  6
Continuous
290
     1
370
    -3
390
1F
  0
ENDTAB
  0
TABLE
  2
STYLE
  5
3
100
AcDbSymbolTable
 70
     1
  0
STYLE
  5
17
100
AcDbSymbolTableRecord
100
AcDbTextStyleTableRecord
  2
Standard
 70
     0
 40
0.0
 41
1.0
 50
0.0
 71
     0
 42
0.0
  3
txt
  4

  0
ENDTAB
  0
TABLE
  2
VIEW
  5
5
100
AcDbSymbolTable
 70
     0
  0
ENDTAB
  0
TABLE
  2
UCS
  5
6
100
AcDbSymbolTable
 70
     0
  0
ENDTAB
  0
TABLE
  2
APPID
  5
8
100
AcDbSymbolTable
 70
     1
  0
APPID
  5
16
100
AcDbSymbolTableRecord
100
AcDbRegAppTableRecord
  2
ACAD
 70
     0
  0
ENDTAB
  0
TABLE
  2
DIMSTYLE
  5
9
100
AcDbSymbolTable
 70
     1
100
AcDbDimStyleTable
 71
     0
  0
DIMSTYLE
105
18
100
AcDbSymbolTableRecord
100
AcDbDimStyleTableRecord
  2
Standard
 70
     0
  3

  4

 40
1.0
 41
0.18
 42
0.0625
 43
0.38
 44
0.18
 45
0.0
 46
0.0
 47
0.0
 48
0.0
 71
     0
 72
     0
 73
     1
 74
     1
 75
     0
 76
     0
 77
     0
 78
     0
 79
     0
140
0.18
141
0.09
142
0.0
143
25.4
144
1.0
145
0.0
146
1.0
147
0.09
148
0.0
170
     0
171
     2
172
     0
173
     0
174
     0
175
     0
176
     0
177
     0
178
     0
179
     0
271
     4
272
     4
273
     2
274
     2
275
     0
276
     0
277
     2
278
    46
279
     0
280
     0
281
     0
282
     0
283
     1
284
     0
285
     0
286
     0
288
     0
340
17
341
0
342
0
343
0
344
0
371
    -2
372
    -2
  0
ENDTAB
  0
TABLE
  2
BLOCK_RECORD
  5
1
100
AcDbSymbolTable
 70
     0
  0
BLOCK_RECORD
  5
A
100
AcDbSymbolTableRecord
100
AcDbBlockTableRecord
  2
*MODEL_SPACE
340
20
  0
BLOCK_RECORD
  5
B
100
AcDbSymbolTableRecord
100
AcDbBlockTableRecord
  2
*PAPER_SPACE
340
21
  0
ENDTAB
  0
ENDSEC
  0
SECTION
  2
BLOCKS
  0
BLOCK
  5
D
100
AcDbEntity
  8
0
100
AcDbBlockBegin
  2
*MODEL_SPACE
 70
     0
 10
0.0
 20
0.0
 30
0.0
  3
*MODEL_SPACE
  1

  0
ENDBLK
  5
E
100
AcDbEntity
  8
0
100
AcDbBlockEnd
  0
BLOCK
  5
F
100
AcDbEntity
 67
     1
  8
0
100
AcDbBlockBegin
  2
*PAPER_SPACE
 70
     0
 10
0.0
 20
0.0
 30
0.0
  3
*PAPER_SPACE
  1

  0
ENDBLK
  5
10
100
AcDbEntity
 67
     1
  8
0
100
AcDbBlockEnd
  0
ENDSEC
  0
SECTION
  2
ENTITIES
  0
SPLINE
  5
25
100
AcDbEntity
  8
Ebene 1
100
AcDbSpline
210
0.0
220
0.0
230
1.0
 70
     1
 71
     3
 72
   156
 73
   152
 74
     0
 42
0.0000000001
 43
0.0000000001
 40
0.0
 40
0.0
 40
0.0
 40
0.0
 40
0.0263157894736842
 40
0.0263157894736842
 40
0.0263157894736842
 40
0.0263157894736842
 40
0.0526315789473684
 40
0.0526315789473684
 40
0.0526315789473684
 40
0.0526315789473684
 40
0.0789473684210526
 40
0.0789473684210526
 40
0.0789473684210526
 40
0.0789473684210526
 40
0.1052631578947368
 40
0.1052631578947368
 40
0.1052631578947368
 40
0.1052631578947368
 40
0.1315789473684211
 40
0.1315789473684211
 40
0.1315789473684211
 40
0.1315789473684211
 40
0.1578947368421053
 40
0.1578947368421053
 40
0.1578947368421053
 40
0.1578947368421053
 40
0.1842105263157895
 40
0.1842105263157895
 40
0.1842105263157895
 40
0.1842105263157895
 40
0.2105263157894737
 40
0.2105263157894737
 40
0.2105263157894737
 40
0.2105263157894737
 40
0.2368421052631579
 40
0.2368421052631579
 40
0.2368421052631579
 40
0.2368421052631579
 40
0.2631578947368421
 40
0.2631578947368421
 40
0.2631578947368421
 40
0.2631578947368421
 40
0.2894736842105263
 40
0.2894736842105263
 40
0.2894736842105263
 40
0.2894736842105263
 40
0.3157894736842105
 40
0.3157894736842105
 40
0.3157894736842105
 40
0.3157894736842105
 40
0.3421052631578947
 40
0.3421052631578947
 40
0.3421052631578947
 40
0.3421052631578947
 40
0.3684210526315789
 40
0.3684210526315789
 40
0.3684210526315789
 40
0.3684210526315789
 40
0.3947368421052631
 40
0.3947368421052631
 40
0.3947368421052631
 40
0.3947368421052631
 40
0.4210526315789472
 40
0.4210526315789472
 40
0.4210526315789472
 40
0.4210526315789472
 40
0.4473684210526314
 40
0.4473684210526314
 40
0.4473684210526314
 40
0.4473684210526314
 40
0.4736842105263156
 40
0.4736842105263156
 40
0.4736842105263156
 40
0.4736842105263156
 40
0.4999999999999998
 40
0.4999999999999998
 40
0.4999999999999998
 40
0.4999999999999998
 40
0.526315789473684
 40
0.526315789473684
 40
0.526315789473684
 40
0.526315789473684
 40
0.5526315789473681
 40
0.5526315789473681
 40
0.5526315789473681
 40
0.5526315789473681
 40
0.5789473684210523
 40
0.5789473684210523
 40
0.5789473684210523
 40
0.5789473684210523
 40
0.6052631578947365
 40
0.6052631578947365
 40
0.6052631578947365
 40
0.6052631578947365
 40
0.6315789473684207
 40
0.6315789473684207
 40
0.6315789473684207
 40
0.6315789473684207
 40
0.6578947368421049
 40
0.6578947368421049
 40
0.6578947368421049
 40
0.6578947368421049
 40
0.6842105263157891
 40
0.6842105263157891
 40
0.6842105263157891
 40
0.6842105263157891
 40
0.7105263157894732
 40
0.7105263157894732
 40
0.7105263157894732
 40
0.7105263157894732
 40
0.7368421052631574
 40
0.7368421052631574
 40
0.7368421052631574
 40
0.7368421052631574
 40
0.7631578947368416
 40
0.7631578947368416
 40
0.7631578947368416
 40
0.7631578947368416
 40
0.7894736842105258
 40
0.7894736842105258
 40
0.7894736842105258
 40
0.7894736842105258
 40
0.81578947368421
 40
0.81578947368421
 40
0.81578947368421
 40
0.81578947368421
 40
0.8421052631578941
 40
0.8421052631578941
 40
0.8421052631578941
 40
0.8421052631578941
 40
0.8684210526315783
 40
0.8684210526315783
 40
0.8684210526315783
 40
0.8684210526315783
 40
0.8947368421052625
 40
0.8947368421052625
 40
0.8947368421052625
 40
0.8947368421052625
 40
0.9210526315789467
 40
0.9210526315789467
 40
0.9210526315789467
 40
0.9210526315789467
 40
0.9473684210526309
 40
0.9473684210526309
 40
0.9473684210526309
 40
0.9473684210526309
 40
0.973684210526315
 40
0.973684210526315
 40
0.973684210526315
 40
0.973684210526315
 40
1.0
 40
1.0
 40
1.0
 40
1.0
 10
-0.38339
 20
7.0022100000000007
 30
0.0
 10
0.23636
 20
7.1647700000000007
 30
0.0
 10
0.55132
 20
6.4992900000000002
 30
0.0
 10
0.15
 20
6.1589300000000007
 30
0.0
 10
0.15
 20
6.1589300000000007
 30
0.0
 10
0.39384
 20
5.5213900000000002
 30
0.0
 10
0.3151000000000001
 20
4.8457500000000007
 30
0.0
 10
0.25922
 20
4.1802700000000002
 30
0.0
 10
0.25922
 20
4.1802700000000002
 30
0.0
 10
0.24652
 20
4.0253300000000003
 30
0.0
 10
0.25668
 20
3.9745300000000001
 30
0.0
 10
0.3354200000000001
 20
3.9745300000000001
 30
0.0
 10
0.3354200000000001
 20
3.9745300000000001
 30
0.0
 10
0.59704
 20
3.9719900000000004
 30
0.0
 10
0.8358000000000001
 20
4.0405700000000007
 30
0.0
 10
0.9932800000000001
 20
4.3199700000000005
 30
0.0
 10
0.9932800000000001
 20
4.3199700000000005
 30
0.0
 10
1.3717400000000002
 20
4.1574100000000005
 30
0.0
 10
1.6232000000000002
 20
3.6722700000000001
 30
0.0
 10
1.6689200000000002
 20
3.3319100000000001
 30
0.0
 10
1.6689200000000002
 20
3.3319100000000001
 30
0.0
 10
1.35904
 20
3.5224100000000003
 30
0.0
 10
0.4954400000000001
 20
3.8018100000000001
 30
0.0
 10
0.42686
 20
3.3928700000000003
 30
0.0
 10
0.42686
 20
3.3928700000000003
 30
0.0
 10
0.42686
 20
3.3928700000000003
 30
0.0
 10
0.4294000000000001
 20
2.9585300000000001
 30
0.0
 10
0.4294000000000001
 20
2.9585300000000001
 30
0.0
 10
0.4294000000000001
 20
2.9585300000000001
 30
0.0
 10
1.9915000000000003
 20
2.6461100000000002
 30
0.0
 10
2.54522
 20
1.0509900000000001
 30
0.0
 10
2.2378800000000001
 20
-0.21138
 30
0.0
 10
2.2378800000000001
 20
-0.21138
 30
0.0
 10
2.8271600000000001
 20
0.00451
 30
0.0
 10
3.0659200000000002
 20
0.5074300000000001
 30
0.0
 10
3.2005400000000002
 20
1.0103500000000001
 30
0.0
 10
3.2005400000000002
 20
1.0103500000000001
 30
0.0
 10
3.7314000000000003
 20
1.4091300000000002
 30
0.0
 10
3.8761800000000002
 20
0.60141
 30
0.0
 10
4.1936800000000005
 20
0.38551
 30
0.0
 10
4.1936800000000005
 20
0.38551
 30
0.0
 10
4.2216200000000006
 20
0.25343
 30
0.0
 10
4.16066
 20
0.21025
 30
0.0
 10
4.1428799999999999
 20
0.17723
 30
0.0
 10
4.1428799999999999
 20
0.17723
 30
0.0
 10
3.8838000000000004
 20
-0.28758
 30
0.0
 10
3.2513400000000003
 20
-0.3968
 30
0.0
 10
2.7001600000000003
 20
-0.74224
 30
0.0
 10
2.7001600000000003
 20
-0.74224
 30
0.0
 10
2.21502
 20
-1.0445
 30
0.0
 10
1.6359000000000001
 20
-1.5321800000000001
 30
0.0
 10
1.2574400000000001
 20
-1.9411200000000002
 30
0.0
 10
1.2574400000000001
 20
-1.9411200000000002
 30
0.0
 10
1.0313800000000002
 20
-2.9901400000000002
 30
0.0
 10
2.2759800000000001
 20
-3.5591000000000004
 30
0.0
 10
3.2843600000000004
 20
-3.8054800000000002
 30
0.0
 10
3.2843600000000004
 20
-3.8054800000000002
 30
0.0
 10
3.3758000000000004
 20
-3.8994600000000004
 30
0.0
 10
3.4596200000000001
 20
-4.0645600000000002
 30
0.0
 10
3.4697800000000001
 20
-4.1864800000000004
 30
0.0
 10
3.4697800000000001
 20
-4.1864800000000004
 30
0.0
 10
3.1776800000000001
 20
-4.4455600000000004
 30
0.0
 10
2.9363800000000002
 20
-5.07294
 30
0.0
 10
2.4436200000000001
 20
-4.9916600000000004
 30
0.0
 10
2.4436200000000001
 20
-4.9916600000000004
 30
0.0
 10
2.2074000000000003
 20
-4.9789600000000007
 30
0.0
 10
2.2937600000000002
 20
-4.81386
 30
0.0
 10
2.2404200000000003
 20
-4.7224200000000005
 30
0.0
 10
2.2404200000000003
 20
-4.7224200000000005
 30
0.0
 10
1.8568800000000001
 20
-4.0823400000000003
 30
0.0
 10
1.27268
 20
-3.5006800000000005
 30
0.0
 10
0.61482
 20
-3.0841200000000004
 30
0.0
 10
0.61482
 20
-3.0841200000000004
 30
0.0
 10
0.6021200000000001
 20
-4.4328600000000007
 30
0.0
 10
0.67832
 20
-5.7943000000000007
 30
0.0
 10
0.21096
 20
-7.0338200000000004
 30
0.0
 10
0.21096
 20
-7.0338200000000004
 30
0.0
 10
-0.5408700000000001
 20
-5.8349400000000005
 30
0.0
 10
-0.21067
 20
-4.39222
 30
0.0
 10
-0.35545
 20
-3.0180800000000003
 30
0.0
 10
-0.35545
 20
-3.0180800000000003
 30
0.0
 10
-1.1428500000000001
 20
-3.5616400000000001
 30
0.0
 10
-1.7956300000000001
 20
-4.1179000000000006
 30
0.0
 10
-1.8083300000000002
 20
-5.0018200000000004
 30
0.0
 10
-1.8083300000000002
 20
-5.0018200000000004
 30
0.0
 10
-1.7930900000000001
 20
-5.07294
 30
0.0
 10
-1.9886700000000002
 20
-5.40822
 30
0.0
 10
-2.3112500000000002
 20
-5.2482000000000006
 30
0.0
 10
-2.3112500000000002
 20
-5.2482000000000006
 30
0.0
 10
-2.4738100000000003
 20
-4.6360600000000005
 30
0.0
 10
-3.5025100000000005
 20
-4.9789600000000007
 30
0.0
 10
-3.3983700000000003
 20
-4.3236400000000001
 30
0.0
 10
-3.3983700000000003
 20
-4.3236400000000001
 30
0.0
 10
-3.2713700000000001
 20
-4.1052
 30
0.0
 10
-3.1900900000000001
 20
-4.1763200000000005
 30
0.0
 10
-2.8243300000000002
 20
-3.9832800000000002
 30
0.0
 10
-2.8243300000000002
 20
-3.9832800000000002
 30
0.0
 10
-2.6846300000000003
 20
-3.9070800000000001
 30
0.0
 10
-2.4509500000000002
 20
-3.8359600000000005
 30
0.0
 10
-2.3264900000000002
 20
-3.7216600000000004
 30
0.0
 10
-2.3264900000000002
 20
-3.7216600000000004
 30
0.0
 10
-1.7067300000000001
 20
-3.1577800000000003
 30
0.0
 10
-1.0514100000000002
 20
-2.7437600000000004
 30
0.0
 10
-0.99553
 20
-2.2002000000000002
 30
0.0
 10
-0.99553
 20
-2.2002000000000002
 30
0.0
 10
-0.9879100000000001
 20
-2.14432
 30
0.0
 10
-0.94981
 20
-2.0757400000000001
 30
0.0
 10
-0.9828300000000001
 20
-2.0224000000000002
 30
0.0
 10
-0.9828300000000001
 20
-2.0224000000000002
 30
0.0
 10
-2.0775700000000001
 20
-1.4102600000000001
 30
0.0
 10
-2.8522700000000003
 20
-0.3739400000000001
 30
0.0
 10
-4.0841700000000003
 20
-0.00818
 30
0.0
 10
-4.0841700000000003
 20
-0.00818
 30
0.0
 10
-4.0841700000000003
 20
-0.00818
 30
0.0
 10
-4.1959300000000006
 20
0.20771
 30
0.0
 10
-4.1959300000000006
 20
0.20771
 30
0.0
 10
-4.1959300000000006
 20
0.20771
 30
0.0
 10
-4.13497
 20
0.32963
 30
0.0
 10
-4.2645100000000005
 20
0.5836300000000001
 30
0.0
 10
-4.01051
 20
0.6242700000000001
 30
0.0
 10
-4.01051
 20
0.6242700000000001
 30
0.0
 10
-3.6930100000000001
 20
0.6750700000000001
 30
0.0
 10
-3.5736300000000001
 20
1.1729100000000001
 30
0.0
 10
-3.0351500000000002
 20
0.99765
 30
0.0
 10
-3.0351500000000002
 20
0.99765
 30
0.0
 10
-2.5779500000000004
 20
0.61665
 30
0.0
 10
-2.9259300000000001
 20
-0.04882
 30
0.0
 10
-2.23759
 20
-0.34854
 30
0.0
 10
-2.23759
 20
-0.34854
 30
0.0
 10
-2.8192500000000003
 20
1.0052700000000001
 30
0.0
 10
-2.1359900000000001
 20
2.5495900000000002
 30
0.0
 10
-0.47483
 20
2.9585300000000001
 30
0.0
 10
-0.47483
 20
2.9585300000000001
 30
0.0
 10
-0.22083
 20
3.9389700000000003
 30
0.0
 10
-1.3892300000000002
 20
3.4665300000000001
 30
0.0
 10
-1.9378700000000002
 20
3.3014300000000003
 30
0.0
 10
-1.9378700000000002
 20
3.3014300000000003
 30
0.0
 10
-1.8946900000000002
 20
3.6697300000000004
 30
0.0
 10
-1.6178300000000001
 20
4.07613
 30
0.0
 10
-1.2850900000000001
 20
4.3072699999999999
 30
0.0
 10
-1.2850900000000001
 20
4.3072699999999999
 30
0.0
 10
-1.1809500000000002
 20
4.0608900000000006
 30
0.0
 10
-0.7262900000000001
 20
3.8018100000000001
 30
0.0
 10
-0.47737
 20
4.0202500000000008
 30
0.0
 10
-0.47737
 20
4.0202500000000008
 30
0.0
 10
-0.6246900000000001
 20
5.0006900000000005
 30
0.0
 10
-0.4494300000000001
 20
5.9252500000000001
 30
0.0
 10
-0.7135900000000001
 20
6.7964700000000002
 30
0.0
 10
-0.7135900000000001
 20
6.7964700000000002
 30
0.0
 10
-0.6246900000000001
 20
6.8802900000000005
 30
0.0
 10
-0.50785
 20
6.9615700000000009
 30
0.0
 10
-0.38339
 20
7.0022100000000007
 30
0.0
  0
SPLINE
  5
26
100
AcDbEntity
  8
Ebene 1
 62
     7
100
AcDbSpline
210
0.0
220
0.0
230
1.0
 70
     1
 71
     3
 72
    56
 73
    52
 74
     0
 42
0.0000000001
 43
0.0000000001
 40
0.0
 40
0.0
 40
0.0
 40
0.0
 40
0.0769230769230769
 40
0.0769230769230769
 40
0.0769230769230769
 40
0.0769230769230769
 40
0.1538461538461539
 40
0.1538461538461539
 40
0.1538461538461539
 40
0.1538461538461539
 40
0.2307692307692308
 40
0.2307692307692308
 40
0.2307692307692308
 40
0.2307692307692308
 40
0.3076923076923077
 40
0.3076923076923077
 40
0.3076923076923077
 40
0.3076923076923077
 40
0.3846153846153846
 40
0.3846153846153846
 40
0.3846153846153846
 40
0.3846153846153846
 40
0.4615384615384616
 40
0.4615384615384616
 40
0.4615384615384616
 40
0.4615384615384616
 40
0.5384615384615386
 40
0.5384615384615386
 40
0.5384615384615386
 40
0.5384615384615386
 40
0.6153846153846154
 40
0.6153846153846154
 40
0.6153846153846154
 40
0.6153846153846154
 40
0.6923076923076923
 40
0.6923076923076923
 40
0.6923076923076923
 40
0.6923076923076923
 40
0.7692307692307692
 40
0.7692307692307692
 40
0.7692307692307692
 40
0.7692307692307692
 40
0.846153846153846
 40
0.846153846153846
 40
0.846153846153846
 40
0.846153846153846
 40
0.9230769230769229
 40
0.9230769230769229
 40
0.9230769230769229
 40
0.9230769230769229
 40
1.0
 40
1.0
 40
1.0
 40
1.0
 10
-0.26147
 20
6.9742700000000006
 30
0.0
 10
-0.11161
 20
6.9717300000000009
 30
0.0
 10
0.00522
 20
6.9183900000000005
 30
0.0
 10
0.13222
 20
6.8371100000000009
 30
0.0
 10
0.13222
 20
6.8371100000000009
 30
0.0
 10
0.14746
 20
6.6440700000000001
 30
0.0
 10
0.05348
 20
6.5272300000000003
 30
0.0
 10
-0.13701
 20
6.5119900000000008
 30
0.0
 10
-0.13701
 20
6.5119900000000008
 30
0.0
 10
-0.13701
 20
6.5119900000000008
 30
0.0
 10
-0.09637
 20
6.4002300000000005
 30
0.0
 10
-0.09637
 20
6.4002300000000005
 30
0.0
 10
-0.09637
 20
6.4002300000000005
 30
0.0
 10
-0.09637
 20
6.4002300000000005
 30
0.0
 10
0.02554
 20
6.3341900000000004
 30
0.0
 10
0.02554
 20
6.3341900000000004
 30
0.0
 10
0.02554
 20
6.3341900000000004
 30
0.0
 10
0.02554
 20
6.3341900000000004
 30
0.0
 10
0.13476
 20
6.5119900000000008
 30
0.0
 10
0.13476
 20
6.5119900000000008
 30
0.0
 10
0.13476
 20
6.5119900000000008
 30
0.0
 10
0.18556
 20
6.4840500000000008
 30
0.0
 10
0.16778
 20
6.4027700000000003
 30
0.0
 10
0.13476
 20
6.3621300000000005
 30
0.0
 10
0.13476
 20
6.3621300000000005
 30
0.0
 10
0.13476
 20
6.3621300000000005
 30
0.0
 10
-0.01001
 20
6.2402100000000003
 30
0.0
 10
-0.01001
 20
6.2402100000000003
 30
0.0
 10
-0.01001
 20
6.2402100000000003
 30
0.0
 10
0.02554
 20
6.1843300000000001
 30
0.0
 10
0.0357
 20
6.1030500000000005
 30
0.0
 10
0.04078
 20
6.0217700000000001
 30
0.0
 10
0.04078
 20
6.0217700000000001
 30
0.0
 10
-0.04303
 20
6.1309900000000006
 30
0.0
 10
-0.13701
 20
6.0217700000000001
 30
0.0
 10
-0.26147
 20
6.1182900000000009
 30
0.0
 10
-0.26147
 20
6.1182900000000009
 30
0.0
 10
-0.26147
 20
6.1182900000000009
 30
0.0
 10
-0.31735
 20
6.0624100000000007
 30
0.0
 10
-0.31735
 20
6.0624100000000007
 30
0.0
 10
-0.31735
 20
6.0624100000000007
 30
0.0
 10
-0.31481
 20
6.1309900000000006
 30
0.0
 10
-0.24877
 20
6.2122700000000002
 30
0.0
 10
-0.30973
 20
6.2681500000000003
 30
0.0
 10
-0.30973
 20
6.2681500000000003
 30
0.0
 10
-0.51293
 20
6.2122700000000002
 30
0.0
 10
-0.6729500000000001
 20
6.443410000000001
 30
0.0
 10
-0.53579
 20
6.6085100000000008
 30
0.0
 10
-0.53579
 20
6.6085100000000008
 30
0.0
 10
-0.61199
 20
6.8117100000000006
 30
0.0
 10
-0.4900700000000001
 20
6.9615700000000009
 30
0.0
 10
-0.26147
 20
6.9742700000000006
 30
0.0
  0
SPLINE
  5
27
100
AcDbEntity
  8
Ebene 1
 62
     7
100
AcDbSpline
210
0.0
220
0.0
230
1.0
 70
     1
 71
     3
 72
    20
 73
    16
 74
     0
 42
0.0000000001
 43
0.0000000001
 40
0.0
 40
0.0
 40
0.0
 40
0.0
 40
0.25
 40
0.25
 40
0.25
 40
0.25
 40
0.5
 40
0.5
 40
0.5
 40
0.5
 40
0.75
 40
0.75
 40
0.75
 40
0.75
 40
1.0
 40
1.0
 40
1.0
 40
1.0
 10
0.21096
 20
6.7583700000000002
 30
0.0
 10
0.3354200000000001
 20
6.7024900000000009
 30
0.0
 10
0.22366
 20
6.5399300000000009
 30
0.0
 10
0.27192
 20
6.443410000000001
 30
0.0
 10
0.27192
 20
6.443410000000001
 30
0.0
 10
0.27192
 20
6.443410000000001
 30
0.0
 10
0.25414
 20
6.4154700000000009
 30
0.0
 10
0.25414
 20
6.4154700000000009
 30
0.0
 10
0.25414
 20
6.4154700000000009
 30
0.0
 10
0.21096
 20
6.4586500000000004
 30
0.0
 10
0.14238
 20
6.5526300000000006
 30
0.0
 10
0.21096
 20
6.5932700000000004
 30
0.0
 10
0.21096
 20
6.5932700000000004
 30
0.0
 10
0.21096
 20
6.5932700000000004
 30
0.0
 10
0.21096
 20
6.7583700000000002
 30
0.0
 10
0.21096
 20
6.7583700000000002
 30
0.0
  0
SPLINE
  5
28
100
AcDbEntity
  8
Ebene 1
100
AcDbSpline
210
0.0
220
0.0
230
1.0
 70
     1
 71
     3
 72
    16
 73
    12
 74
     0
 42
0.0000000001
 43
0.0000000001
 40
0.0
 40
0.0
 40
0.0
 40
0.0
 40
0.3333333333333333
 40
0.3333333333333333
 40
0.3333333333333333
 40
0.3333333333333333
 40
0.6666666666666666
 40
0.6666666666666666
 40
0.6666666666666666
 40
0.6666666666666666
 40
1.0
 40
1.0
 40
1.0
 40
1.0
 10
-0.4595900000000001
 20
6.7304300000000001
 30
0.0
 10
-0.34783
 20
6.7583700000000002
 30
0.0
 10
-0.27671
 20
6.6745500000000009
 30
0.0
 10
-0.18781
 20
6.6491500000000006
 30
0.0
 10
-0.18781
 20
6.6491500000000006
 30
0.0
 10
-0.18781
 20
6.6491500000000006
 30
0.0
 10
-0.18781
 20
6.6085100000000008
 30
0.0
 10
-0.18781
 20
6.6085100000000008
 30
0.0
 10
-0.18781
 20
6.6085100000000008
 30
0.0
 10
-0.26401
 20
6.5526300000000006
 30
0.0
 10
-0.46213
 20
6.6339100000000002
 30
0.0
 10
-0.4595900000000001
 20
6.7304300000000001
 30
0.0
  0
SPLINE
  5
29
100
AcDbEntity
  8
Ebene 1
100
AcDbSpline
210
0.0
220
0.0
230
1.0
 70
     1
 71
     3
 72
    12
 73
     8
 74
     0
 42
0.0000000001
 43
0.0000000001
 40
0.0
 40
0.0
 40
0.0
 40
0.0
 40
0.5
 40
0.5
 40
0.5
 40
0.5
 40
1.0
 40
1.0
 40
1.0
 40
1.0
 10
-0.10653
 20
6.6618500000000003
 30
0.0
 10
-0.02017
 20
6.6897900000000003
 30
0.0
 10
-0.05827
 20
6.6085100000000008
 30
0.0
 10
-0.10653
 20
6.5932700000000004
 30
0.0
 10
-0.10653
 20
6.5932700000000004
 30
0.0
 10
-0.18273
 20
6.5805700000000007
 30
0.0
 10
-0.14717
 20
6.6491500000000006
 30
0.0
 10
-0.10653
 20
6.6618500000000003
 30
0.0
  0
SPLINE
  5
2A
100
AcDbEntity
  8
Ebene 1
100
AcDbSpline
210
0.0
220
0.0
230
1.0
 70
     1
 71
     3
 72
    16
 73
    12
 74
     0
 42
0.0000000001
 43
0.0000000001
 40
0.0
 40
0.0
 40
0.0
 40
0.0
 40
0.3333333333333333
 40
0.3333333333333333
 40
0.3333333333333333
 40
0.3333333333333333
 40
0.6666666666666666
 40
0.6666666666666666
 40
0.6666666666666666
 40
0.6666666666666666
 40
1.0
 40
1.0
 40
1.0
 40
1.0
 10
-0.50531
 20
6.6085100000000008
 30
0.0
 10
-0.3960900000000001
 20
6.6212100000000005
 30
0.0
 10
-0.38847
 20
6.443410000000001
 30
0.0
 10
-0.26401
 20
6.5119900000000008
 30
0.0
 10
-0.26401
 20
6.5119900000000008
 30
0.0
 10
-0.26655
 20
6.443410000000001
 30
0.0
 10
-0.3224300000000001
 20
6.3748300000000002
 30
0.0
 10
-0.38339
 20
6.3341900000000004
 30
0.0
 10
-0.38339
 20
6.3341900000000004
 30
0.0
 10
-0.54849
 20
6.3341900000000004
 30
0.0
 10
-0.56881
 20
6.5119900000000008
 30
0.0
 10
-0.50531
 20
6.6085100000000008
 30
0.0
  0
SPLINE
  5
2B
100
AcDbEntity
  8
Ebene 1
100
AcDbSpline
210
0.0
220
0.0
230
1.0
 70
     1
 71
     3
 72
    16
 73
    12
 74
     0
 42
0.0000000001
 43
0.0000000001
 40
0.0
 40
0.0
 40
0.0
 40
0.0
 40
0.3333333333333333
 40
0.3333333333333333
 40
0.3333333333333333
 40
0.3333333333333333
 40
0.6666666666666666
 40
0.6666666666666666
 40
0.6666666666666666
 40
0.6666666666666666
 40
1.0
 40
1.0
 40
1.0
 40
1.0
 10
-0.24623
 20
6.3748300000000002
 30
0.0
 10
-0.13193
 20
6.4027700000000003
 30
0.0
 10
-0.07605
 20
6.3062500000000004
 30
0.0
 10
-0.09637
 20
6.2249700000000008
 30
0.0
 10
-0.09637
 20
6.2249700000000008
 30
0.0
 10
-0.09637
 20
6.2249700000000008
 30
0.0
 10
-0.24115
 20
6.2122700000000002
 30
0.0
 10
-0.24115
 20
6.2122700000000002
 30
0.0
 10
-0.24115
 20
6.2122700000000002
 30
0.0
 10
-0.24115
 20
6.2122700000000002
 30
0.0
 10
-0.24623
 20
6.3748300000000002
 30
0.0
 10
-0.24623
 20
6.3748300000000002
 30
0.0
  0
SPLINE
  5
2C
100
AcDbEntity
  8
Ebene 1
 62
     7
100
AcDbSpline
210
0.0
220
0.0
230
1.0
 70
     1
 71
     3
 72
    20
 73
    16
 74
     0
 42
0.0000000001
 43
0.0000000001
 40
0.0
 40
0.0
 40
0.0
 40
0.0
 40
0.25
 40
0.25
 40
0.25
 40
0.25
 40
0.5
 40
0.5
 40
0.5
 40
0.5
 40
0.75
 40
0.75
 40
0.75
 40
0.75
 40
1.0
 40
1.0
 40
1.0
 40
1.0
 10
0.10428
 20
6.1030500000000005
 30
0.0
 10
0.16524
 20
6.0370100000000004
 30
0.0
 10
0.17286
 20
5.9252500000000001
 30
0.0
 10
0.1627
 20
5.8312700000000008
 30
0.0
 10
0.1627
 20
5.8312700000000008
 30
0.0
 10
0.0484
 20
5.7626900000000001
 30
0.0
 10
-0.08367
 20
5.9531900000000002
 30
0.0
 10
0.05856
 20
5.9404900000000005
 30
0.0
 10
0.05856
 20
5.9404900000000005
 30
0.0
 10
0.0738
 20
5.9404900000000005
 30
0.0
 10
0.0865
 20
5.9531900000000002
 30
0.0
 10
0.08904
 20
5.9684300000000006
 30
0.0
 10
0.08904
 20
5.9684300000000006
 30
0.0
 10
0.08904
 20
5.9684300000000006
 30
0.0
 10
0.10428
 20
6.1030500000000005
 30
0.0
 10
0.10428
 20
6.1030500000000005
 30
0.0
  0
SPLINE
  5
2D
100
AcDbEntity
  8
Ebene 1
 62
     7
100
AcDbSpline
210
0.0
220
0.0
230
1.0
 70
     1
 71
     3
 72
    20
 73
    16
 74
     0
 42
0.0000000001
 43
0.0000000001
 40
0.0
 40
0.0
 40
0.0
 40
0.0
 40
0.25
 40
0.25
 40
0.25
 40
0.25
 40
0.5
 40
0.5
 40
0.5
 40
0.5
 40
0.75
 40
0.75
 40
0.75
 40
0.75
 40
1.0
 40
1.0
 40
1.0
 40
1.0
 10
-0.21321
 20
5.7779300000000005
 30
0.0
 10
-0.21321
 20
5.7779300000000005
 30
0.0
 10
-0.07605
 20
5.7626900000000001
 30
0.0
 10
-0.07605
 20
5.7626900000000001
 30
0.0
 10
-0.07605
 20
5.7626900000000001
 30
0.0
 10
-0.07605
 20
5.7626900000000001
 30
0.0
 10
0.07126
 20
5.7499900000000004
 30
0.0
 10
0.07126
 20
5.7499900000000004
 30
0.0
 10
0.07126
 20
5.7499900000000004
 30
0.0
 10
0.07126
 20
5.7499900000000004
 30
0.0
 10
-0.24115
 20
5.6534700000000004
 30
0.0
 10
-0.24115
 20
5.6534700000000004
 30
0.0
 10
-0.24115
 20
5.6534700000000004
 30
0.0
 10
-0.28687
 20
5.6941100000000002
 30
0.0
 10
-0.25131
 20
5.7626900000000001
 30
0.0
 10
-0.21321
 20
5.7779300000000005
 30
0.0
  0
SPLINE
  5
2E
100
AcDbEntity
  8
Ebene 1
 62
     7
100
AcDbSpline
210
0.0
220
0.0
230
1.0
 70
     1
 71
     3
 72
    20
 73
    16
 74
     0
 42
0.0000000001
 43
0.0000000001
 40
0.0
 40
0.0
 40
0.0
 40
0.0
 40
0.25
 40
0.25
 40
0.25
 40
0.25
 40
0.5
 40
0.5
 40
0.5
 40
0.5
 40
0.75
 40
0.75
 40
0.75
 40
0.75
 40
1.0
 40
1.0
 40
1.0
 40
1.0
 10
0.16524
 20
5.7220500000000003
 30
0.0
 10
0.2262
 20
5.6941100000000002
 30
0.0
 10
0.22874
 20
5.6001300000000001
 30
0.0
 10
0.22366
 20
5.5315500000000002
 30
0.0
 10
0.22366
 20
5.5315500000000002
 30
0.0
 10
0.17794
 20
5.4909100000000004
 30
0.0
 10
0.10682
 20
5.4782100000000007
 30
0.0
 10
0.0484
 20
5.4629700000000003
 30
0.0
 10
0.0484
 20
5.4629700000000003
 30
0.0
 10
-0.00493
 20
5.5315500000000002
 30
0.0
 10
0.06364
 20
5.6128300000000007
 30
0.0
 10
0.03316
 20
5.6814100000000005
 30
0.0
 10
0.03316
 20
5.6814100000000005
 30
0.0
 10
0.07634
 20
5.6941100000000002
 30
0.0
 10
0.13476
 20
5.6941100000000002
 30
0.0
 10
0.16524
 20
5.7220500000000003
 30
0.0
  0
SPLINE
  5
2F
100
AcDbEntity
  8
Ebene 1
 62
     7
100
AcDbSpline
210
0.0
220
0.0
230
1.0
 70
     1
 71
     3
 72
    24
 73
    20
 74
     0
 42
0.0000000001
 43
0.0000000001
 40
0.0
 40
0.0
 40
0.0
 40
0.0
 40
0.2
 40
0.2
 40
0.2
 40
0.2
 40
0.4
 40
0.4
 40
0.4
 40
0.4
 40
0.6000000000000001
 40
0.6000000000000001
 40
0.6000000000000001
 40
0.6000000000000001
 40
0.8
 40
0.8
 40
0.8
 40
0.8
 40
1.0
 40
1.0
 40
1.0
 40
1.0
 10
0.21096
 20
5.4502700000000006
 30
0.0
 10
0.21096
 20
5.4502700000000006
 30
0.0
 10
0.25668
 20
5.2877100000000006
 30
0.0
 10
0.25668
 20
5.2877100000000006
 30
0.0
 10
0.25668
 20
5.2877100000000006
 30
0.0
 10
0.20842
 20
5.1911900000000006
 30
0.0
 10
-0.05319
 20
5.0819700000000001
 30
0.0
 10
-0.04557
 20
5.2724700000000002
 30
0.0
 10
-0.04557
 20
5.2724700000000002
 30
0.0
 10
-0.04557
 20
5.3283500000000004
 30
0.0
 10
-0.10145
 20
5.2724700000000002
 30
0.0
 10
-0.09129
 20
5.2445300000000001
 30
0.0
 10
-0.09129
 20
5.2445300000000001
 30
0.0
 10
-0.09129
 20
5.2445300000000001
 30
0.0
 10
-0.10399
 20
5.2038900000000003
 30
0.0
 10
-0.10399
 20
5.2038900000000003
 30
0.0
 10
-0.10399
 20
5.2038900000000003
 30
0.0
 10
-0.19543
 20
5.3969300000000002
 30
0.0
 10
0.11952
 20
5.3689900000000002
 30
0.0
 10
0.21096
 20
5.4502700000000006
 30
0.0
  0
SPLINE
  5
30
100
AcDbEntity
  8
Ebene 1
 62
     7
100
AcDbSpline
210
0.0
220
0.0
230
1.0
 70
     1
 71
     3
 72
    12
 73
     8
 74
     0
 42
0.0000000001
 43
0.0000000001
 40
0.0
 40
0.0
 40
0.0
 40
0.0
 40
0.5
 40
0.5
 40
0.5
 40
0.5
 40
1.0
 40
1.0
 40
1.0
 40
1.0
 10
-0.27671
 20
5.4350300000000002
 30
0.0
 10
-0.27671
 20
5.4350300000000002
 30
0.0
 10
-0.12177
 20
5.4096300000000008
 30
0.0
 10
-0.12177
 20
5.4096300000000008
 30
0.0
 10
-0.12177
 20
5.4096300000000008
 30
0.0
 10
-0.15733
 20
5.3410500000000001
 30
0.0
 10
-0.3224300000000001
 20
5.3283500000000004
 30
0.0
 10
-0.27671
 20
5.4350300000000002
 30
0.0
  0
SPLINE
  5
31
100
AcDbEntity
  8
Ebene 1
 62
     7
100
AcDbSpline
210
0.0
220
0.0
230
1.0
 70
     1
 71
     3
 72
    16
 73
    12
 74
     0
 42
0.0000000001
 43
0.0000000001
 40
0.0
 40
0.0
 40
0.0
 40
0.0
 40
0.3333333333333333
 40
0.3333333333333333
 40
0.3333333333333333
 40
0.3333333333333333
 40
0.6666666666666666
 40
0.6666666666666666
 40
0.6666666666666666
 40
0.6666666666666666
 40
1.0
 40
1.0
 40
1.0
 40
1.0
 10
0.21096
 20
5.1632500000000006
 30
0.0
 10
0.3684400000000001
 20
5.0946700000000007
 30
0.0
 10
0.15254
 20
4.8508300000000002
 30
0.0
 10
0.04332
 20
4.9321100000000007
 30
0.0
 10
0.04332
 20
4.9321100000000007
 30
0.0
 10
0.04332
 20
4.9321100000000007
 30
0.0
 10
-0.02525
 20
4.9194100000000001
 30
0.0
 10
-0.02525
 20
4.9194100000000001
 30
0.0
 10
-0.02525
 20
4.9194100000000001
 30
0.0
 10
-0.04303
 20
5.0565700000000007
 30
0.0
 10
0.10428
 20
5.1099100000000002
 30
0.0
 10
0.21096
 20
5.1632500000000006
 30
0.0
  0
SPLINE
  5
32
100
AcDbEntity
  8
Ebene 1
 62
     7
100
AcDbSpline
210
0.0
220
0.0
230
1.0
 70
     1
 71
     3
 72
    12
 73
     8
 74
     0
 42
0.0000000001
 43
0.0000000001
 40
0.0
 40
0.0
 40
0.0
 40
0.0
 40
0.5
 40
0.5
 40
0.5
 40
0.5
 40
1.0
 40
1.0
 40
1.0
 40
1.0
 10
-0.27671
 20
5.1226100000000008
 30
0.0
 10
-0.27671
 20
5.1226100000000008
 30
0.0
 10
-0.19797
 20
5.1099100000000002
 30
0.0
 10
-0.19797
 20
5.1099100000000002
 30
0.0
 10
-0.19797
 20
5.1099100000000002
 30
0.0
 10
-0.03541
 20
5.1226100000000008
 30
0.0
 10
-0.36815
 20
4.9879900000000008
 30
0.0
 10
-0.27671
 20
5.1226100000000008
 30
0.0
  0
SPLINE
  5
33
100
AcDbEntity
  8
Ebene 1
 62
     7
100
AcDbSpline
210
0.0
220
0.0
230
1.0
 70
     1
 71
     3
 72
    28
 73
    24
 74
     0
 42
0.0000000001
 43
0.0000000001
 40
0.0
 40
0.0
 40
0.0
 40
0.0
 40
0.1666666666666667
 40
0.1666666666666667
 40
0.1666666666666667
 40
0.1666666666666667
 40
0.3333333333333333
 40
0.3333333333333333
 40
0.3333333333333333
 40
0.3333333333333333
 40
0.5
 40
0.5
 40
0.5
 40
0.5
 40
0.6666666666666666
 40
0.6666666666666666
 40
0.6666666666666666
 40
0.6666666666666666
 40
0.8333333333333333
 40
0.8333333333333333
 40
0.8333333333333333
 40
0.8333333333333333
 40
1.0
 40
1.0
 40
1.0
 40
1.0
 10
0.00014
 20
4.7822500000000003
 30
0.0
 10
0.00014
 20
4.7822500000000003
 30
0.0
 10
0.13984
 20
4.8635300000000008
 30
0.0
 10
0.13984
 20
4.8635300000000008
 30
0.0
 10
0.13984
 20
4.8635300000000008
 30
0.0
 10
0.3455800000000001
 20
4.9879900000000008
 30
0.0
 10
0.20334
 20
4.6044500000000008
 30
0.0
 10
0.06364
 20
4.6603300000000001
 30
0.0
 10
0.06364
 20
4.6603300000000001
 30
0.0
 10
0.05602
 20
4.6730300000000007
 30
0.0
 10
0.05856
 20
4.6882700000000002
 30
0.0
 10
0.0738
 20
4.6882700000000002
 30
0.0
 10
0.0738
 20
4.6882700000000002
 30
0.0
 10
0.1373
 20
4.6882700000000002
 30
0.0
 10
0.15
 20
4.7695500000000006
 30
0.0
 10
0.14746
 20
4.8228900000000001
 30
0.0
 10
0.14746
 20
4.8228900000000001
 30
0.0
 10
0.11444
 20
4.8381300000000005
 30
0.0
 10
0.09412
 20
4.8101900000000004
 30
0.0
 10
0.10428
 20
4.7822500000000003
 30
0.0
 10
0.10428
 20
4.7822500000000003
 30
0.0
 10
0.07126
 20
4.6730300000000007
 30
0.0
 10
0.0611
 20
4.7695500000000006
 30
0.0
 10
0.00014
 20
4.7822500000000003
 30
0.0
  0
SPLINE
  5
34
100
AcDbEntity
  8
Ebene 1
 62
     7
100
AcDbSpline
210
0.0
220
0.0
230
1.0
 70
     1
 71
     3
 72
    12
 73
     8
 74
     0
 42
0.0000000001
 43
0.0000000001
 40
0.0
 40
0.0
 40
0.0
 40
0.0
 40
0.5
 40
0.5
 40
0.5
 40
0.5
 40
1.0
 40
1.0
 40
1.0
 40
1.0
 10
-0.10653
 20
4.8228900000000001
 30
0.0
 10
-0.14717
 20
4.8101900000000004
 30
0.0
 10
-0.20305
 20
4.7695500000000006
 30
0.0
 10
-0.25639
 20
4.7695500000000006
 30
0.0
 10
-0.25639
 20
4.7695500000000006
 30
0.0
 10
-0.27671
 20
4.8508300000000002
 30
0.0
 10
-0.15479
 20
4.8228900000000001
 30
0.0
 10
-0.10653
 20
4.8228900000000001
 30
0.0
  0
SPLINE
  5
35
100
AcDbEntity
  8
Ebene 1
 62
     7
100
AcDbSpline
210
0.0
220
0.0
230
1.0
 70
     1
 71
     3
 72
    16
 73
    12
 74
     0
 42
0.0000000001
 43
0.0000000001
 40
0.0
 40
0.0
 40
0.0
 40
0.0
 40
0.3333333333333333
 40
0.3333333333333333
 40
0.3333333333333333
 40
0.3333333333333333
 40
0.6666666666666666
 40
0.6666666666666666
 40
0.6666666666666666
 40
0.6666666666666666
 40
1.0
 40
1.0
 40
1.0
 40
1.0
 10
0.18048
 20
4.6476300000000004
 30
0.0
 10
0.25414
 20
4.6196900000000003
 30
0.0
 10
0.27446
 20
4.37331
 30
0.0
 10
0.13984
 20
4.4012500000000001
 30
0.0
 10
0.13984
 20
4.4012500000000001
 30
0.0
 10
0.12714
 20
4.3885500000000004
 30
0.0
 10
0.11444
 20
4.3606100000000003
 30
0.0
 10
0.09412
 20
4.37331
 30
0.0
 10
0.09412
 20
4.37331
 30
0.0
 10
0.05856
 20
4.46983
 30
0.0
 10
0.08142
 20
4.5917500000000002
 30
0.0
 10
0.18048
 20
4.6476300000000004
 30
0.0
  0
SPLINE
  5
36
100
AcDbEntity
  8
Ebene 1
 62
     7
100
AcDbSpline
210
0.0
220
0.0
230
1.0
 70
     1
 71
     3
 72
    16
 73
    12
 74
     0
 42
0.0000000001
 43
0.0000000001
 40
0.0
 40
0.0
 40
0.0
 40
0.0
 40
0.3333333333333333
 40
0.3333333333333333
 40
0.3333333333333333
 40
0.3333333333333333
 40
0.6666666666666666
 40
0.6666666666666666
 40
0.6666666666666666
 40
0.6666666666666666
 40
1.0
 40
1.0
 40
1.0
 40
1.0
 10
-0.12177
 20
4.6196900000000003
 30
0.0
 10
-0.01001
 20
4.6044500000000008
 30
0.0
 10
-0.24115
 20
4.5104700000000006
 30
0.0
 10
-0.22591
 20
4.5917500000000002
 30
0.0
 10
-0.22591
 20
4.5917500000000002
 30
0.0
 10
-0.22591
 20
4.5917500000000002
 30
0.0
 10
-0.18273
 20
4.5917500000000002
 30
0.0
 10
-0.18273
 20
4.5917500000000002
 30
0.0
 10
-0.18273
 20
4.5917500000000002
 30
0.0
 10
-0.16241
 20
4.5917500000000002
 30
0.0
 10
-0.13193
 20
4.6044500000000008
 30
0.0
 10
-0.12177
 20
4.6196900000000003
 30
0.0
  0
SPLINE
  5
37
100
AcDbEntity
  8
Ebene 1
 62
     7
100
AcDbSpline
210
0.0
220
0.0
230
1.0
 70
     1
 71
     3
 72
    12
 73
     8
 74
     0
 42
0.0000000001
 43
0.0000000001
 40
0.0
 40
0.0
 40
0.0
 40
0.0
 40
0.5
 40
0.5
 40
0.5
 40
0.5
 40
1.0
 40
1.0
 40
1.0
 40
1.0
 10
-0.16749
 20
4.3606100000000003
 30
0.0
 10
-0.16749
 20
4.3606100000000003
 30
0.0
 10
-0.10653
 20
4.3606100000000003
 30
0.0
 10
-0.10653
 20
4.3606100000000003
 30
0.0
 10
-0.10653
 20
4.3606100000000003
 30
0.0
 10
0.02046
 20
4.3326700000000002
 30
0.0
 10
-0.25385
 20
4.2513900000000007
 30
0.0
 10
-0.16749
 20
4.3606100000000003
 30
0.0
  0
SPLINE
  5
38
100
AcDbEntity
  8
Ebene 1
 62
     7
100
AcDbSpline
210
0.0
220
0.0
230
1.0
 70
     1
 71
     3
 72
    20
 73
    16
 74
     0
 42
0.0000000001
 43
0.0000000001
 40
0.0
 40
0.0
 40
0.0
 40
0.0
 40
0.25
 40
0.25
 40
0.25
 40
0.25
 40
0.5
 40
0.5
 40
0.5
 40
0.5
 40
0.75
 40
0.75
 40
0.75
 40
0.75
 40
1.0
 40
1.0
 40
1.0
 40
1.0
 10
0.18048
 20
4.3479100000000006
 30
0.0
 10
0.2516000000000001
 20
4.3072699999999999
 30
0.0
 10
0.22366
 20
4.1294700000000004
 30
0.0
 10
0.10936
 20
4.1015300000000003
 30
0.0
 10
0.10936
 20
4.1015300000000003
 30
0.0
 10
0.10936
 20
4.1015300000000003
 30
0.0
 10
0.0865
 20
4.21075
 30
0.0
 10
0.0865
 20
4.21075
 30
0.0
 10
0.0865
 20
4.21075
 30
0.0
 10
0.04332
 20
4.21075
 30
0.0
 10
0.00522
 20
4.1701100000000002
 30
0.0
 10
-0.02525
 20
4.1574100000000005
 30
0.0
 10
-0.02525
 20
4.1574100000000005
 30
0.0
 10
-0.04557
 20
4.2793300000000007
 30
0.0
 10
0.12714
 20
4.2666300000000001
 30
0.0
 10
0.18048
 20
4.3479100000000006
 30
0.0
  0
SPLINE
  5
39
100
AcDbEntity
  8
Ebene 1
 62
     7
100
AcDbSpline
210
0.0
220
0.0
230
1.0
 70
     1
 71
     3
 72
    92
 73
    88
 74
     0
 42
0.0000000001
 43
0.0000000001
 40
0.0
 40
0.0
 40
0.0
 40
0.0
 40
0.0454545454545455
 40
0.0454545454545455
 40
0.0454545454545455
 40
0.0454545454545455
 40
0.0909090909090909
 40
0.0909090909090909
 40
0.0909090909090909
 40
0.0909090909090909
 40
0.1363636363636364
 40
0.1363636363636364
 40
0.1363636363636364
 40
0.1363636363636364
 40
0.1818181818181818
 40
0.1818181818181818
 40
0.1818181818181818
 40
0.1818181818181818
 40
0.2272727272727273
 40
0.2272727272727273
 40
0.2272727272727273
 40
0.2272727272727273
 40
0.2727272727272728
 40
0.2727272727272728
 40
0.2727272727272728
 40
0.2727272727272728
 40
0.3181818181818182
 40
0.3181818181818182
 40
0.3181818181818182
 40
0.3181818181818182
 40
0.3636363636363637
 40
0.3636363636363637
 40
0.3636363636363637
 40
0.3636363636363637
 40
0.4090909090909092
 40
0.4090909090909092
 40
0.4090909090909092
 40
0.4090909090909092
 40
0.4545454545454546
 40
0.4545454545454546
 40
0.4545454545454546
 40
0.4545454545454546
 40
0.5000000000000001
 40
0.5000000000000001
 40
0.5000000000000001
 40
0.5000000000000001
 40
0.5454545454545455
 40
0.5454545454545455
 40
0.5454545454545455
 40
0.5454545454545455
 40
0.5909090909090909
 40
0.5909090909090909
 40
0.5909090909090909
 40
0.5909090909090909
 40
0.6363636363636364
 40
0.6363636363636364
 40
0.6363636363636364
 40
0.6363636363636364
 40
0.6818181818181818
 40
0.6818181818181818
 40
0.6818181818181818
 40
0.6818181818181818
 40
0.7272727272727272
 40
0.7272727272727272
 40
0.7272727272727272
 40
0.7272727272727272
 40
0.7727272727272726
 40
0.7727272727272726
 40
0.7727272727272726
 40
0.7727272727272726
 40
0.818181818181818
 40
0.818181818181818
 40
0.818181818181818
 40
0.818181818181818
 40
0.8636363636363634
 40
0.8636363636363634
 40
0.8636363636363634
 40
0.8636363636363634
 40
0.9090909090909088
 40
0.9090909090909088
 40
0.9090909090909088
 40
0.9090909090909088
 40
0.9545454545454543
 40
0.9545454545454543
 40
0.9545454545454543
 40
0.9545454545454543
 40
1.0
 40
1.0
 40
1.0
 40
1.0
 10
-0.20305
 20
3.5020900000000004
 30
0.0
 10
-0.3122700000000001
 20
3.5859100000000002
 30
0.0
 10
-0.45451
 20
3.5579700000000001
 30
0.0
 10
-0.53071
 20
3.6798900000000003
 30
0.0
 10
-0.53071
 20
3.6798900000000003
 30
0.0
 10
-0.44181
 20
3.7611700000000003
 30
0.0
 10
-0.34783
 20
3.6392500000000001
 30
0.0
 10
-0.29195
 20
3.5859100000000002
 30
0.0
 10
-0.29195
 20
3.5859100000000002
 30
0.0
 10
-0.10399
 20
3.6519500000000003
 30
0.0
 10
0.06364
 20
3.5579700000000001
 30
0.0
 10
0.2389
 20
3.6392500000000001
 30
0.0
 10
0.2389
 20
3.6392500000000001
 30
0.0
 10
0.2389
 20
3.6392500000000001
 30
0.0
 10
0.3405
 20
3.7078300000000004
 30
0.0
 10
0.3405
 20
3.7078300000000004
 30
0.0
 10
0.3405
 20
3.7078300000000004
 30
0.0
 10
0.37098
 20
3.8170500000000005
 30
0.0
 10
0.30748
 20
3.9110300000000002
 30
0.0
 10
0.13984
 20
3.8830900000000002
 30
0.0
 10
0.13984
 20
3.8830900000000002
 30
0.0
 10
0.21858
 20
3.8170500000000005
 30
0.0
 10
0.12968
 20
3.7891100000000004
 30
0.0
 10
0.04078
 20
3.7078300000000004
 30
0.0
 10
0.04078
 20
3.7078300000000004
 30
0.0
 10
-0.02017
 20
3.6925900000000005
 30
0.0
 10
-0.06335
 20
3.7611700000000003
 30
0.0
 10
-0.09129
 20
3.8018100000000001
 30
0.0
 10
-0.09129
 20
3.8018100000000001
 30
0.0
 10
-0.16495
 20
3.5427300000000002
 30
0.0
 10
-0.31989
 20
3.9516700000000005
 30
0.0
 10
-0.4900700000000001
 20
3.8424500000000004
 30
0.0
 10
-0.4900700000000001
 20
3.8424500000000004
 30
0.0
 10
-0.4900700000000001
 20
3.8424500000000004
 30
0.0
 10
-0.50531
 20
3.8983300000000005
 30
0.0
 10
-0.50531
 20
3.8983300000000005
 30
0.0
 10
-0.50531
 20
3.8983300000000005
 30
0.0
 10
-0.50531
 20
3.8983300000000005
 30
0.0
 10
0.29478
 20
3.9237300000000004
 30
0.0
 10
0.29478
 20
3.9237300000000004
 30
0.0
 10
0.29478
 20
3.9237300000000004
 30
0.0
 10
0.3532
 20
3.7484700000000002
 30
0.0
 10
0.5437000000000001
 20
3.9643700000000002
 30
0.0
 10
0.6707000000000001
 20
3.9796100000000005
 30
0.0
 10
0.6707000000000001
 20
3.9796100000000005
 30
0.0
 10
0.658
 20
3.9110300000000002
 30
0.0
 10
0.4802
 20
3.8983300000000005
 30
0.0
 10
0.64022
 20
3.8576900000000003
 30
0.0
 10
0.64022
 20
3.8576900000000003
 30
0.0
 10
0.64022
 20
3.8576900000000003
 30
0.0
 10
0.7291200000000001
 20
3.8703900000000004
 30
0.0
 10
0.7291200000000001
 20
3.8703900000000004
 30
0.0
 10
0.7291200000000001
 20
3.8703900000000004
 30
0.0
 10
0.6910200000000001
 20
3.5579700000000001
 30
0.0
 10
1.0821800000000001
 20
4.04819
 30
0.0
 10
0.9678800000000001
 20
4.1701100000000002
 30
0.0
 10
0.9678800000000001
 20
4.1701100000000002
 30
0.0
 10
0.9678800000000001
 20
4.1701100000000002
 30
0.0
 10
1.02884
 20
4.2234500000000006
 30
0.0
 10
1.02884
 20
4.2234500000000006
 30
0.0
 10
1.02884
 20
4.2234500000000006
 30
0.0
 10
1.1837800000000001
 20
4.1904300000000001
 30
0.0
 10
1.5063600000000001
 20
3.6697300000000004
 30
0.0
 10
1.2422000000000002
 20
3.9491300000000003
 30
0.0
 10
1.2422000000000002
 20
3.9491300000000003
 30
0.0
 10
1.1685400000000001
 20
4.0050100000000004
 30
0.0
 10
1.1634600000000002
 20
4.1701100000000002
 30
0.0
 10
1.0517000000000001
 20
4.1421700000000001
 30
0.0
 10
1.0517000000000001
 20
4.1421700000000001
 30
0.0
 10
1.0009000000000001
 20
4.0202500000000008
 30
0.0
 10
1.0491600000000001
 20
3.8703900000000004
 30
0.0
 10
1.05932
 20
3.7332300000000003
 30
0.0
 10
1.05932
 20
3.7332300000000003
 30
0.0
 10
1.05932
 20
3.7332300000000003
 30
0.0
 10
1.1279000000000001
 20
3.7205300000000001
 30
0.0
 10
1.1279000000000001
 20
3.7205300000000001
 30
0.0
 10
1.1279000000000001
 20
3.7205300000000001
 30
0.0
 10
1.14314
 20
3.9973900000000002
 30
0.0
 10
1.5089000000000001
 20
3.7281500000000003
 30
0.0
 10
1.5546200000000001
 20
3.4893900000000002
 30
0.0
 10
1.5546200000000001
 20
3.4893900000000002
 30
0.0
 10
1.3260200000000002
 20
3.6671900000000002
 30
0.0
 10
0.9729600000000001
 20
3.6798900000000003
 30
0.0
 10
0.6859400000000001
 20
3.6392500000000001
 30
0.0
 10
0.6859400000000001
 20
3.6392500000000001
 30
0.0
 10
0.6529200000000001
 20
3.6544900000000005
 30
0.0
 10
0.27446
 20
3.5376500000000002
 30
0.0
 10
-0.20305
 20
3.5020900000000004
 30
0.0
  0
SPLINE
  5
3A
100
AcDbEntity
  8
Ebene 1
 62
     7
100
AcDbSpline
210
0.0
220
0.0
230
1.0
 70
     1
 71
     3
 72
    40
 73
    36
 74
     0
 42
0.0000000001
 43
0.0000000001
 40
0.0
 40
0.0
 40
0.0
 40
0.0
 40
0.1111111111111111
 40
0.1111111111111111
 40
0.1111111111111111
 40
0.1111111111111111
 40
0.2222222222222222
 40
0.2222222222222222
 40
0.2222222222222222
 40
0.2222222222222222
 40
0.3333333333333333
 40
0.3333333333333333
 40
0.3333333333333333
 40
0.3333333333333333
 40
0.4444444444444444
 40
0.4444444444444444
 40
0.4444444444444444
 40
0.4444444444444444
 40
0.5555555555555556
 40
0.5555555555555556
 40
0.5555555555555556
 40
0.5555555555555556
 40
0.6666666666666667
 40
0.6666666666666667
 40
0.6666666666666667
 40
0.6666666666666667
 40
0.7777777777777779
 40
0.7777777777777779
 40
0.7777777777777779
 40
0.7777777777777779
 40
0.8888888888888891
 40
0.8888888888888891
 40
0.8888888888888891
 40
0.8888888888888891
 40
1.0
 40
1.0
 40
1.0
 40
1.0
 10
-1.3155700000000001
 20
4.21075
 30
0.0
 10
-1.2317500000000001
 20
4.07613
 30
0.0
 10
-1.0133100000000002
 20
3.9643700000000002
 30
0.0
 10
-0.9218700000000001
 20
3.8703900000000004
 30
0.0
 10
-0.9218700000000001
 20
3.8703900000000004
 30
0.0
 10
-0.84567
 20
3.7891100000000004
 30
0.0
 10
-0.7364500000000001
 20
3.9262700000000001
 30
0.0
 10
-0.5992900000000001
 20
3.8703900000000004
 30
0.0
 10
-0.5992900000000001
 20
3.8703900000000004
 30
0.0
 10
-0.58913
 20
3.8297500000000002
 30
0.0
 10
-0.58913
 20
3.7764100000000003
 30
0.0
 10
-0.55357
 20
3.7332300000000003
 30
0.0
 10
-0.55357
 20
3.7332300000000003
 30
0.0
 10
-0.7720100000000001
 20
3.5020900000000004
 30
0.0
 10
-1.1504700000000001
 20
3.7687900000000005
 30
0.0
 10
-1.3689100000000001
 20
3.5249500000000005
 30
0.0
 10
-1.3689100000000001
 20
3.5249500000000005
 30
0.0
 10
-1.5136900000000002
 20
3.5655900000000003
 30
0.0
 10
-1.7067300000000001
 20
3.5579700000000001
 30
0.0
 10
-1.8337300000000001
 20
3.4741500000000003
 30
0.0
 10
-1.8337300000000001
 20
3.4741500000000003
 30
0.0
 10
-1.7930900000000001
 20
3.6240100000000002
 30
0.0
 10
-1.67117
 20
3.9262700000000001
 30
0.0
 10
-1.54671
 20
3.9516700000000005
 30
0.0
 10
-1.54671
 20
3.9516700000000005
 30
0.0
 10
-1.6229100000000001
 20
3.8983300000000005
 30
0.0
 10
-1.6152900000000001
 20
3.7484700000000002
 30
0.0
 10
-1.5111500000000002
 20
3.8703900000000004
 30
0.0
 10
-1.5111500000000002
 20
3.8703900000000004
 30
0.0
 10
-1.4578100000000001
 20
3.8170500000000005
 30
0.0
 10
-1.5644900000000002
 20
3.5859100000000002
 30
0.0
 10
-1.3968500000000001
 20
3.5986100000000003
 30
0.0
 10
-1.3968500000000001
 20
3.5986100000000003
 30
0.0
 10
-1.3968500000000001
 20
3.5986100000000003
 30
0.0
 10
-1.3155700000000001
 20
4.21075
 30
0.0
 10
-1.3155700000000001
 20
4.21075
 30
0.0
  0
SPLINE
  5
3B
100
AcDbEntity
  8
Ebene 1
 62
     7
100
AcDbSpline
210
0.0
220
0.0
230
1.0
 70
     1
 71
     3
 72
    16
 73
    12
 74
     0
 42
0.0000000001
 43
0.0000000001
 40
0.0
 40
0.0
 40
0.0
 40
0.0
 40
0.3333333333333333
 40
0.3333333333333333
 40
0.3333333333333333
 40
0.3333333333333333
 40
0.6666666666666666
 40
0.6666666666666666
 40
0.6666666666666666
 40
0.6666666666666666
 40
1.0
 40
1.0
 40
1.0
 40
1.0
 10
0.05856
 20
4.1142300000000001
 30
0.0
 10
0.07126
 20
4.1142300000000001
 30
0.0
 10
0.0865
 20
4.1015300000000003
 30
0.0
 10
0.0865
 20
4.0888300000000006
 30
0.0
 10
0.0865
 20
4.0888300000000006
 30
0.0
 10
-0.04557
 20
4.0608900000000006
 30
0.0
 10
-0.23353
 20
3.9262700000000001
 30
0.0
 10
-0.34783
 20
4.0202500000000008
 30
0.0
 10
-0.34783
 20
4.0202500000000008
 30
0.0
 10
-0.24115
 20
4.1015300000000003
 30
0.0
 10
-0.06081
 20
4.04819
 30
0.0
 10
0.05856
 20
4.1142300000000001
 30
0.0
  0
SPLINE
  5
3C
100
AcDbEntity
  8
Ebene 1
100
AcDbSpline
210
0.0
220
0.0
230
1.0
 70
     1
 71
     3
 72
    24
 73
    20
 74
     0
 42
0.0000000001
 43
0.0000000001
 40
0.0
 40
0.0
 40
0.0
 40
0.0
 40
0.2
 40
0.2
 40
0.2
 40
0.2
 40
0.4
 40
0.4
 40
0.4
 40
0.4
 40
0.6000000000000001
 40
0.6000000000000001
 40
0.6000000000000001
 40
0.6000000000000001
 40
0.8
 40
0.8
 40
0.8
 40
0.8
 40
1.0
 40
1.0
 40
1.0
 40
1.0
 10
-1.2850900000000001
 20
4.07613
 30
0.0
 10
-1.2850900000000001
 20
4.07613
 30
0.0
 10
-1.2292100000000001
 20
4.07613
 30
0.0
 10
-1.2292100000000001
 20
4.07613
 30
0.0
 10
-1.2292100000000001
 20
4.07613
 30
0.0
 10
-1.13015
 20
3.9262700000000001
 30
0.0
 10
-1.00315
 20
3.7891100000000004
 30
0.0
 10
-0.8304300000000001
 20
3.7205300000000001
 30
0.0
 10
-0.8304300000000001
 20
3.7205300000000001
 30
0.0
 10
-0.8304300000000001
 20
3.7205300000000001
 30
0.0
 10
-0.8304300000000001
 20
3.6671900000000002
 30
0.0
 10
-0.8304300000000001
 20
3.6671900000000002
 30
0.0
 10
-0.8304300000000001
 20
3.6671900000000002
 30
0.0
 10
-0.9904500000000001
 20
3.6925900000000005
 30
0.0
 10
-1.1428500000000001
 20
3.8983300000000005
 30
0.0
 10
-1.29779
 20
3.7891100000000004
 30
0.0
 10
-1.29779
 20
3.7891100000000004
 30
0.0
 10
-1.33081
 20
3.8830900000000002
 30
0.0
 10
-1.3003300000000002
 20
3.9796100000000005
 30
0.0
 10
-1.2850900000000001
 20
4.07613
 30
0.0
  0
SPLINE
  5
3D
100
AcDbEntity
  8
Ebene 1
 62
     7
100
AcDbSpline
210
0.0
220
0.0
230
1.0
 70
     1
 71
     3
 72
    24
 73
    20
 74
     0
 42
0.0000000001
 43
0.0000000001
 40
0.0
 40
0.0
 40
0.0
 40
0.0
 40
0.2
 40
0.2
 40
0.2
 40
0.2
 40
0.4
 40
0.4
 40
0.4
 40
0.4
 40
0.6000000000000001
 40
0.6000000000000001
 40
0.6000000000000001
 40
0.6000000000000001
 40
0.8
 40
0.8
 40
0.8
 40
0.8
 40
1.0
 40
1.0
 40
1.0
 40
1.0
 10
0.19572
 20
3.5173300000000003
 30
0.0
 10
0.24906
 20
3.5173300000000003
 30
0.0
 10
0.31256
 20
3.5300300000000004
 30
0.0
 10
0.3455800000000001
 20
3.4893900000000002
 30
0.0
 10
0.3455800000000001
 20
3.4893900000000002
 30
0.0
 10
0.3455800000000001
 20
3.4893900000000002
 30
0.0
 10
0.36082
 20
2.6994500000000001
 30
0.0
 10
0.36082
 20
2.6994500000000001
 30
0.0
 10
0.36082
 20
2.6994500000000001
 30
0.0
 10
0.277
 20
2.6054700000000004
 30
0.0
 10
0.13476
 20
2.5775300000000003
 30
0.0
 10
0.03316
 20
2.5216500000000002
 30
0.0
 10
0.03316
 20
2.5216500000000002
 30
0.0
 10
0.03316
 20
2.5216500000000002
 30
0.0
 10
0.01284
 20
3.0956900000000003
 30
0.0
 10
0.01284
 20
3.0956900000000003
 30
0.0
 10
0.01284
 20
3.0956900000000003
 30
0.0
 10
0.13984
 20
3.2049100000000004
 30
0.0
 10
0.10428
 20
3.3801700000000001
 30
0.0
 10
0.19572
 20
3.5173300000000003
 30
0.0
  0
SPLINE
  5
3E
100
AcDbEntity
  8
Ebene 1
 62
     7
100
AcDbSpline
210
0.0
220
0.0
230
1.0
 70
     1
 71
     3
 72
    12
 73
     8
 74
     0
 42
0.0000000001
 43
0.0000000001
 40
0.0
 40
0.0
 40
0.0
 40
0.0
 40
0.5
 40
0.5
 40
0.5
 40
0.5
 40
1.0
 40
1.0
 40
1.0
 40
1.0
 10
-0.29195
 20
3.3928700000000003
 30
0.0
 10
-0.09637
 20
3.1769700000000003
 30
0.0
 10
-0.07097
 20
2.8620100000000002
 30
0.0
 10
-0.12685
 20
2.59023
 30
0.0
 10
-0.12685
 20
2.59023
 30
0.0
 10
-0.3021100000000001
 20
2.8086700000000002
 30
0.0
 10
-0.26909
 20
3.1337900000000003
 30
0.0
 10
-0.29195
 20
3.3928700000000003
 30
0.0
  0
SPLINE
  5
3F
100
AcDbEntity
  8
Ebene 1
 62
     7
100
AcDbSpline
210
0.0
220
0.0
230
1.0
 70
     1
 71
     3
 72
   180
 73
   176
 74
     0
 42
0.0000000001
 43
0.0000000001
 40
0.0
 40
0.0
 40
0.0
 40
0.0
 40
0.0227272727272727
 40
0.0227272727272727
 40
0.0227272727272727
 40
0.0227272727272727
 40
0.0454545454545455
 40
0.0454545454545455
 40
0.0454545454545455
 40
0.0454545454545455
 40
0.0681818181818182
 40
0.0681818181818182
 40
0.0681818181818182
 40
0.0681818181818182
 40
0.0909090909090909
 40
0.0909090909090909
 40
0.0909090909090909
 40
0.0909090909090909
 40
0.1136363636363637
 40
0.1136363636363637
 40
0.1136363636363637
 40
0.1136363636363637
 40
0.1363636363636364
 40
0.1363636363636364
 40
0.1363636363636364
 40
0.1363636363636364
 40
0.1590909090909091
 40
0.1590909090909091
 40
0.1590909090909091
 40
0.1590909090909091
 40
0.1818181818181819
 40
0.1818181818181819
 40
0.1818181818181819
 40
0.1818181818181819
 40
0.2045454545454546
 40
0.2045454545454546
 40
0.2045454545454546
 40
0.2045454545454546
 40
0.2272727272727273
 40
0.2272727272727273
 40
0.2272727272727273
 40
0.2272727272727273
 40
0.2500000000000001
 40
0.2500000000000001
 40
0.2500000000000001
 40
0.2500000000000001
 40
0.2727272727272728
 40
0.2727272727272728
 40
0.2727272727272728
 40
0.2727272727272728
 40
0.2954545454545455
 40
0.2954545454545455
 40
0.2954545454545455
 40
0.2954545454545455
 40
0.3181818181818182
 40
0.3181818181818182
 40
0.3181818181818182
 40
0.3181818181818182
 40
0.3409090909090909
 40
0.3409090909090909
 40
0.3409090909090909
 40
0.3409090909090909
 40
0.3636363636363636
 40
0.3636363636363636
 40
0.3636363636363636
 40
0.3636363636363636
 40
0.3863636363636363
 40
0.3863636363636363
 40
0.3863636363636363
 40
0.3863636363636363
 40
0.409090909090909
 40
0.409090909090909
 40
0.409090909090909
 40
0.409090909090909
 40
0.4318181818181817
 40
0.4318181818181817
 40
0.4318181818181817
 40
0.4318181818181817
 40
0.4545454545454544
 40
0.4545454545454544
 40
0.4545454545454544
 40
0.4545454545454544
 40
0.4772727272727271
 40
0.4772727272727271
 40
0.4772727272727271
 40
0.4772727272727271
 40
0.4999999999999998
 40
0.4999999999999998
 40
0.4999999999999998
 40
0.4999999999999998
 40
0.5227272727272726
 40
0.5227272727272726
 40
0.5227272727272726
 40
0.5227272727272726
 40
0.5454545454545453
 40
0.5454545454545453
 40
0.5454545454545453
 40
0.5454545454545453
 40
0.568181818181818
 40
0.568181818181818
 40
0.568181818181818
 40
0.568181818181818
 40
0.5909090909090907
 40
0.5909090909090907
 40
0.5909090909090907
 40
0.5909090909090907
 40
0.6136363636363634
 40
0.6136363636363634
 40
0.6136363636363634
 40
0.6136363636363634
 40
0.6363636363636361
 40
0.6363636363636361
 40
0.6363636363636361
 40
0.6363636363636361
 40
0.6590909090909088
 40
0.6590909090909088
 40
0.6590909090909088
 40
0.6590909090909088
 40
0.6818181818181816
 40
0.6818181818181816
 40
0.6818181818181816
 40
0.6818181818181816
 40
0.7045454545454543
 40
0.7045454545454543
 40
0.7045454545454543
 40
0.7045454545454543
 40
0.727272727272727
 40
0.727272727272727
 40
0.727272727272727
 40
0.727272727272727
 40
0.7499999999999997
 40
0.7499999999999997
 40
0.7499999999999997
 40
0.7499999999999997
 40
0.7727272727272724
 40
0.7727272727272724
 40
0.7727272727272724
 40
0.7727272727272724
 40
0.7954545454545451
 40
0.7954545454545451
 40
0.7954545454545451
 40
0.7954545454545451
 40
0.8181818181818178
 40
0.8181818181818178
 40
0.8181818181818178
 40
0.8181818181818178
 40
0.8409090909090905
 40
0.8409090909090905
 40
0.8409090909090905
 40
0.8409090909090905
 40
0.8636363636363632
 40
0.8636363636363632
 40
0.8636363636363632
 40
0.8636363636363632
 40
0.8863636363636359
 40
0.8863636363636359
 40
0.8863636363636359
 40
0.8863636363636359
 40
0.9090909090909086
 40
0.9090909090909086
 40
0.9090909090909086
 40
0.9090909090909086
 40
0.9318181818181813
 40
0.9318181818181813
 40
0.9318181818181813
 40
0.9318181818181813
 40
0.954545454545454
 40
0.954545454545454
 40
0.954545454545454
 40
0.954545454545454
 40
0.9772727272727267
 40
0.9772727272727267
 40
0.9772727272727267
 40
0.9772727272727267
 40
1.0
 40
1.0
 40
1.0
 40
1.0
 10
0.65546
 20
-1.9792200000000002
 30
0.0
 10
0.65546
 20
-1.9792200000000002
 30
0.0
 10
0.74436
 20
-2.2510000000000003
 30
0.0
 10
0.74436
 20
-2.2510000000000003
 30
0.0
 10
0.74436
 20
-2.2510000000000003
 30
0.0
 10
0.5665600000000001
 20
-2.2103600000000001
 30
0.0
 10
0.6072000000000001
 20
-2.4161000000000001
 30
0.0
 10
0.5614800000000001
 20
-2.52786
 30
0.0
 10
0.5614800000000001
 20
-2.52786
 30
0.0
 10
0.5056000000000001
 20
-2.4313400000000001
 30
0.0
 10
0.45734
 20
-2.3856200000000003
 30
0.0
 10
0.45988
 20
-2.27894
 30
0.0
 10
0.45988
 20
-2.27894
 30
0.0
 10
0.3786000000000001
 20
-2.43642
 30
0.0
 10
0.41162
 20
-2.3449800000000001
 30
0.0
 10
0.41162
 20
-2.4973800000000002
 30
0.0
 10
0.41162
 20
-2.4973800000000002
 30
0.0
 10
0.41162
 20
-2.4973800000000002
 30
0.0
 10
0.3532
 20
-2.6218400000000002
 30
0.0
 10
0.3532
 20
-2.6218400000000002
 30
0.0
 10
0.3532
 20
-2.6218400000000002
 30
0.0
 10
0.36082
 20
-2.4592800000000001
 30
0.0
 10
0.11952
 20
-2.3348200000000001
 30
0.0
 10
0.0865
 20
-2.5405600000000002
 30
0.0
 10
0.0865
 20
-2.5405600000000002
 30
0.0
 10
0.04332
 20
-2.5126200000000001
 30
0.0
 10
-0.04303
 20
-2.4745200000000001
 30
0.0
 10
-0.07859
 20
-2.5024600000000001
 30
0.0
 10
-0.07859
 20
-2.5024600000000001
 30
0.0
 10
-0.16495
 20
-1.8954000000000002
 30
0.0
 10
-0.21321
 20
-2.1417800000000002
 30
0.0
 10
-0.18527
 20
-2.3475200000000003
 30
0.0
 10
-0.18527
 20
-2.3475200000000003
 30
0.0
 10
-0.16241
 20
-2.5024600000000001
 30
0.0
 10
-0.47229
 20
-2.4542000000000002
 30
0.0
 10
-0.47737
 20
-2.3653000000000004
 30
0.0
 10
-0.47737
 20
-2.3653000000000004
 30
0.0
 10
-0.48753
 20
-2.1494
 30
0.0
 10
-0.5611900000000001
 20
-2.0173200000000002
 30
0.0
 10
-0.56881
 20
-2.1722600000000001
 30
0.0
 10
-0.56881
 20
-2.1722600000000001
 30
0.0
 10
-0.6094500000000001
 20
-2.3221200000000004
 30
0.0
 10
-0.61199
 20
-2.5126200000000001
 30
0.0
 10
-0.7491500000000001
 20
-2.2941800000000003
 30
0.0
 10
-0.7491500000000001
 20
-2.2941800000000003
 30
0.0
 10
-0.6881900000000001
 20
-1.9944600000000001
 30
0.0
 10
-0.59675
 20
-1.7099800000000001
 30
0.0
 10
-0.50785
 20
-1.4229600000000002
 30
0.0
 10
-0.50785
 20
-1.4229600000000002
 30
0.0
 10
-0.72121
 20
-1.4788400000000002
 30
0.0
 10
-0.8558300000000001
 20
-1.7226800000000002
 30
0.0
 10
-1.1022100000000001
 20
-1.7506200000000001
 30
0.0
 10
-1.1022100000000001
 20
-1.7506200000000001
 30
0.0
 10
-1.5263900000000001
 20
-1.6007600000000002
 30
0.0
 10
-2.1436100000000002
 20
-1.2477
 30
0.0
 10
-1.9912100000000001
 20
-0.75748
 30
0.0
 10
-1.9912100000000001
 20
-0.75748
 30
0.0
 10
-1.8946900000000002
 20
-0.8108200000000001
 30
0.0
 10
-1.9556500000000001
 20
-0.9606800000000001
 30
0.0
 10
-1.8718300000000001
 20
-1.00132
 30
0.0
 10
-1.8718300000000001
 20
-1.00132
 30
0.0
 10
-1.8718300000000001
 20
-1.00132
 30
0.0
 10
-1.8667500000000001
 20
-0.82352
 30
0.0
 10
-1.8667500000000001
 20
-0.82352
 30
0.0
 10
-1.8667500000000001
 20
-0.82352
 30
0.0
 10
-1.9480300000000002
 20
-0.42982
 30
0.0
 10
-2.1969500000000002
 20
-0.04882
 30
0.0
 10
-2.1690100000000001
 20
0.37027
 30
0.0
 10
-2.1690100000000001
 20
0.37027
 30
0.0
 10
-2.0572500000000002
 20
0.5887100000000001
 30
0.0
 10
-1.8108700000000002
 20
0.7385700000000001
 30
0.0
 10
-1.54925
 20
0.76651
 30
0.0
 10
-1.54925
 20
0.76651
 30
0.0
 10
-1.7245100000000002
 20
0.9011300000000001
 30
0.0
 10
-2.0089900000000003
 20
0.6445900000000001
 30
0.0
 10
-2.1690100000000001
 20
0.5480700000000001
 30
0.0
 10
-2.1690100000000001
 20
0.5480700000000001
 30
0.0
 10
-2.56779
 20
1.56915
 30
0.0
 10
-1.5670300000000001
 20
2.5622900000000004
 30
0.0
 10
-0.4926100000000001
 20
2.8086700000000002
 30
0.0
 10
-0.4926100000000001
 20
2.8086700000000002
 30
0.0
 10
-0.41895
 20
2.4683100000000002
 30
0.0
 10
-0.9396500000000001
 20
2.3997300000000004
 30
0.0
 10
-1.1784100000000002
 20
2.24987
 30
0.0
 10
-1.1784100000000002
 20
2.24987
 30
0.0
 10
-1.2673100000000002
 20
2.2371700000000003
 30
0.0
 10
-1.3003300000000002
 20
2.16859
 30
0.0
 10
-1.3587500000000001
 20
2.1152500000000001
 30
0.0
 10
-1.3587500000000001
 20
2.1152500000000001
 30
0.0
 10
-1.3587500000000001
 20
2.1152500000000001
 30
0.0
 10
-1.50353
 20
2.0187300000000001
 30
0.0
 10
-1.50353
 20
2.0187300000000001
 30
0.0
 10
-1.50353
 20
2.0187300000000001
 30
0.0
 10
-1.7854700000000001
 20
1.7190100000000001
 30
0.0
 10
-0.7059700000000001
 20
2.5368900000000001
 30
0.0
 10
-1.1580900000000001
 20
2.1000100000000002
 30
0.0
 10
-1.1580900000000001
 20
2.1000100000000002
 30
0.0
 10
-1.2165100000000002
 20
2.0466700000000002
 30
0.0
 10
-1.2596900000000002
 20
2.0034900000000002
 30
0.0
 10
-1.3003300000000002
 20
1.9501500000000001
 30
0.0
 10
-1.3003300000000002
 20
1.9501500000000001
 30
0.0
 10
-1.4247900000000002
 20
1.8561700000000001
 30
0.0
 10
-1.2749300000000001
 20
1.8282300000000002
 30
0.0
 10
-1.2850900000000001
 20
1.7190100000000001
 30
0.0
 10
-1.2850900000000001
 20
1.7190100000000001
 30
0.0
 10
-1.3206500000000001
 20
1.5970900000000001
 30
0.0
 10
-1.21397
 20
1.5564500000000001
 30
0.0
 10
-1.2419100000000001
 20
1.7063100000000002
 30
0.0
 10
-1.2419100000000001
 20
1.7063100000000002
 30
0.0
 10
-1.37653
 20
2.16859
 30
0.0
 10
-0.04049
 20
2.9712300000000003
 30
0.0
 10
-0.16749
 20
2.1558900000000003
 30
0.0
 10
-0.16749
 20
2.1558900000000003
 30
0.0
 10
-0.08113
 20
2.0593700000000004
 30
0.0
 10
-0.03287
 20
1.9501500000000001
 30
0.0
 10
0.00268
 20
1.8282300000000002
 30
0.0
 10
0.00268
 20
1.8282300000000002
 30
0.0
 10
0.11698
 20
1.8282300000000002
 30
0.0
 10
-0.01255
 20
1.9501500000000001
 30
0.0
 10
0.00014
 20
2.0034900000000002
 30
0.0
 10
0.00014
 20
2.0034900000000002
 30
0.0
 10
-0.41387
 20
2.4911700000000003
 30
0.0
 10
0.59196
 20
2.8137500000000002
 30
0.0
 10
0.55894
 20
2.3311500000000001
 30
0.0
 10
0.55894
 20
2.3311500000000001
 30
0.0
 10
0.55386
 20
2.2701900000000004
 30
0.0
 10
0.5868800000000001
 20
2.20669
 30
0.0
 10
0.59958
 20
2.1152500000000001
 30
0.0
 10
0.59958
 20
2.1152500000000001
 30
0.0
 10
0.7697600000000001
 20
2.0593700000000004
 30
0.0
 10
0.61736
 20
1.5462900000000002
 30
0.0
 10
0.7900800000000001
 20
1.7240900000000001
 30
0.0
 10
0.7900800000000001
 20
1.7240900000000001
 30
0.0
 10
0.82564
 20
1.8790300000000002
 30
0.0
 10
1.0034400000000001
 20
2.0314300000000003
 30
0.0
 10
1.2676000000000001
 20
1.7723500000000001
 30
0.0
 10
1.2676000000000001
 20
1.7723500000000001
 30
0.0
 10
1.2676000000000001
 20
1.7723500000000001
 30
0.0
 10
1.4327000000000001
 20
1.6656700000000002
 30
0.0
 10
1.4327000000000001
 20
1.6656700000000002
 30
0.0
 10
1.4327000000000001
 20
1.6656700000000002
 30
0.0
 10
1.2828400000000002
 20
1.9374500000000001
 30
0.0
 10
0.9043800000000001
 20
1.9653900000000002
 30
0.0
 10
0.6757800000000001
 20
2.1406500000000004
 30
0.0
 10
0.6757800000000001
 20
2.1406500000000004
 30
0.0
 10
0.5564
 20
2.5495900000000002
 30
0.0
 10
0.85104
 20
2.4683100000000002
 30
0.0
 10
1.1304400000000001
 20
2.4683100000000002
 30
0.0
 10
1.1304400000000001
 20
2.4683100000000002
 30
0.0
 10
0.8967600000000001
 20
2.50895
 30
0.0
 10
0.5411600000000001
 20
2.5622900000000004
 30
0.0
 10
0.45988
 20
2.8086700000000002
 30
0.0
 10
0.45988
 20
2.8086700000000002
 30
0.0
 10
1.4911200000000002
 20
2.6308700000000003
 30
0.0
 10
2.4131400000000003
 20
1.6504300000000001
 30
0.0
 10
2.0143600000000004
 20
0.68523
 30
0.0
 10
2.0143600000000004
 20
0.68523
 30
0.0
 10
1.9203800000000002
 20
0.7106300000000001
 30
0.0
 10
1.7984600000000002
 20
0.80715
 30
0.0
 10
1.69686
 20
0.7538100000000001
 30
0.0
 10
1.69686
 20
0.7538100000000001
 30
0.0
 10
2.7255600000000002
 20
0.38551
 30
0.0
 10
1.5901800000000001
 20
-0.53396
 30
0.0
 10
1.9915000000000003
 20
-1.11816
 30
0.0
 10
1.9915000000000003
 20
-1.11816
 30
0.0
 10
1.7476600000000002
 20
-1.49916
 30
0.0
 10
1.1710800000000001
 20
-1.7099800000000001
 30
0.0
 10
0.7977000000000001
 20
-1.4102600000000001
 30
0.0
 10
0.7977000000000001
 20
-1.4102600000000001
 30
0.0
 10
0.8586600000000001
 20
-1.6134600000000001
 30
0.0
 10
0.9094600000000001
 20
-1.8192000000000002
 30
0.0
 10
0.9450200000000001
 20
-2.0224000000000002
 30
0.0
 10
0.9450200000000001
 20
-2.0224000000000002
 30
0.0
 10
0.7291200000000001
 20
-2.3957800000000002
 30
0.0
 10
0.82564
 20
-1.9030200000000002
 30
0.0
 10
0.65546
 20
-1.9792200000000002
 30
0.0
  0
SPLINE
  5
40
100
AcDbEntity
  8
Ebene 1
 62
     7
100
AcDbSpline
210
0.0
220
0.0
230
1.0
 70
     1
 71
     3
 72
    56
 73
    52
 74
     0
 42
0.0000000001
 43
0.0000000001
 40
0.0
 40
0.0
 40
0.0
 40
0.0
 40
0.0769230769230769
 40
0.0769230769230769
 40
0.0769230769230769
 40
0.0769230769230769
 40
0.1538461538461539
 40
0.1538461538461539
 40
0.1538461538461539
 40
0.1538461538461539
 40
0.2307692307692308
 40
0.2307692307692308
 40
0.2307692307692308
 40
0.2307692307692308
 40
0.3076923076923077
 40
0.3076923076923077
 40
0.3076923076923077
 40
0.3076923076923077
 40
0.3846153846153846
 40
0.3846153846153846
 40
0.3846153846153846
 40
0.3846153846153846
 40
0.4615384615384616
 40
0.4615384615384616
 40
0.4615384615384616
 40
0.4615384615384616
 40
0.5384615384615386
 40
0.5384615384615386
 40
0.5384615384615386
 40
0.5384615384615386
 40
0.6153846153846154
 40
0.6153846153846154
 40
0.6153846153846154
 40
0.6153846153846154
 40
0.6923076923076923
 40
0.6923076923076923
 40
0.6923076923076923
 40
0.6923076923076923
 40
0.7692307692307692
 40
0.7692307692307692
 40
0.7692307692307692
 40
0.7692307692307692
 40
0.846153846153846
 40
0.846153846153846
 40
0.846153846153846
 40
0.846153846153846
 40
0.9230769230769229
 40
0.9230769230769229
 40
0.9230769230769229
 40
0.9230769230769229
 40
1.0
 40
1.0
 40
1.0
 40
1.0
 10
3.3504000000000005
 20
1.0382900000000002
 30
0.0
 10
3.6501200000000003
 20
1.0382900000000002
 30
0.0
 10
3.7847400000000002
 20
0.72587
 30
0.0
 10
3.8152200000000005
 20
0.5074300000000001
 30
0.0
 10
3.8152200000000005
 20
0.5074300000000001
 30
0.0
 10
3.8431600000000001
 20
0.4515500000000001
 30
0.0
 10
3.8380800000000002
 20
0.39821
 30
0.0
 10
3.8457000000000003
 20
0.32963
 30
0.0
 10
3.8457000000000003
 20
0.32963
 30
0.0
 10
3.9498400000000005
 20
0.2635900000000001
 30
0.0
 10
3.8711000000000002
 20
0.46679
 30
0.0
 10
3.9600000000000004
 20
0.46679
 30
0.0
 10
3.9600000000000004
 20
0.46679
 30
0.0
 10
4.0209600000000005
 20
0.43885
 30
0.0
 10
4.0412800000000004
 20
0.39821
 30
0.0
 10
4.0539800000000001
 20
0.34487
 30
0.0
 10
4.0539800000000001
 20
0.34487
 30
0.0
 10
4.0539800000000001
 20
0.34487
 30
0.0
 10
3.9447600000000005
 20
0.09849
 30
0.0
 10
3.9447600000000005
 20
0.09849
 30
0.0
 10
3.9447600000000005
 20
0.09849
 30
0.0
 10
3.3834200000000001
 20
-0.25202
 30
0.0
 10
2.7103200000000003
 20
-0.45522
 30
0.0
 10
2.1870800000000004
 20
-0.8794000000000001
 30
0.0
 10
2.1870800000000004
 20
-0.8794000000000001
 30
0.0
 10
2.2201
 20
-0.9454400000000001
 30
0.0
 10
2.4029800000000003
 20
-0.8108200000000001
 30
0.0
 10
2.2607400000000002
 20
-0.9327400000000001
 30
0.0
 10
2.2607400000000002
 20
-0.9327400000000001
 30
0.0
 10
2.2607400000000002
 20
-0.9327400000000001
 30
0.0
 10
2.1464400000000001
 20
-1.0140200000000001
 30
0.0
 10
2.1464400000000001
 20
-1.0140200000000001
 30
0.0
 10
2.1464400000000001
 20
-1.0140200000000001
 30
0.0
 10
2.0829400000000002
 20
-0.78288
 30
0.0
 10
2.0981800000000002
 20
-0.56698
 30
0.0
 10
2.1921600000000003
 20
-0.34854
 30
0.0
 10
2.1921600000000003
 20
-0.34854
 30
0.0
 10
2.6519000000000004
 20
-0.03358
 30
0.0
 10
3.2843600000000004
 20
0.22041
 30
0.0
 10
3.3631000000000002
 20
0.7792100000000001
 30
0.0
 10
3.3631000000000002
 20
0.7792100000000001
 30
0.0
 10
3.2615000000000003
 20
0.7792100000000001
 30
0.0
 10
3.2488000000000001
 20
0.65729
 30
0.0
 10
3.1776800000000001
 20
0.6039500000000001
 30
0.0
 10
3.1776800000000001
 20
0.6039500000000001
 30
0.0
 10
3.1776800000000001
 20
0.6039500000000001
 30
0.0
 10
3.2005400000000002
 20
0.7792100000000001
 30
0.0
 10
3.2005400000000002
 20
0.7792100000000001
 30
0.0
 10
3.2005400000000002
 20
0.7792100000000001
 30
0.0
 10
3.2386400000000002
 20
0.8604900000000001
 30
0.0
 10
3.2792800000000004
 20
0.95701
 30
0.0
 10
3.3504000000000005
 20
1.0382900000000002
 30
0.0
  0
SPLINE
  5
41
100
AcDbEntity
  8
Ebene 1
 62
     7
100
AcDbSpline
210
0.0
220
0.0
230
1.0
 70
     1
 71
     3
 72
    60
 73
    56
 74
     0
 42
0.0000000001
 43
0.0000000001
 40
0.0
 40
0.0
 40
0.0
 40
0.0
 40
0.0714285714285714
 40
0.0714285714285714
 40
0.0714285714285714
 40
0.0714285714285714
 40
0.1428571428571429
 40
0.1428571428571429
 40
0.1428571428571429
 40
0.1428571428571429
 40
0.2142857142857143
 40
0.2142857142857143
 40
0.2142857142857143
 40
0.2142857142857143
 40
0.2857142857142857
 40
0.2857142857142857
 40
0.2857142857142857
 40
0.2857142857142857
 40
0.3571428571428571
 40
0.3571428571428571
 40
0.3571428571428571
 40
0.3571428571428571
 40
0.4285714285714285
 40
0.4285714285714285
 40
0.4285714285714285
 40
0.4285714285714285
 40
0.4999999999999999
 40
0.4999999999999999
 40
0.4999999999999999
 40
0.4999999999999999
 40
0.5714285714285713
 40
0.5714285714285713
 40
0.5714285714285713
 40
0.5714285714285713
 40
0.6428571428571427
 40
0.6428571428571427
 40
0.6428571428571427
 40
0.6428571428571427
 40
0.7142857142857141
 40
0.7142857142857141
 40
0.7142857142857141
 40
0.7142857142857141
 40
0.7857142857142855
 40
0.7857142857142855
 40
0.7857142857142855
 40
0.7857142857142855
 40
0.8571428571428569
 40
0.8571428571428569
 40
0.8571428571428569
 40
0.8571428571428569
 40
0.9285714285714283
 40
0.9285714285714283
 40
0.9285714285714283
 40
0.9285714285714283
 40
1.0
 40
1.0
 40
1.0
 40
1.0
 10
-3.3526500000000001
 20
0.9011300000000001
 30
0.0
 10
-3.2739100000000003
 20
0.84779
 30
0.0
 10
-3.3221700000000003
 20
0.6699900000000001
 30
0.0
 10
-3.1799300000000001
 20
0.61665
 30
0.0
 10
-3.1799300000000001
 20
0.61665
 30
0.0
 10
-3.1799300000000001
 20
0.61665
 30
0.0
 10
-3.0808700000000004
 20
0.4947300000000001
 30
0.0
 10
-3.0808700000000004
 20
0.4947300000000001
 30
0.0
 10
-3.0808700000000004
 20
0.4947300000000001
 30
0.0
 10
-2.6389100000000001
 20
0.24835
 30
0.0
 10
-3.4745700000000004
 20
0.9163700000000001
 30
0.0
 10
-3.0478500000000004
 20
0.84779
 30
0.0
 10
-3.0478500000000004
 20
0.84779
 30
0.0
 10
-3.0478500000000004
 20
0.84779
 30
0.0
 10
-2.90307
 20
0.68523
 30
0.0
 10
-2.90307
 20
0.68523
 30
0.0
 10
-2.90307
 20
0.68523
 30
0.0
 10
-2.7938500000000004
 20
0.56077
 30
0.0
 10
-2.9284700000000004
 20
0.39821
 30
0.0
 10
-2.90307
 20
0.24835
 30
0.0
 10
-2.90307
 20
0.24835
 30
0.0
 10
-2.7709900000000003
 20
-0.21138
 30
0.0
 10
-1.8997700000000002
 20
-0.45522
 30
0.0
 10
-2.1156700000000002
 20
-1.0140200000000001
 30
0.0
 10
-2.1156700000000002
 20
-1.0140200000000001
 30
0.0
 10
-2.4839700000000002
 20
-0.8387600000000001
 30
0.0
 10
-2.8014700000000001
 20
-0.5796800000000001
 30
0.0
 10
-3.1088100000000001
 20
-0.3206000000000001
 30
0.0
 10
-3.1088100000000001
 20
-0.3206000000000001
 30
0.0
 10
-3.0859500000000004
 20
-0.29266
 30
0.0
 10
-2.9259300000000001
 20
-0.38918
 30
0.0
 10
-2.9741900000000001
 20
-0.29266
 30
0.0
 10
-2.9741900000000001
 20
-0.29266
 30
0.0
 10
-3.3043900000000002
 20
-0.1428
 30
0.0
 10
-3.6828500000000002
 20
-0.10216
 30
0.0
 10
-3.9774900000000004
 20
0.09849
 30
0.0
 10
-3.9774900000000004
 20
0.09849
 30
0.0
 10
-4.0257500000000004
 20
0.17977
 30
0.0
 10
-4.0409900000000007
 20
0.27629
 30
0.0
 10
-4.0562300000000002
 20
0.3575700000000001
 30
0.0
 10
-4.0562300000000002
 20
0.3575700000000001
 30
0.0
 10
-4.0333700000000006
 20
0.4515500000000001
 30
0.0
 10
-3.8911300000000004
 20
0.4515500000000001
 30
0.0
 10
-3.8123900000000002
 20
0.5074300000000001
 30
0.0
 10
-3.8123900000000002
 20
0.5074300000000001
 30
0.0
 10
-3.7590500000000002
 20
0.4515500000000001
 30
0.0
 10
-3.9139900000000005
 20
0.3169300000000001
 30
0.0
 10
-3.8276300000000005
 20
0.27629
 30
0.0
 10
-3.8276300000000005
 20
0.27629
 30
0.0
 10
-3.8276300000000005
 20
0.27629
 30
0.0
 10
-3.7234900000000004
 20
0.4109100000000001
 30
0.0
 10
-3.7234900000000004
 20
0.4109100000000001
 30
0.0
 10
-3.7234900000000004
 20
0.4109100000000001
 30
0.0
 10
-3.6295100000000002
 20
0.6039500000000001
 30
0.0
 10
-3.5914100000000002
 20
0.8350900000000001
 30
0.0
 10
-3.3526500000000001
 20
0.9011300000000001
 30
0.0
  0
SPLINE
  5
42
100
AcDbEntity
  8
Ebene 1
100
AcDbSpline
210
0.0
220
0.0
230
1.0
 70
     1
 71
     3
 72
    20
 73
    16
 74
     0
 42
0.0000000001
 43
0.0000000001
 40
0.0
 40
0.0
 40
0.0
 40
0.0
 40
0.25
 40
0.25
 40
0.25
 40
0.25
 40
0.5
 40
0.5
 40
0.5
 40
0.5
 40
0.75
 40
0.75
 40
0.75
 40
0.75
 40
1.0
 40
1.0
 40
1.0
 40
1.0
 10
1.1304400000000001
 20
0.7385700000000001
 30
0.0
 10
1.1609200000000002
 20
0.7538100000000001
 30
0.0
 10
1.1914
 20
0.72587
 30
0.0
 10
1.1736200000000001
 20
0.6979300000000001
 30
0.0
 10
1.1736200000000001
 20
0.6979300000000001
 30
0.0
 10
0.8789800000000001
 20
0.42615
 30
0.0
 10
0.4522600000000001
 20
0.28899
 30
0.0
 10
0.25414
 20
-0.04882
 30
0.0
 10
0.25414
 20
-0.04882
 30
0.0
 10
0.25414
 20
-0.04882
 30
0.0
 10
0.2008
 20
-0.04882
 30
0.0
 10
0.2008
 20
-0.04882
 30
0.0
 10
0.2008
 20
-0.04882
 30
0.0
 10
0.31002
 20
0.32963
 30
0.0
 10
0.8459600000000001
 20
0.46679
 30
0.0
 10
1.1304400000000001
 20
0.7385700000000001
 30
0.0
  0
SPLINE
  5
43
100
AcDbEntity
  8
Ebene 1
100
AcDbSpline
210
0.0
220
0.0
230
1.0
 70
     1
 71
     3
 72
    20
 73
    16
 74
     0
 42
0.0000000001
 43
0.0000000001
 40
0.0
 40
0.0
 40
0.0
 40
0.0
 40
0.25
 40
0.25
 40
0.25
 40
0.25
 40
0.5
 40
0.5
 40
0.5
 40
0.5
 40
0.75
 40
0.75
 40
0.75
 40
0.75
 40
1.0
 40
1.0
 40
1.0
 40
1.0
 10
-1.1784100000000002
 20
0.5887100000000001
 30
0.0
 10
-1.1784100000000002
 20
0.5887100000000001
 30
0.0
 10
-1.1352300000000002
 20
0.5887100000000001
 30
0.0
 10
-1.1352300000000002
 20
0.5887100000000001
 30
0.0
 10
-1.1352300000000002
 20
0.5887100000000001
 30
0.0
 10
-0.8609100000000001
 20
0.19501
 30
0.0
 10
-0.17511
 20
0.24835
 30
0.0
 10
0.0103
 20
-0.18598
 30
0.0
 10
0.0103
 20
-0.18598
 30
0.0
 10
0.0103
 20
-0.18598
 30
0.0
 10
-0.08875
 20
-0.18598
 30
0.0
 10
-0.08875
 20
-0.18598
 30
0.0
 10
-0.08875
 20
-0.18598
 30
0.0
 10
-0.27163
 20
0.22041
 30
0.0
 10
-1.0209300000000001
 20
0.17977
 30
0.0
 10
-1.1784100000000002
 20
0.5887100000000001
 30
0.0
  0
SPLINE
  5
44
100
AcDbEntity
  8
Ebene 1
100
AcDbSpline
210
0.0
220
0.0
230
1.0
 70
     1
 71
     3
 72
    40
 73
    36
 74
     0
 42
0.0000000001
 43
0.0000000001
 40
0.0
 40
0.0
 40
0.0
 40
0.0
 40
0.1111111111111111
 40
0.1111111111111111
 40
0.1111111111111111
 40
0.1111111111111111
 40
0.2222222222222222
 40
0.2222222222222222
 40
0.2222222222222222
 40
0.2222222222222222
 40
0.3333333333333333
 40
0.3333333333333333
 40
0.3333333333333333
 40
0.3333333333333333
 40
0.4444444444444444
 40
0.4444444444444444
 40
0.4444444444444444
 40
0.4444444444444444
 40
0.5555555555555556
 40
0.5555555555555556
 40
0.5555555555555556
 40
0.5555555555555556
 40
0.6666666666666667
 40
0.6666666666666667
 40
0.6666666666666667
 40
0.6666666666666667
 40
0.7777777777777779
 40
0.7777777777777779
 40
0.7777777777777779
 40
0.7777777777777779
 40
0.8888888888888891
 40
0.8888888888888891
 40
0.8888888888888891
 40
0.8888888888888891
 40
1.0
 40
1.0
 40
1.0
 40
1.0
 10
1.6206600000000002
 20
0.03245
 30
0.0
 10
1.6714600000000002
 20
0.03245
 30
0.0
 10
1.7248000000000001
 20
0.04515
 30
0.0
 10
1.7705200000000001
 20
0.01721
 30
0.0
 10
1.7705200000000001
 20
0.01721
 30
0.0
 10
1.7883000000000002
 20
-0.07676
 30
0.0
 10
1.6740000000000002
 20
0.00451
 30
0.0
 10
1.6409800000000001
 20
-0.04882
 30
0.0
 10
1.6409800000000001
 20
-0.04882
 30
0.0
 10
1.7019400000000002
 20
-0.29266
 30
0.0
 10
1.7908400000000002
 20
-0.56698
 30
0.0
 10
1.7248000000000001
 20
-0.82352
 30
0.0
 10
1.7248000000000001
 20
-0.82352
 30
0.0
 10
1.6638400000000002
 20
-0.86416
 30
0.0
 10
1.6867000000000001
 20
-0.7295400000000001
 30
0.0
 10
1.6409800000000001
 20
-0.74224
 30
0.0
 10
1.6409800000000001
 20
-0.74224
 30
0.0
 10
1.5952600000000001
 20
-0.90734
 30
0.0
 10
1.2803000000000002
 20
-0.90734
 30
0.0
 10
1.35904
 20
-1.04196
 30
0.0
 10
1.35904
 20
-1.04196
 30
0.0
 10
1.0796400000000002
 20
-0.90734
 30
0.0
 10
0.50814
 20
-0.8921000000000001
 30
0.0
 10
0.5614800000000001
 20
-0.4984000000000001
 30
0.0
 10
0.5614800000000001
 20
-0.4984000000000001
 30
0.0
 10
0.4725800000000001
 20
-0.4171200000000001
 30
0.0
 10
0.2897
 20
-0.45522
 30
0.0
 10
0.2262
 20
-0.36124
 30
0.0
 10
0.2262
 20
-0.36124
 30
0.0
 10
0.2262
 20
-0.36124
 30
0.0
 10
0.3354200000000001
 20
-0.34854
 30
0.0
 10
0.3354200000000001
 20
-0.34854
 30
0.0
 10
0.3354200000000001
 20
-0.34854
 30
0.0
 10
0.80786
 20
-0.4984000000000001
 30
0.0
 10
1.1710800000000001
 20
-0.02088
 30
0.0
 10
1.6206600000000002
 20
0.03245
 30
0.0
  0
SPLINE
  5
45
100
AcDbEntity
  8
Ebene 1
100
AcDbSpline
210
0.0
220
0.0
230
1.0
 70
     1
 71
     3
 72
    48
 73
    44
 74
     0
 42
0.0000000001
 43
0.0000000001
 40
0.0
 40
0.0
 40
0.0
 40
0.0
 40
0.0909090909090909
 40
0.0909090909090909
 40
0.0909090909090909
 40
0.0909090909090909
 40
0.1818181818181818
 40
0.1818181818181818
 40
0.1818181818181818
 40
0.1818181818181818
 40
0.2727272727272727
 40
0.2727272727272727
 40
0.2727272727272727
 40
0.2727272727272727
 40
0.3636363636363637
 40
0.3636363636363637
 40
0.3636363636363637
 40
0.3636363636363637
 40
0.4545454545454546
 40
0.4545454545454546
 40
0.4545454545454546
 40
0.4545454545454546
 40
0.5454545454545455
 40
0.5454545454545455
 40
0.5454545454545455
 40
0.5454545454545455
 40
0.6363636363636365
 40
0.6363636363636365
 40
0.6363636363636365
 40
0.6363636363636365
 40
0.7272727272727274
 40
0.7272727272727274
 40
0.7272727272727274
 40
0.7272727272727274
 40
0.8181818181818183
 40
0.8181818181818183
 40
0.8181818181818183
 40
0.8181818181818183
 40
0.9090909090909093
 40
0.9090909090909093
 40
0.9090909090909093
 40
0.9090909090909093
 40
1.0
 40
1.0
 40
1.0
 40
1.0
 10
-1.6229100000000001
 20
-0.00818
 30
0.0
 10
-1.13015
 20
0.07055
 30
0.0
 10
-0.91171
 20
-0.6203200000000001
 30
0.0
 10
-0.41387
 20
-0.4171200000000001
 30
0.0
 10
-0.41387
 20
-0.4171200000000001
 30
0.0
 10
-0.41387
 20
-0.4171200000000001
 30
0.0
 10
-0.20305
 20
-0.3739400000000001
 30
0.0
 10
-0.20305
 20
-0.3739400000000001
 30
0.0
 10
-0.20305
 20
-0.3739400000000001
 30
0.0
 10
-0.19543
 20
-0.45522
 30
0.0
 10
-0.31989
 20
-0.44252
 30
0.0
 10
-0.36307
 20
-0.48316
 30
0.0
 10
-0.36307
 20
-0.48316
 30
0.0
 10
-0.36307
 20
-0.48316
 30
0.0
 10
-0.30973
 20
-0.75748
 30
0.0
 10
-0.30973
 20
-0.75748
 30
0.0
 10
-0.30973
 20
-0.75748
 30
0.0
 10
-0.61453
 20
-0.90734
 30
0.0
 10
-0.9167900000000001
 20
-1.0572000000000001
 30
0.0
 10
-1.1936500000000001
 20
-1.2477
 30
0.0
 10
-1.1936500000000001
 20
-1.2477
 30
0.0
 10
-1.2368300000000001
 20
-1.1918200000000001
 30
0.0
 10
-1.0945900000000002
 20
-1.1384800000000002
 30
0.0
 10
-1.1047500000000001
 20
-1.0699000000000001
 30
0.0
 10
-1.1047500000000001
 20
-1.0699000000000001
 30
0.0
 10
-1.33843
 20
-0.9886200000000001
 30
0.0
 10
-1.5390900000000001
 20
-0.8794000000000001
 30
0.0
 10
-1.6533900000000001
 20
-0.6762
 30
0.0
 10
-1.6533900000000001
 20
-0.6762
 30
0.0
 10
-1.7245100000000002
 20
-0.7016000000000001
 30
0.0
 10
-1.6254500000000001
 20
-0.8514600000000001
 30
0.0
 10
-1.7092700000000001
 20
-0.82352
 30
0.0
 10
-1.7092700000000001
 20
-0.82352
 30
0.0
 10
-1.7346700000000002
 20
-0.55174
 30
0.0
 10
-1.5924300000000002
 20
-0.3079
 30
0.0
 10
-1.4730500000000002
 20
-0.07676
 30
0.0
 10
-1.4730500000000002
 20
-0.07676
 30
0.0
 10
-1.5594100000000002
 20
-0.03358
 30
0.0
 10
-1.6508500000000002
 20
-0.1301
 30
0.0
 10
-1.7295900000000002
 20
-0.15804
 30
0.0
 10
-1.7295900000000002
 20
-0.15804
 30
0.0
 10
-1.8286500000000001
 20
-0.10216
 30
0.0
 10
-1.6559300000000001
 20
-0.04882
 30
0.0
 10
-1.6229100000000001
 20
-0.00818
 30
0.0
  0
SPLINE
  5
46
100
AcDbEntity
  8
Ebene 1
100
AcDbSpline
210
0.0
220
0.0
230
1.0
 70
     1
 71
     3
 72
    20
 73
    16
 74
     0
 42
0.0000000001
 43
0.0000000001
 40
0.0
 40
0.0
 40
0.0
 40
0.0
 40
0.25
 40
0.25
 40
0.25
 40
0.25
 40
0.5
 40
0.5
 40
0.5
 40
0.5
 40
0.75
 40
0.75
 40
0.75
 40
0.75
 40
1.0
 40
1.0
 40
1.0
 40
1.0
 10
-0.23099
 20
-0.5238
 30
0.0
 10
-0.23099
 20
-0.5238
 30
0.0
 10
-0.17257
 20
-0.5238
 30
0.0
 10
-0.17257
 20
-0.5238
 30
0.0
 10
-0.17257
 20
-0.5238
 30
0.0
 10
0.03824
 20
-0.7701800000000001
 30
0.0
 10
-0.19797
 20
-1.04196
 30
0.0
 10
-0.37831
 20
-1.2324600000000001
 30
0.0
 10
-0.37831
 20
-1.2324600000000001
 30
0.0
 10
-0.31481
 20
-1.0292600000000001
 30
0.0
 10
-0.05319
 20
-0.82352
 30
0.0
 10
-0.22591
 20
-0.59238
 30
0.0
 10
-0.22591
 20
-0.59238
 30
0.0
 10
-0.22591
 20
-0.59238
 30
0.0
 10
-0.23099
 20
-0.5238
 30
0.0
 10
-0.23099
 20
-0.5238
 30
0.0
  0
SPLINE
  5
47
100
AcDbEntity
  8
Ebene 1
100
AcDbSpline
210
0.0
220
0.0
230
1.0
 70
     1
 71
     3
 72
    32
 73
    28
 74
     0
 42
0.0000000001
 43
0.0000000001
 40
0.0
 40
0.0
 40
0.0
 40
0.0
 40
0.1428571428571429
 40
0.1428571428571429
 40
0.1428571428571429
 40
0.1428571428571429
 40
0.2857142857142857
 40
0.2857142857142857
 40
0.2857142857142857
 40
0.2857142857142857
 40
0.4285714285714286
 40
0.4285714285714286
 40
0.4285714285714286
 40
0.4285714285714286
 40
0.5714285714285714
 40
0.5714285714285714
 40
0.5714285714285714
 40
0.5714285714285714
 40
0.7142857142857142
 40
0.7142857142857142
 40
0.7142857142857142
 40
0.7142857142857142
 40
0.857142857142857
 40
0.857142857142857
 40
0.857142857142857
 40
0.857142857142857
 40
1.0
 40
1.0
 40
1.0
 40
1.0
 10
0.0738
 20
-0.9886200000000001
 30
0.0
 10
0.3913
 20
-0.9886200000000001
 30
0.0
 10
0.5462400000000001
 20
-1.3696200000000001
 30
0.0
 10
0.57672
 20
-1.6007600000000002
 30
0.0
 10
0.57672
 20
-1.6007600000000002
 30
0.0
 10
0.42686
 20
-1.6947400000000001
 30
0.0
 10
0.25414
 20
-1.54742
 30
0.0
 10
0.10936
 20
-1.5728200000000001
 30
0.0
 10
0.10936
 20
-1.5728200000000001
 30
0.0
 10
0.10936
 20
-1.5728200000000001
 30
0.0
 10
0.07126
 20
-2.1316200000000003
 30
0.0
 10
0.07126
 20
-2.1316200000000003
 30
0.0
 10
0.07126
 20
-2.1316200000000003
 30
0.0
 10
0.03824
 20
-2.06304
 30
0.0
 10
0.04332
 20
-1.9817600000000002
 30
0.0
 10
0.04332
 20
-1.9004800000000002
 30
0.0
 10
0.04332
 20
-1.9004800000000002
 30
0.0
 10
0.04332
 20
-1.9004800000000002
 30
0.0
 10
0.03316
 20
-1.6414000000000002
 30
0.0
 10
0.03316
 20
-1.6414000000000002
 30
0.0
 10
0.03316
 20
-1.6414000000000002
 30
0.0
 10
-0.03541
 20
-1.5601200000000002
 30
0.0
 10
-0.22337
 20
-1.7379200000000001
 30
0.0
 10
-0.31735
 20
-1.6134600000000001
 30
0.0
 10
-0.31735
 20
-1.6134600000000001
 30
0.0
 10
-0.26147
 20
-1.3823200000000002
 30
0.0
 10
-0.14209
 20
-1.1105400000000001
 30
0.0
 10
0.0738
 20
-0.9886200000000001
 30
0.0
  0
SPLINE
  5
48
100
AcDbEntity
  8
Ebene 1
 62
     7
100
AcDbSpline
210
0.0
220
0.0
230
1.0
 70
     1
 71
     3
 72
    16
 73
    12
 74
     0
 42
0.0000000001
 43
0.0000000001
 40
0.0
 40
0.0
 40
0.0
 40
0.0
 40
0.3333333333333333
 40
0.3333333333333333
 40
0.3333333333333333
 40
0.3333333333333333
 40
0.6666666666666666
 40
0.6666666666666666
 40
0.6666666666666666
 40
0.6666666666666666
 40
1.0
 40
1.0
 40
1.0
 40
1.0
 10
0.9780400000000001
 20
-1.5728200000000001
 30
0.0
 10
1.02122
 20
-1.5601200000000002
 30
0.0
 10
1.0440800000000001
 20
-1.58552
 30
0.0
 10
1.0821800000000001
 20
-1.6007600000000002
 30
0.0
 10
1.0821800000000001
 20
-1.6007600000000002
 30
0.0
 10
1.1152000000000002
 20
-1.6337800000000002
 30
0.0
 10
1.06694
 20
-1.9589000000000001
 30
0.0
 10
1.02122
 20
-2.06304
 30
0.0
 10
1.02122
 20
-2.06304
 30
0.0
 10
0.9577200000000001
 20
-1.9131800000000001
 30
0.0
 10
0.9831200000000001
 20
-1.7379200000000001
 30
0.0
 10
0.9780400000000001
 20
-1.5728200000000001
 30
0.0
  0
SPLINE
  5
49
100
AcDbEntity
  8
Ebene 1
 62
     7
100
AcDbSpline
210
0.0
220
0.0
230
1.0
 70
     1
 71
     3
 72
    12
 73
     8
 74
     0
 42
0.0000000001
 43
0.0000000001
 40
0.0
 40
0.0
 40
0.0
 40
0.0
 40
0.5
 40
0.5
 40
0.5
 40
0.5
 40
1.0
 40
1.0
 40
1.0
 40
1.0
 10
-0.6881900000000001
 20
-1.7226800000000002
 30
0.0
 10
-0.74153
 20
-1.8547600000000002
 30
0.0
 10
-0.7516900000000001
 20
-2.0808200000000001
 30
0.0
 10
-0.8126500000000001
 20
-2.2129000000000003
 30
0.0
 10
-0.8126500000000001
 20
-2.2129000000000003
 30
0.0
 10
-0.9625100000000001
 20
-1.9563600000000001
 30
0.0
 10
-0.7948700000000001
 20
-1.6109200000000001
 30
0.0
 10
-0.6881900000000001
 20
-1.7226800000000002
 30
0.0
  0
SPLINE
  5
4A
100
AcDbEntity
  8
Ebene 1
 62
     7
100
AcDbSpline
210
0.0
220
0.0
230
1.0
 70
     1
 71
     3
 72
    16
 73
    12
 74
     0
 42
0.0000000001
 43
0.0000000001
 40
0.0
 40
0.0
 40
0.0
 40
0.0
 40
0.3333333333333333
 40
0.3333333333333333
 40
0.3333333333333333
 40
0.3333333333333333
 40
0.6666666666666666
 40
0.6666666666666666
 40
0.6666666666666666
 40
0.6666666666666666
 40
1.0
 40
1.0
 40
1.0
 40
1.0
 10
-0.94981
 20
-1.8039600000000002
 30
0.0
 10
-0.9244100000000001
 20
-1.8319000000000001
 30
0.0
 10
-0.9244100000000001
 20
-1.9004800000000002
 30
0.0
 10
-0.95235
 20
-1.9258800000000003
 30
0.0
 10
-0.95235
 20
-1.9258800000000003
 30
0.0
 10
-0.95235
 20
-1.9258800000000003
 30
0.0
 10
-1.0666500000000001
 20
-1.8446000000000002
 30
0.0
 10
-1.0666500000000001
 20
-1.8446000000000002
 30
0.0
 10
-1.0666500000000001
 20
-1.8446000000000002
 30
0.0
 10
-1.0666500000000001
 20
-1.8446000000000002
 30
0.0
 10
-0.94981
 20
-1.8039600000000002
 30
0.0
 10
-0.94981
 20
-1.8039600000000002
 30
0.0
  0
SPLINE
  5
4B
100
AcDbEntity
  8
Ebene 1
 62
     7
100
AcDbSpline
210
0.0
220
0.0
230
1.0
 70
     1
 71
     3
 72
    16
 73
    12
 74
     0
 42
0.0000000001
 43
0.0000000001
 40
0.0
 40
0.0
 40
0.0
 40
0.0
 40
0.3333333333333333
 40
0.3333333333333333
 40
0.3333333333333333
 40
0.3333333333333333
 40
0.6666666666666666
 40
0.6666666666666666
 40
0.6666666666666666
 40
0.6666666666666666
 40
1.0
 40
1.0
 40
1.0
 40
1.0
 10
1.1152000000000002
 20
-2.0909800000000001
 30
0.0
 10
1.14314
 20
-2.0909800000000001
 30
0.0
 10
1.1533
 20
-2.1036800000000002
 30
0.0
 10
1.1736200000000001
 20
-2.1189200000000001
 30
0.0
 10
1.1736200000000001
 20
-2.1189200000000001
 30
0.0
 10
1.2015600000000002
 20
-2.2408400000000004
 30
0.0
 10
1.3285600000000002
 20
-2.4161000000000001
 30
0.0
 10
1.1812400000000001
 20
-2.5126200000000001
 30
0.0
 10
1.1812400000000001
 20
-2.5126200000000001
 30
0.0
 10
1.1380600000000001
 20
-2.3780000000000001
 30
0.0
 10
1.1025
 20
-2.2281400000000002
 30
0.0
 10
1.1152000000000002
 20
-2.0909800000000001
 30
0.0
  0
SPLINE
  5
4C
100
AcDbEntity
  8
Ebene 1
 62
     7
100
AcDbSpline
210
0.0
220
0.0
230
1.0
 70
     1
 71
     3
 72
    12
 73
     8
 74
     0
 42
0.0000000001
 43
0.0000000001
 40
0.0
 40
0.0
 40
0.0
 40
0.0
 40
0.5
 40
0.5
 40
0.5
 40
0.5
 40
1.0
 40
1.0
 40
1.0
 40
1.0
 10
0.9450200000000001
 20
-2.1849600000000002
 30
0.0
 10
1.06948
 20
-2.3221200000000004
 30
0.0
 10
1.0898000000000001
 20
-2.56596
 30
0.0
 10
0.9678800000000001
 20
-2.7183600000000001
 30
0.0
 10
0.9678800000000001
 20
-2.7183600000000001
 30
0.0
 10
0.9678800000000001
 20
-2.7183600000000001
 30
0.0
 10
0.9450200000000001
 20
-2.1849600000000002
 30
0.0
 10
0.9450200000000001
 20
-2.1849600000000002
 30
0.0
  0
SPLINE
  5
4D
100
AcDbEntity
  8
Ebene 1
 62
     7
100
AcDbSpline
210
0.0
220
0.0
230
1.0
 70
     1
 71
     3
 72
    12
 73
     8
 74
     0
 42
0.0000000001
 43
0.0000000001
 40
0.0
 40
0.0
 40
0.0
 40
0.0
 40
0.5
 40
0.5
 40
0.5
 40
0.5
 40
1.0
 40
1.0
 40
1.0
 40
1.0
 10
-0.9345700000000001
 20
-2.2281400000000002
 30
0.0
 10
-0.75931
 20
-2.2535400000000001
 30
0.0
 10
-0.9040900000000001
 20
-2.4440400000000002
 30
0.0
 10
-0.9345700000000001
 20
-2.52786
 30
0.0
 10
-0.9345700000000001
 20
-2.52786
 30
0.0
 10
-1.04633
 20
-2.48468
 30
0.0
 10
-0.9345700000000001
 20
-2.3221200000000004
 30
0.0
 10
-0.9345700000000001
 20
-2.2281400000000002
 30
0.0
  0
SPLINE
  5
4E
100
AcDbEntity
  8
Ebene 1
 62
     7
100
AcDbSpline
210
0.0
220
0.0
230
1.0
 70
     1
 71
     3
 72
    16
 73
    12
 74
     0
 42
0.0000000001
 43
0.0000000001
 40
0.0
 40
0.0
 40
0.0
 40
0.0
 40
0.3333333333333333
 40
0.3333333333333333
 40
0.3333333333333333
 40
0.3333333333333333
 40
0.6666666666666666
 40
0.6666666666666666
 40
0.6666666666666666
 40
0.6666666666666666
 40
1.0
 40
1.0
 40
1.0
 40
1.0
 10
0.80786
 20
-2.2281400000000002
 30
0.0
 10
0.80786
 20
-2.2281400000000002
 30
0.0
 10
0.8358000000000001
 20
-2.2281400000000002
 30
0.0
 10
0.8358000000000001
 20
-2.2281400000000002
 30
0.0
 10
0.8358000000000001
 20
-2.2281400000000002
 30
0.0
 10
0.8612000000000001
 20
-2.3907000000000003
 30
0.0
 10
0.9424800000000001
 20
-2.60914
 30
0.0
 10
0.8383400000000001
 20
-2.7590000000000003
 30
0.0
 10
0.8383400000000001
 20
-2.7590000000000003
 30
0.0
 10
0.7951600000000001
 20
-2.5939000000000001
 30
0.0
 10
0.80786
 20
-2.4034
 30
0.0
 10
0.80786
 20
-2.2281400000000002
 30
0.0
  0
SPLINE
  5
4F
100
AcDbEntity
  8
Ebene 1
 62
     7
100
AcDbSpline
210
0.0
220
0.0
230
1.0
 70
     1
 71
     3
 72
    16
 73
    12
 74
     0
 42
0.0000000001
 43
0.0000000001
 40
0.0
 40
0.0
 40
0.0
 40
0.0
 40
0.3333333333333333
 40
0.3333333333333333
 40
0.3333333333333333
 40
0.3333333333333333
 40
0.6666666666666666
 40
0.6666666666666666
 40
0.6666666666666666
 40
0.6666666666666666
 40
1.0
 40
1.0
 40
1.0
 40
1.0
 10
0.64022
 20
-2.3348200000000001
 30
0.0
 10
0.658
 20
-2.3348200000000001
 30
0.0
 10
0.6732400000000001
 20
-2.3348200000000001
 30
0.0
 10
0.6834
 20
-2.35006
 30
0.0
 10
0.6834
 20
-2.35006
 30
0.0
 10
0.7392800000000001
 20
-2.4999200000000004
 30
0.0
 10
0.82564
 20
-2.7590000000000003
 30
0.0
 10
0.6707000000000001
 20
-2.8809200000000001
 30
0.0
 10
0.6707000000000001
 20
-2.8809200000000001
 30
0.0
 10
0.5208400000000001
 20
-2.7310600000000003
 30
0.0
 10
0.6224400000000001
 20
-2.5126200000000001
 30
0.0
 10
0.64022
 20
-2.3348200000000001
 30
0.0
  0
SPLINE
  5
50
100
AcDbEntity
  8
Ebene 1
 62
     7
100
AcDbSpline
210
0.0
220
0.0
230
1.0
 70
     1
 71
     3
 72
    12
 73
     8
 74
     0
 42
0.0000000001
 43
0.0000000001
 40
0.0
 40
0.0
 40
0.0
 40
0.0
 40
0.5
 40
0.5
 40
0.5
 40
0.5
 40
1.0
 40
1.0
 40
1.0
 40
1.0
 10
-0.78217
 20
-2.3780000000000001
 30
0.0
 10
-0.6297700000000001
 20
-2.4592800000000001
 30
0.0
 10
-0.67803
 20
-2.6497800000000002
 30
0.0
 10
-0.73899
 20
-2.7717000000000001
 30
0.0
 10
-0.73899
 20
-2.7717000000000001
 30
0.0
 10
-0.9421900000000001
 20
-2.7031200000000002
 30
0.0
 10
-0.8355100000000001
 20
-2.4999200000000004
 30
0.0
 10
-0.78217
 20
-2.3780000000000001
 30
0.0
  0
SPLINE
  5
51
100
AcDbEntity
  8
Ebene 1
 62
     7
100
AcDbSpline
210
0.0
220
0.0
230
1.0
 70
     1
 71
     3
 72
    16
 73
    12
 74
     0
 42
0.0000000001
 43
0.0000000001
 40
0.0
 40
0.0
 40
0.0
 40
0.0
 40
0.3333333333333333
 40
0.3333333333333333
 40
0.3333333333333333
 40
0.3333333333333333
 40
0.6666666666666666
 40
0.6666666666666666
 40
0.6666666666666666
 40
0.6666666666666666
 40
1.0
 40
1.0
 40
1.0
 40
1.0
 10
-0.18273
 20
-2.4719800000000003
 30
0.0
 10
-0.16241
 20
-2.4719800000000003
 30
0.0
 10
-0.13955
 20
-2.4719800000000003
 30
0.0
 10
-0.12685
 20
-2.48468
 30
0.0
 10
-0.12685
 20
-2.48468
 30
0.0
 10
-0.12685
 20
-2.6624800000000004
 30
0.0
 10
-0.17511
 20
-2.8402800000000004
 30
0.0
 10
-0.23353
 20
-3.0028400000000004
 30
0.0
 10
-0.23353
 20
-3.0028400000000004
 30
0.0
 10
-0.32497
 20
-2.8529800000000001
 30
0.0
 10
-0.31481
 20
-2.60914
 30
0.0
 10
-0.18273
 20
-2.4719800000000003
 30
0.0
  0
SPLINE
  5
52
100
AcDbEntity
  8
Ebene 1
 62
     7
100
AcDbSpline
210
0.0
220
0.0
230
1.0
 70
     1
 71
     3
 72
    12
 73
     8
 74
     0
 42
0.0000000001
 43
0.0000000001
 40
0.0
 40
0.0
 40
0.0
 40
0.0
 40
0.5
 40
0.5
 40
0.5
 40
0.5
 40
1.0
 40
1.0
 40
1.0
 40
1.0
 10
0.45734
 20
-2.4999200000000004
 30
0.0
 10
0.5030600000000001
 20
-2.6345400000000003
 30
0.0
 10
0.6275200000000001
 20
-2.8123400000000003
 30
0.0
 10
0.51576
 20
-2.9622000000000002
 30
0.0
 10
0.51576
 20
-2.9622000000000002
 30
0.0
 10
0.42178
 20
-2.8250400000000004
 30
0.0
 10
0.3786000000000001
 20
-2.6497800000000002
 30
0.0
 10
0.45734
 20
-2.4999200000000004
 30
0.0
  0
SPLINE
  5
53
100
AcDbEntity
  8
Ebene 1
 62
     7
100
AcDbSpline
210
0.0
220
0.0
230
1.0
 70
     1
 71
     3
 72
    20
 73
    16
 74
     0
 42
0.0000000001
 43
0.0000000001
 40
0.0
 40
0.0
 40
0.0
 40
0.0
 40
0.25
 40
0.25
 40
0.25
 40
0.25
 40
0.5
 40
0.5
 40
0.5
 40
0.5
 40
0.75
 40
0.75
 40
0.75
 40
0.75
 40
1.0
 40
1.0
 40
1.0
 40
1.0
 10
0.18048
 20
-2.5126200000000001
 30
0.0
 10
0.3252600000000001
 20
-2.6624800000000004
 30
0.0
 10
0.29732
 20
-2.9063200000000005
 30
0.0
 10
0.3455800000000001
 20
-3.0993600000000003
 30
0.0
 10
0.3455800000000001
 20
-3.0993600000000003
 30
0.0
 10
0.31002
 20
-3.1400000000000001
 30
0.0
 10
0.2643
 20
-3.1527000000000003
 30
0.0
 10
0.21096
 20
-3.1654000000000004
 30
0.0
 10
0.21096
 20
-3.1654000000000004
 30
0.0
 10
0.21096
 20
-3.1654000000000004
 30
0.0
 10
0.17032
 20
-3.1400000000000001
 30
0.0
 10
0.17032
 20
-3.1400000000000001
 30
0.0
 10
0.17032
 20
-3.1400000000000001
 30
0.0
 10
0.17032
 20
-2.9342600000000001
 30
0.0
 10
0.14746
 20
-2.7183600000000001
 30
0.0
 10
0.18048
 20
-2.5126200000000001
 30
0.0
  0
SPLINE
  5
54
100
AcDbEntity
  8
Ebene 1
 62
     7
100
AcDbSpline
210
0.0
220
0.0
230
1.0
 70
     1
 71
     3
 72
    12
 73
     8
 74
     0
 42
0.0000000001
 43
0.0000000001
 40
0.0
 40
0.0
 40
0.0
 40
0.0
 40
0.5
 40
0.5
 40
0.5
 40
0.5
 40
1.0
 40
1.0
 40
1.0
 40
1.0
 10
-0.5815100000000001
 20
-2.52786
 30
0.0
 10
-0.39863
 20
-2.5939000000000001
 30
0.0
 10
-0.43165
 20
-2.7996400000000001
 30
0.0
 10
-0.5205500000000001
 20
-2.9063200000000005
 30
0.0
 10
-0.5205500000000001
 20
-2.9063200000000005
 30
0.0
 10
-0.6653300000000001
 20
-2.8682200000000004
 30
0.0
 10
-0.5840500000000001
 20
-2.6345400000000003
 30
0.0
 10
-0.5815100000000001
 20
-2.52786
 30
0.0
  0
SPLINE
  5
55
100
AcDbEntity
  8
Ebene 1
 62
     7
100
AcDbSpline
210
0.0
220
0.0
230
1.0
 70
     1
 71
     3
 72
    20
 73
    16
 74
     0
 42
0.0000000001
 43
0.0000000001
 40
0.0
 40
0.0
 40
0.0
 40
0.0
 40
0.25
 40
0.25
 40
0.25
 40
0.25
 40
0.5
 40
0.5
 40
0.5
 40
0.5
 40
0.75
 40
0.75
 40
0.75
 40
0.75
 40
1.0
 40
1.0
 40
1.0
 40
1.0
 10
0.01284
 20
-2.6218400000000002
 30
0.0
 10
0.11698
 20
-2.6624800000000004
 30
0.0
 10
0.13476
 20
-2.7844000000000002
 30
0.0
 10
0.10428
 20
-2.8809200000000001
 30
0.0
 10
0.10428
 20
-2.8809200000000001
 30
0.0
 10
0.12714
 20
-2.9622000000000002
 30
0.0
 10
0.15508
 20
-3.1247600000000002
 30
0.0
 10
0.04332
 20
-3.1654000000000004
 30
0.0
 10
0.04332
 20
-3.1654000000000004
 30
0.0
 10
-0.00239
 20
-3.1527000000000003
 30
0.0
 10
-0.05573
 20
-3.1527000000000003
 30
0.0
 10
-0.08875
 20
-3.11206
 30
0.0
 10
-0.08875
 20
-3.11206
 30
0.0
 10
-0.06843
 20
-2.9495000000000005
 30
0.0
 10
-0.06843
 20
-2.7717000000000001
 30
0.0
 10
0.01284
 20
-2.6218400000000002
 30
0.0
  0
SPLINE
  5
56
100
AcDbEntity
  8
Ebene 1
 62
     7
100
AcDbSpline
210
0.0
220
0.0
230
1.0
 70
     1
 71
     3
 72
    72
 73
    68
 74
     0
 42
0.0000000001
 43
0.0000000001
 40
0.0
 40
0.0
 40
0.0
 40
0.0
 40
0.0588235294117647
 40
0.0588235294117647
 40
0.0588235294117647
 40
0.0588235294117647
 40
0.1176470588235294
 40
0.1176470588235294
 40
0.1176470588235294
 40
0.1176470588235294
 40
0.1764705882352941
 40
0.1764705882352941
 40
0.1764705882352941
 40
0.1764705882352941
 40
0.2352941176470588
 40
0.2352941176470588
 40
0.2352941176470588
 40
0.2352941176470588
 40
0.2941176470588235
 40
0.2941176470588235
 40
0.2941176470588235
 40
0.2941176470588235
 40
0.3529411764705883
 40
0.3529411764705883
 40
0.3529411764705883
 40
0.3529411764705883
 40
0.411764705882353
 40
0.411764705882353
 40
0.411764705882353
 40
0.411764705882353
 40
0.4705882352941177
 40
0.4705882352941177
 40
0.4705882352941177
 40
0.4705882352941177
 40
0.5294117647058824
 40
0.5294117647058824
 40
0.5294117647058824
 40
0.5294117647058824
 40
0.5882352941176471
 40
0.5882352941176471
 40
0.5882352941176471
 40
0.5882352941176471
 40
0.6470588235294118
 40
0.6470588235294118
 40
0.6470588235294118
 40
0.6470588235294118
 40
0.7058823529411765
 40
0.7058823529411765
 40
0.7058823529411765
 40
0.7058823529411765
 40
0.7647058823529412
 40
0.7647058823529412
 40
0.7647058823529412
 40
0.7647058823529412
 40
0.823529411764706
 40
0.823529411764706
 40
0.823529411764706
 40
0.823529411764706
 40
0.8823529411764707
 40
0.8823529411764707
 40
0.8823529411764707
 40
0.8823529411764707
 40
0.9411764705882354
 40
0.9411764705882354
 40
0.9411764705882354
 40
0.9411764705882354
 40
1.0
 40
1.0
 40
1.0
 40
1.0
 10
-1.0107700000000002
 20
-3.4117800000000003
 30
0.0
 10
-1.0107700000000002
 20
-3.4117800000000003
 30
0.0
 10
-1.7245100000000002
 20
-4.1052
 30
0.0
 10
-1.7245100000000002
 20
-4.1052
 30
0.0
 10
-1.7245100000000002
 20
-4.1052
 30
0.0
 10
-1.7245100000000002
 20
-4.1052
 30
0.0
 10
-1.6991100000000001
 20
-3.9985200000000005
 30
0.0
 10
-1.6991100000000001
 20
-3.9985200000000005
 30
0.0
 10
-1.6991100000000001
 20
-3.9985200000000005
 30
0.0
 10
-1.6813300000000002
 20
-3.9553400000000005
 30
0.0
 10
-1.7346700000000002
 20
-3.9426400000000004
 30
0.0
 10
-1.75753
 20
-3.9705800000000004
 30
0.0
 10
-1.75753
 20
-3.9705800000000004
 30
0.0
 10
-2.0191500000000002
 20
-4.3109400000000004
 30
0.0
 10
-1.8362700000000001
 20
-4.6640000000000006
 30
0.0
 10
-1.9327900000000002
 20
-5.0170600000000007
 30
0.0
 10
-1.9327900000000002
 20
-5.0170600000000007
 30
0.0
 10
-2.0343900000000001
 20
-5.0856400000000006
 30
0.0
 10
-2.1436100000000002
 20
-5.1542200000000005
 30
0.0
 10
-2.27569
 20
-5.1542200000000005
 30
0.0
 10
-2.27569
 20
-5.1542200000000005
 30
0.0
 10
-2.35697
 20
-5.0602400000000003
 30
0.0
 10
-2.5525500000000001
 20
-4.7579800000000008
 30
0.0
 10
-2.2960100000000003
 20
-4.78592
 30
0.0
 10
-2.2960100000000003
 20
-4.78592
 30
0.0
 10
-2.2960100000000003
 20
-4.78592
 30
0.0
 10
-2.3925300000000003
 20
-4.7325800000000005
 30
0.0
 10
-2.3925300000000003
 20
-4.7325800000000005
 30
0.0
 10
-2.3925300000000003
 20
-4.7325800000000005
 30
0.0
 10
-2.6643100000000004
 20
-4.6360600000000005
 30
0.0
 10
-2.98943
 20
-4.7732200000000002
 30
0.0
 10
-3.2408900000000003
 20
-4.6233600000000008
 30
0.0
 10
-3.2408900000000003
 20
-4.6233600000000008
 30
0.0
 10
-3.2535900000000004
 20
-4.48874
 30
0.0
 10
-3.2510500000000002
 20
-4.3515800000000002
 30
0.0
 10
-3.1646900000000002
 20
-4.2423600000000006
 30
0.0
 10
-3.1646900000000002
 20
-4.2423600000000006
 30
0.0
 10
-2.8090900000000003
 20
-4.0366200000000001
 30
0.0
 10
-2.35189
 20
-4.0239200000000004
 30
0.0
 10
-2.0242300000000002
 20
-3.7800800000000003
 30
0.0
 10
-2.0242300000000002
 20
-3.7800800000000003
 30
0.0
 10
-2.0674100000000002
 20
-3.6835600000000004
 30
0.0
 10
-2.2299700000000002
 20
-3.8486600000000002
 30
0.0
 10
-2.3239500000000004
 20
-3.8486600000000002
 30
0.0
 10
-2.3239500000000004
 20
-3.8486600000000002
 30
0.0
 10
-2.0039100000000003
 20
-3.4651200000000002
 30
0.0
 10
-1.5213100000000002
 20
-3.1933400000000001
 30
0.0
 10
-1.0742700000000001
 20
-2.9749000000000003
 30
0.0
 10
-1.0742700000000001
 20
-2.9749000000000003
 30
0.0
 10
-1.0564900000000002
 20
-2.9342600000000001
 30
0.0
 10
-1.08443
 20
-2.9063200000000005
 30
0.0
 10
-1.1174500000000001
 20
-2.9342600000000001
 30
0.0
 10
-1.1174500000000001
 20
-2.9342600000000001
 30
0.0
 10
-1.33843
 20
-3.0180800000000003
 30
0.0
 10
-1.00569
 20
-2.7590000000000003
 30
0.0
 10
-0.94981
 20
-2.7031200000000002
 30
0.0
 10
-0.94981
 20
-2.7031200000000002
 30
0.0
 10
-0.57135
 20
-2.8123400000000003
 30
0.0
 10
-0.8405900000000001
 20
-3.1247600000000002
 30
0.0
 10
-1.0285500000000001
 20
-3.3152600000000003
 30
0.0
 10
-1.0285500000000001
 20
-3.3152600000000003
 30
0.0
 10
-1.1784100000000002
 20
-3.5210000000000004
 30
0.0
 10
-1.4705100000000002
 20
-3.6835600000000004
 30
0.0
 10
-1.6178300000000001
 20
-3.8740600000000005
 30
0.0
 10
-1.6178300000000001
 20
-3.8740600000000005
 30
0.0
 10
-1.6178300000000001
 20
-3.8740600000000005
 30
0.0
 10
-1.0107700000000002
 20
-3.4117800000000003
 30
0.0
 10
-1.0107700000000002
 20
-3.4117800000000003
 30
0.0
  0
SPLINE
  5
57
100
AcDbEntity
  8
Ebene 1
 62
     7
100
AcDbSpline
210
0.0
220
0.0
230
1.0
 70
     1
 71
     3
 72
    64
 73
    60
 74
     0
 42
0.0000000001
 43
0.0000000001
 40
0.0
 40
0.0
 40
0.0
 40
0.0
 40
0.0666666666666667
 40
0.0666666666666667
 40
0.0666666666666667
 40
0.0666666666666667
 40
0.1333333333333333
 40
0.1333333333333333
 40
0.1333333333333333
 40
0.1333333333333333
 40
0.2
 40
0.2
 40
0.2
 40
0.2
 40
0.2666666666666667
 40
0.2666666666666667
 40
0.2666666666666667
 40
0.2666666666666667
 40
0.3333333333333333
 40
0.3333333333333333
 40
0.3333333333333333
 40
0.3333333333333333
 40
0.4
 40
0.4
 40
0.4
 40
0.4
 40
0.4666666666666666
 40
0.4666666666666666
 40
0.4666666666666666
 40
0.4666666666666666
 40
0.5333333333333333
 40
0.5333333333333333
 40
0.5333333333333333
 40
0.5333333333333333
 40
0.6
 40
0.6
 40
0.6
 40
0.6
 40
0.6666666666666666
 40
0.6666666666666666
 40
0.6666666666666666
 40
0.6666666666666666
 40
0.7333333333333333
 40
0.7333333333333333
 40
0.7333333333333333
 40
0.7333333333333333
 40
0.7999999999999999
 40
0.7999999999999999
 40
0.7999999999999999
 40
0.7999999999999999
 40
0.8666666666666666
 40
0.8666666666666666
 40
0.8666666666666666
 40
0.8666666666666666
 40
0.9333333333333332
 40
0.9333333333333332
 40
0.9333333333333332
 40
0.9333333333333332
 40
1.0
 40
1.0
 40
1.0
 40
1.0
 10
1.5749400000000002
 20
-3.6835600000000004
 30
0.0
 10
1.6613000000000002
 20
-3.6835600000000004
 30
0.0
 10
1.7248000000000001
 20
-3.8207200000000001
 30
0.0
 10
1.8010000000000002
 20
-3.7927800000000005
 30
0.0
 10
1.8010000000000002
 20
-3.7927800000000005
 30
0.0
 10
1.8010000000000002
 20
-3.7927800000000005
 30
0.0
 10
0.9882000000000001
 20
-3.1806400000000004
 30
0.0
 10
0.9882000000000001
 20
-3.1806400000000004
 30
0.0
 10
0.9882000000000001
 20
-3.1806400000000004
 30
0.0
 10
0.9043800000000001
 20
-3.0841200000000004
 30
0.0
 10
0.7519800000000001
 20
-3.0561800000000003
 30
0.0
 10
0.6910200000000001
 20
-2.9342600000000001
 30
0.0
 10
0.6910200000000001
 20
-2.9342600000000001
 30
0.0
 10
0.82818
 20
-2.8682200000000004
 30
0.0
 10
0.9450200000000001
 20
-2.8123400000000003
 30
0.0
 10
1.1304400000000001
 20
-2.7437600000000004
 30
0.0
 10
1.1304400000000001
 20
-2.7437600000000004
 30
0.0
 10
1.1304400000000001
 20
-2.7437600000000004
 30
0.0
 10
1.3565
 20
-2.9215600000000004
 30
0.0
 10
1.3565
 20
-2.9215600000000004
 30
0.0
 10
1.3565
 20
-2.9215600000000004
 30
0.0
 10
1.3565
 20
-2.9215600000000004
 30
0.0
 10
1.5190600000000001
 20
-3.0841200000000004
 30
0.0
 10
1.5190600000000001
 20
-3.0841200000000004
 30
0.0
 10
1.5190600000000001
 20
-3.0841200000000004
 30
0.0
 10
1.5063600000000001
 20
-3.1654000000000004
 30
0.0
 10
1.3844400000000001
 20
-3.0180800000000003
 30
0.0
 10
1.3463400000000001
 20
-3.0561800000000003
 30
0.0
 10
1.3463400000000001
 20
-3.0561800000000003
 30
0.0
 10
1.8848200000000002
 20
-3.3838400000000002
 30
0.0
 10
2.5249000000000001
 20
-3.7394400000000001
 30
0.0
 10
3.1497400000000004
 20
-3.8334200000000003
 30
0.0
 10
3.1497400000000004
 20
-3.8334200000000003
 30
0.0
 10
3.2081600000000003
 20
-3.8740600000000005
 30
0.0
 10
3.2792800000000004
 20
-3.9020000000000001
 30
0.0
 10
3.3173800000000004
 20
-3.9553400000000005
 30
0.0
 10
3.3173800000000004
 20
-3.9553400000000005
 30
0.0
 10
3.5891600000000001
 20
-4.4328600000000007
 30
0.0
 10
2.6823800000000002
 20
-4.3642799999999999
 30
0.0
 10
2.6061800000000002
 20
-4.7198800000000007
 30
0.0
 10
2.6061800000000002
 20
-4.7198800000000007
 30
0.0
 10
2.6061800000000002
 20
-4.7198800000000007
 30
0.0
 10
2.7230200000000004
 20
-4.6513
 30
0.0
 10
2.7230200000000004
 20
-4.6513
 30
0.0
 10
2.7230200000000004
 20
-4.6513
 30
0.0
 10
2.7636600000000002
 20
-4.6360600000000005
 30
0.0
 10
2.8373200000000001
 20
-4.6106600000000002
 30
0.0
 10
2.8601800000000002
 20
-4.6640000000000006
 30
0.0
 10
2.8601800000000002
 20
-4.6640000000000006
 30
0.0
 10
2.8119200000000002
 20
-4.7732200000000002
 30
0.0
 10
2.7154000000000003
 20
-4.8951400000000005
 30
0.0
 10
2.5858600000000003
 20
-4.9357800000000003
 30
0.0
 10
2.5858600000000003
 20
-4.9357800000000003
 30
0.0
 10
2.5172800000000004
 20
-4.9230800000000006
 30
0.0
 10
2.4563200000000003
 20
-4.8824400000000008
 30
0.0
 10
2.4055200000000001
 20
-4.8418000000000001
 30
0.0
 10
2.4055200000000001
 20
-4.8418000000000001
 30
0.0
 10
2.3369400000000002
 20
-4.3642799999999999
 30
0.0
 10
1.9203800000000002
 20
-4.0366200000000001
 30
0.0
 10
1.5749400000000002
 20
-3.6835600000000004
 30
0.0
  0
SPLINE
  5
58
100
AcDbEntity
  8
Ebene 1
 62
     7
100
AcDbSpline
210
0.0
220
0.0
230
1.0
 70
     1
 71
     3
 72
    20
 73
    16
 74
     0
 42
0.0000000001
 43
0.0000000001
 40
0.0
 40
0.0
 40
0.0
 40
0.0
 40
0.25
 40
0.25
 40
0.25
 40
0.25
 40
0.5
 40
0.5
 40
0.5
 40
0.5
 40
0.75
 40
0.75
 40
0.75
 40
0.75
 40
1.0
 40
1.0
 40
1.0
 40
1.0
 10
0.38114
 20
-3.1806400000000004
 30
0.0
 10
0.4954400000000001
 20
-3.2492200000000002
 30
0.0
 10
0.4522600000000001
 20
-3.3965400000000003
 30
0.0
 10
0.5183000000000001
 20
-3.5083000000000002
 30
0.0
 10
0.5183000000000001
 20
-3.5083000000000002
 30
0.0
 10
0.4725800000000001
 20
-4.3769800000000005
 30
0.0
 10
0.7519800000000001
 20
-5.3726600000000007
 30
0.0
 10
0.21604
 20
-6.3937400000000002
 30
0.0
 10
0.21604
 20
-6.3937400000000002
 30
0.0
 10
0.12968
 20
-5.4133000000000004
 30
0.0
 10
0.19826
 20
-4.4201600000000001
 30
0.0
 10
0.16524
 20
-3.4244800000000004
 30
0.0
 10
0.16524
 20
-3.4244800000000004
 30
0.0
 10
0.20842
 20
-3.3305000000000002
 30
0.0
 10
0.27954
 20
-3.2339800000000003
 30
0.0
 10
0.38114
 20
-3.1806400000000004
 30
0.0
  0
SPLINE
  5
59
100
AcDbEntity
  8
Ebene 1
 62
     7
100
AcDbSpline
210
0.0
220
0.0
230
1.0
 70
     1
 71
     3
 72
    24
 73
    20
 74
     0
 42
0.0000000001
 43
0.0000000001
 40
0.0
 40
0.0
 40
0.0
 40
0.0
 40
0.2
 40
0.2
 40
0.2
 40
0.2
 40
0.4
 40
0.4
 40
0.4
 40
0.4
 40
0.6000000000000001
 40
0.6000000000000001
 40
0.6000000000000001
 40
0.6000000000000001
 40
0.8
 40
0.8
 40
0.8
 40
0.8
 40
1.0
 40
1.0
 40
1.0
 40
1.0
 10
-0.13701
 20
-3.3152600000000003
 30
0.0
 10
-0.08875
 20
-3.3305000000000002
 30
0.0
 10
-0.04303
 20
-3.3711400000000005
 30
0.0
 10
-0.01763
 20
-3.4117800000000003
 30
0.0
 10
-0.01763
 20
-3.4117800000000003
 30
0.0
 10
-0.01763
 20
-3.4117800000000003
 30
0.0
 10
0.05856
 20
-3.6835600000000004
 30
0.0
 10
0.05856
 20
-3.6835600000000004
 30
0.0
 10
0.05856
 20
-3.6835600000000004
 30
0.0
 10
0.05602
 20
-4.5547800000000001
 30
0.0
 10
0.20842
 20
-5.4539400000000002
 30
0.0
 10
0.0865
 20
-6.3124600000000006
 30
0.0
 10
0.0865
 20
-6.3124600000000006
 30
0.0
 10
-0.43165
 20
-5.5631600000000008
 30
0.0
 10
-0.18273
 20
-4.5700200000000004
 30
0.0
 10
-0.23099
 20
-3.6962600000000001
 30
0.0
 10
-0.23099
 20
-3.6962600000000001
 30
0.0
 10
-0.15479
 20
-3.5743400000000003
 30
0.0
 10
-0.21575
 20
-3.4244800000000004
 30
0.0
 10
-0.13701
 20
-3.3152600000000003
 30
0.0
  0
ENDSEC
  0
SECTION
  2
OBJECTS
  0
DICTIONARY
  5
19
100
AcDbDictionary
280
     0
281
     1
  3
ACAD_GROUP
350
1A
  3
ACAD_MLINESTYLE
350
1B
  3
ACAD_LAYOUT
350
1E
  3
ACAD_PLOTSETTINGS
350
22
  3
ACAD_PLOTSTYLENAME
350
1F
  3
ACAD_WIPEOUT_VARS
350
23
  0
DICTIONARY
  5
1A
102
{ACAD_REACTORS
330
19
102
}
100
AcDbDictionary
280
     0
281
     1
  0
DICTIONARY
  5
1B
102
{ACAD_REACTORS
330
19
102
}
100
AcDbDictionary
280
     0
281
     1
  3
Standard
350
1C
  0
MLINESTYLE
  5
1C
102
{ACAD_REACTORS
330
1B
102
}
100
AcDbMlineStyle
  2
Standard
 70
     0
  3

 62
     0
 51
90.0
 52
90.0
 71
     2
 49
0.5
 62
   256
  6
BYLAYER
 49
-0.5
 62
   256
  6
BYLAYER
  0
ACDBDICTIONARYWDFLT
  5
1F
102
{ACAD_REACTORS
330
19
102
}
100
AcDbDictionary
281
     1
  3
Normal
350
1D
100
AcDbDictionaryWithDefault
340
1D
  0
ACDBPLACEHOLDER
  5
1D
102
{ACAD_REACTORS
330
1F
102
}
  0
LAYOUT
  5
20
102
{ACAD_REACTORS
330
1E
102
}
100
AcDbPlotSettings
  1

  2

  4

  6

 40
0.0
 41
0.0
 42
0.0
 43
0.0
 44
0.0
 45
0.0
 46
0.0
 47
0.0
 48
0.0
 49
0.0
140
0.0
141
0.0
142
1.0
143
1.0
 70
  1024
 72
     0
 73
     0
 74
     0
  7

 75
     0
147
1.0
148
0.0
149
0.0
100
AcDbLayout
  1
Model
 70
     0
 71
     0
 10
0.0
 20
0.0
 11
0.0
 21
0.0
 12
0.0
 22
0.0
 32
0.0
 14
0.0
 24
0.0
 34
0.0
 15
0.0
 25
0.0
 35
0.0
146
0.0
 13
0.0
 23
0.0
 33
0.0
 16
0.0
 26
0.0
 36
0.0
 17
0.0
 27
0.0
 37
0.0
 76
     0
330
A
331
0
345
0
346
0
  0
LAYOUT
  5
21
102
{ACAD_REACTORS
330
1E
102
}
100
AcDbPlotSettings
  1

  2

  4

  6

 40
0.0
 41
0.0
 42
0.0
 43
0.0
 44
0.0
 45
0.0
 46
0.0
 47
0.0
 48
0.0
 49
0.0
140
0.0
141
0.0
142
1.0
143
1.0
 70
     0
 72
     0
 73
     0
 74
     0
  7

 75
     0
147
1.0
148
0.0
149
0.0
100
AcDbLayout
  1
Layout1
 70
     0
 71
     0
 10
0.0
 20
0.0
 11
0.0
 21
0.0
 12
0.0
 22
0.0
 32
0.0
 14
0.0
 24
0.0
 34
0.0
 15
0.0
 25
0.0
 35
0.0
146
0.0
 13
0.0
 23
0.0
 33
0.0
 16
0.0
 26
0.0
 36
0.0
 17
0.0
 27
0.0
 37
0.0
 76
     0
330
B
331
0
345
0
346
0
  0
DICTIONARY
  5
1E
102
{ACAD_REACTORS
330
19
102
}
100
AcDbDictionary
280
     0
281
     1
  3
Layout1
350
21
  3
Model
350
20
  0
DICTIONARY
  5
22
102
{ACAD_REACTORS
330
19
102
}
100
AcDbDictionary
280
     0
281
     1
  0
WIPEOUTVARIABLES
  5
23
100
AcDbWipeoutVariables
 70
     1
  0
ENDSEC
  0
EOF
