  0
SECTION
  2
HEADER
  9
$ACADVER
  1
AC1015
  9
$ACADMAINTVER
 70
     6
  9
$DWGCODEPAGE
  3
DOS850
  9
$INSBASE
 10
0.0
 20
0.0
 30
0.0
  9
$EXTMIN
 10
-4.33134
 20
-6.42676
 30
1.000000E+20
  9
$EXTMAX
 10
4.33592
 20
6.42055
 30
-1.000000E+20
  9
$LIMMIN
 10
0.0
 20
0.0
  9
$LIMMAX
 10
0.0
 20
0.0
  9
$ORTHOMODE
 70
     0
  9
$REGENMODE
 70
     1
  9
$FILLMODE
 70
     1
  9
$QTEXTMODE
 70
     0
  9
$MIRRTEXT
 70
     1
  9
$LTSCALE
 40
1.0
  9
$ATTMODE
 70
     1
  9
$TEXTSIZE
 40
0.2
  9
$TRACEWID
 40
0.05
  9
$TEXTSTYLE
  7
Standard
  9
$CLAYER
  8
0
  9
$CELTYPE
  6
Continuous
  9
$CECOLOR
 62
   256
  9
$CELTSCALE
 40
1.0
  9
$DISPSILH
 70
     0
  9
$DIMSCALE
 40
1.0
  9
$DIMASZ
 40
0.18
  9
$DIMEXO
 40
0.0625
  9
$DIMDLI
 40
0.38
  9
$DIMRND
 40
0.0
  9
$DIMDLE
 40
0.0
  9
$DIMEXE
 40
0.18
  9
$DIMTP
 40
0.0
  9
$DIMTM
 40
0.0
  9
$DIMTXT
 40
0.18
  9
$DIMCEN
 40
0.09
  9
$DIMTSZ
 40
0.0
  9
$DIMTOL
 70
     0
  9
$DIMLIM
 70
     0
  9
$DIMTIH
 70
     1
  9
$DIMTOH
 70
     1
  9
$DIMSE1
 70
     0
  9
$DIMSE2
 70
     0
  9
$DIMTAD
 70
     0
  9
$DIMZIN
 70
     0
  9
$DIMBLK
  1

  9
$DIMASO
 70
     1
  9
$DIMSHO
 70
     1
  9
$DIMPOST
  1

  9
$DIMAPOST
  1

  9
$DIMALT
 70
     0
  9
$DIMALTD
 70
     2
  9
$DIMALTF
 40
25.4
  9
$DIMLFAC
 40
1.0
  9
$DIMTOFL
 70
     0
  9
$DIMTVP
 40
0.0
  9
$DIMTIX
 70
     0
  9
$DIMSOXD
 70
     0
  9
$DIMSAH
 70
     0
  9
$DIMBLK1
  1

  9
$DIMBLK2
  1

  9
$DIMSTYLE
  2
Standard
  9
$DIMCLRD
 70
     0
  9
$DIMCLRE
 70
     0
  9
$DIMCLRT
 70
     0
  9
$DIMTFAC
 40
1.0
  9
$DIMGAP
 40
0.09
  9
$DIMJUST
 70
     0
  9
$DIMSD1
 70
     0
  9
$DIMSD2
 70
     0
  9
$DIMTOLJ
 70
     1
  9
$DIMTZIN
 70
     0
  9
$DIMALTZ
 70
     0
  9
$DIMALTTZ
 70
     0
  9
$DIMUPT
 70
     0
  9
$DIMDEC
 70
     4
  9
$DIMTDEC
 70
     4
  9
$DIMALTU
 70
     2
  9
$DIMALTTD
 70
     2
  9
$DIMTXSTY
  7
Standard
  9
$DIMAUNIT
 70
     0
  9
$DIMADEC
 70
     0
  9
$DIMALTRND
 40
0.0
  9
$DIMAZIN
 70
     0
  9
$DIMDSEP
 70
     0
  9
$DIMATFIT
 70
     3
  9
$DIMFRAC
 70
     0
  9
$DIMLDRBLK
  1

  9
$DIMLUNIT
 70
     2
  9
$DIMLWD
 70
     0
  9
$DIMLWE
 70
     0
  9
$DIMTMOVE
 70
     0
  9
$LUNITS
 70
     2
  9
$LUPREC
 70
     4
  9
$SKETCHINC
 40
0.1
  9
$FILLETRAD
 40
0.0
  9
$AUNITS
 70
     0
  9
$AUPREC
 70
     0
  9
$MENU
  1
acad
  9
$ELEVATION
 40
0.0
  9
$PELEVATION
 40
0.0
  9
$THICKNESS
 40
0.0
  9
$LIMCHECK
 70
     0
  9
$CHAMFERA
 40
0.0
  9
$CHAMFERB
 40
0.0
  9
$CHAMFERC
 40
0.0
  9
$CHAMFERD
 40
0.0
  9
$SKPOLY
 70
     0
  9
$TDCREATE
 40
0.000000000
  9
$TDUCREATE
 40
0.000000000
  9
$TDUPDATE
 40
0.000000000
  9
$TDUUPDATE
 40
0.000000000
  9
$TDINDWG
 40
0.0000000000
  9
$TDUSRTIMER
 40
0.0000000000
  9
$USRTIMER
 70
     1
  9
$ANGBASE
 50
0.0
  9
$ANGDIR
 70
     0
  9
$PDMODE
 70
     0
  9
$PDSIZE
 40
0.0
  9
$PLINEWID
 40
0.0
  9
$SPLFRAME
 70
     0
  9
$SPLINETYPE
 70
     6
  9
$SPLINESEGS
 70
     8
  9
$HANDSEED
  5
48
  9
$SURFTAB1
 70
     6
  9
$SURFTAB2
 70
     6
  9
$SURFTYPE
 70
     6
  9
$SURFU
 70
     6
  9
$SURFV
 70
     6
  9
$UCSBASE
  2

  9
$UCSNAME
  2

  9
$UCSORG
 10
0.0
 20
0.0
 30
0.0
  9
$UCSXDIR
 10
1.0
 20
0.0
 30
0.0
  9
$UCSYDIR
 10
0.0
 20
1.0
 30
0.0
  9
$UCSORTHOREF
  2

  9
$UCSORTHOVIEW
 70
     0
  9
$UCSORGTOP
 10
0.0
 20
0.0
 30
0.0
  9
$UCSORGBOTTOM
 10
0.0
 20
0.0
 30
0.0
  9
$UCSORGLEFT
 10
0.0
 20
0.0
 30
0.0
  9
$UCSORGRIGHT
 10
0.0
 20
0.0
 30
0.0
  9
$UCSORGFRONT
 10
0.0
 20
0.0
 30
0.0
  9
$UCSORGBACK
 10
0.0
 20
0.0
 30
0.0
  9
$PUCSBASE
  2

  9
$PUCSNAME
  2

  9
$PUCSORG
 10
0.0
 20
0.0
 30
0.0
  9
$PUCSXDIR
 10
1.0
 20
0.0
 30
0.0
  9
$PUCSYDIR
 10
0.0
 20
1.0
 30
0.0
  9
$PUCSORTHOREF
  2

  9
$PUCSORTHOVIEW
 70
     0
  9
$PUCSORGTOP
 10
0.0
 20
0.0
 30
0.0
  9
$PUCSORGBOTTOM
 10
0.0
 20
0.0
 30
0.0
  9
$PUCSORGLEFT
 10
0.0
 20
0.0
 30
0.0
  9
$PUCSORGRIGHT
 10
0.0
 20
0.0
 30
0.0
  9
$PUCSORGFRONT
 10
0.0
 20
0.0
 30
0.0
  9
$PUCSORGBACK
 10
0.0
 20
0.0
 30
0.0
  9
$USERI1
 70
     0
  9
$USERI2
 70
     0
  9
$USERI3
 70
     0
  9
$USERI4
 70
     0
  9
$USERI5
 70
     0
  9
$USERR1
 40
0.0
  9
$USERR2
 40
0.0
  9
$USERR3
 40
0.0
  9
$USERR4
 40
0.0
  9
$USERR5
 40
0.0
  9
$WORLDVIEW
 70
     1
  9
$SHADEDGE
 70
     3
  9
$SHADEDIF
 70
    70
  9
$TILEMODE
 70
     1
  9
$MAXACTVP
 70
    16
  9
$PINSBASE
 10
0.0
 20
0.0
 30
0.0
  9
$PLIMCHECK
 70
     0
  9
$PEXTMIN
 10
1.000000E+20
 20
1.000000E+20
 30
1.000000E+20
  9
$PEXTMAX
 10
-1.000000E+20
 20
-1.000000E+20
 30
-1.000000E+20
  9
$PLIMMIN
 10
0.0
 20
0.0
  9
$PLIMMAX
 10
12.0
 20
9.0
  9
$UNITMODE
 70
     0
  9
$VISRETAIN
 70
     0
  9
$PLINEGEN
 70
     1
  9
$PSLTSCALE
 70
     0
  9
$TREEDEPTH
 70
  3020
  9
$CMLSTYLE
  2
Standard
  9
$CMLJUST
 70
     0
  9
$CMLSCALE
 40
1.0
  9
$PROXYGRAPHICS
 70
     0
  9
$MEASUREMENT
 70
     0
  9
$CELWEIGHT
370
     0
  9
$ENDCAPS
280
     0
  9
$JOINSTYLE
280
     0
  9
$LWDISPLAY
290
     0
  9
$INSUNITS
 70
     5
  9
$HYPERLINKBASE
  1

  9
$XEDIT
290
     1
  9
$CEPSNTYPE
380
     0
  9
$PSTYLEMODE
290
     1
  9
$FINGERPRINTGUID
  2

  9
$VERSIONGUID
  2

  9
$EXTNAMES
290
     1
  9
$PSVPSCALE
 40
0.0
  0
ENDSEC
  0
SECTION
  2
CLASSES
  0
CLASS
  1
LWPOLYLINE
  2
AcDbPolyline
  3
AutoCAD 2000
 90
    32768
280
     0
281
     1
  0
CLASS
  1
IMAGE
  2
AcDbRasterImage
  3
ISM
 90
    32895
280
     0
281
     1
  0
CLASS
  1
OLE2FRAME
  2
AcDbOle2Frame
  3
AutoCAD 2000
 90
    32768
280
     0
281
     1
  0
CLASS
  1
HATCH
  2
AcDbHatch
  3
AutoCAD 2000
 90
    32768
280
     0
281
     1
  0
CLASS
  1
DICTIONARYVAR
  2
AcDbDictionaryVar
  3
AutoCAD 2000
 90
    32768
280
     0
281
     0
  0
CLASS
  1
RASTERVARIABLES
  2
AcDbRasterVariables
  3
ISM
 90
    32768
280
     0
281
     0
  0
CLASS
  1
IMAGEDEF
  2
AcDbRasterImageDef
  3
ISM
 90
    32768
280
     0
281
     0
  0
CLASS
  1
IMAGEDEF_REACTOR
  2
AcDbRasterImageDefReactor
  3
ISM
 90
    32769
280
     0
281
     0
  0
CLASS
  1
IDBUFFER
  2
AcDbIdBuffer
  3
AutoCAD 2000
 90
    32768
280
     0
281
     0
  0
CLASS
  1
SPATIAL_FILTER
  2
AcDbSpatialFilter
  3
AutoCAD 2000
 90
    32768
280
     0
281
     0
  0
CLASS
  1
XRECORD
  2
AcDbXrecord
  3
AutoCAD 2000
 90
    32768
280
     0
281
     0
  0
CLASS
  1
SORTENTSTABLE
  2
AcDbSortentsTable
  3
AutoCAD 2000
 90
    32768
280
     0
281
     0
  0
CLASS
  1
LAYER_INDEX
  2
AcDbLayerIndex
  3
AutoCAD 2000
 90
    32768
280
     0
281
     0
  0
CLASS
  1
SPATIAL_INDEX
  2
AcDbSpatialIndex
  3
AutoCAD 2000
 90
    32768
280
     0
281
     0
  0
CLASS
  1
OBJECT_PTR
  2
CAseDLPNTableRecord
  3
"ASE-LPNTableRecord"
 90
    32769
280
     0
281
     0
  0
CLASS
  1
LAYOUT
  2
AcDbLayout
  3
AutoCAD 2000
 90
        0
280
     0
281
     0
  0
CLASS
  1
PLOTSETTINGS
  2
AcDbPlotSettings
  3
AutoCAD 2000
 90
    32768
280
     0
281
     0
  0
CLASS
  1
ACDBDICTIONARYWDFLT
  2
AcDbDictionaryWithDefault
  3
AutoCAD 2000
 90
        0
280
     0
281
     0
  0
CLASS
  1
ACDBPLACEHOLDER
  2
AcDbPlaceHolder
  3
AutoCAD 2000
 90
        0
280
     0
281
     0
  0
CLASS
  1
VBA_PROJECT
  2
AcDbVbaProject
  3
acadvba
 90
    32768
280
     0
281
     0
  0
CLASS
  1
WIPEOUT
  2
AcDbWipeout
  3
WipeOut|AutoCAD Express Tool|expresstools@autodesk.com
 90
    32895
280
     0
281
     1
  0
CLASS
  1
WIPEOUTVARIABLES
  2
AcDbWipeoutVariables
  3
WipeOut|AutoCAD Express Tool|expresstools@autodesk.com
 90
        0
280
     0
281
     0
  0
CLASS
  1
RTEXT
  2
RText
  3
RText|AutoCAD Express Tool|expresstools@autodesk.com
 90
    32768
280
     0
281
     1
  0
CLASS
  1
ARCALIGNEDTEXT
  2
AcDbArcAlignedText
  3
ATEXT|AutoCAD Express Tool|expresstools@autodesk.com
 90
    32768
280
     0
281
     1
  0
ENDSEC
  0
SECTION
  2
TABLES
  0
TABLE
  2
VPORT
  5
7
100
AcDbSymbolTable
 70
     1
  0
VPORT
  5
15
100
AcDbSymbolTableRecord
100
AcDbViewportTableRecord
  2
*ACTIVE
 70
     0
 10
0.0
 20
0.0
 11
1.0
 21
1.0
 12
6.591288
 22
4.579184
 13
0.0
 23
0.0
 14
1.0
 24
1.0
 15
0.0
 25
0.0
 16
0.0
 26
0.0
 36
1.0
 17
0.0
 27
0.0
 37
0.0
 40
9.158369
 41
0.688564
 42
50.0
 43
0.0
 44
0.0
 50
0.0
 51
0.0
 71
     0
 72
   100
 73
     1
 74
     1
 75
     0
 76
     0
 77
     0
 78
     0
281
     0
 65
     0
110
0.0
120
0.0
130
0.0
111
1.0
121
0.0
131
0.0
112
0.0
122
1.0
132
0.0
345
0
346
0
 79
     0
146
0.0
  0
ENDTAB
  0
TABLE
  2
LTYPE
  5
4
100
AcDbSymbolTable
 70
     3
  0
LTYPE
  5
11
100
AcDbSymbolTableRecord
100
AcDbLinetypeTableRecord
  2
ByBlock
 70
    64
  3

 72
    65
 73
     0
 40
0.0
  0
LTYPE
  5
12
100
AcDbSymbolTableRecord
100
AcDbLinetypeTableRecord
  2
ByLayer
 70
    64
  3

 72
    65
 73
     0
 40
0.0
  0
LTYPE
  5
13
100
AcDbSymbolTableRecord
100
AcDbLinetypeTableRecord
  2
Continuous
 70
    64
  3
Solid line
 72
    65
 73
     0
 40
0.0
  0
ENDTAB
  0
TABLE
  2
LAYER
  5
2
100
AcDbSymbolTable
 70
     2
  0
LAYER
  5
14
100
AcDbSymbolTableRecord
100
AcDbLayerTableRecord
  2
0
 70
     0
 62
     7
  6
Continuous
290
     1
370
    -3
390
1D
  0
LAYER
  5
24
100
AcDbSymbolTableRecord
100
AcDbLayerTableRecord
  2
Ebene 1
 70
     0
 62
     7
  6
Continuous
290
     1
370
    -3
390
1F
  0
ENDTAB
  0
TABLE
  2
STYLE
  5
3
100
AcDbSymbolTable
 70
     1
  0
STYLE
  5
17
100
AcDbSymbolTableRecord
100
AcDbTextStyleTableRecord
  2
Standard
 70
     0
 40
0.0
 41
1.0
 50
0.0
 71
     0
 42
0.0
  3
txt
  4

  0
ENDTAB
  0
TABLE
  2
VIEW
  5
5
100
AcDbSymbolTable
 70
     0
  0
ENDTAB
  0
TABLE
  2
UCS
  5
6
100
AcDbSymbolTable
 70
     0
  0
ENDTAB
  0
TABLE
  2
APPID
  5
8
100
AcDbSymbolTable
 70
     1
  0
APPID
  5
16
100
AcDbSymbolTableRecord
100
AcDbRegAppTableRecord
  2
ACAD
 70
     0
  0
ENDTAB
  0
TABLE
  2
DIMSTYLE
  5
9
100
AcDbSymbolTable
 70
     1
100
AcDbDimStyleTable
 71
     0
  0
DIMSTYLE
105
18
100
AcDbSymbolTableRecord
100
AcDbDimStyleTableRecord
  2
Standard
 70
     0
  3

  4

 40
1.0
 41
0.18
 42
0.0625
 43
0.38
 44
0.18
 45
0.0
 46
0.0
 47
0.0
 48
0.0
 71
     0
 72
     0
 73
     1
 74
     1
 75
     0
 76
     0
 77
     0
 78
     0
 79
     0
140
0.18
141
0.09
142
0.0
143
25.4
144
1.0
145
0.0
146
1.0
147
0.09
148
0.0
170
     0
171
     2
172
     0
173
     0
174
     0
175
     0
176
     0
177
     0
178
     0
179
     0
271
     4
272
     4
273
     2
274
     2
275
     0
276
     0
277
     2
278
    46
279
     0
280
     0
281
     0
282
     0
283
     1
284
     0
285
     0
286
     0
288
     0
340
17
341
0
342
0
343
0
344
0
371
    -2
372
    -2
  0
ENDTAB
  0
TABLE
  2
BLOCK_RECORD
  5
1
100
AcDbSymbolTable
 70
     0
  0
BLOCK_RECORD
  5
A
100
AcDbSymbolTableRecord
100
AcDbBlockTableRecord
  2
*MODEL_SPACE
340
20
  0
BLOCK_RECORD
  5
B
100
AcDbSymbolTableRecord
100
AcDbBlockTableRecord
  2
*PAPER_SPACE
340
21
  0
ENDTAB
  0
ENDSEC
  0
SECTION
  2
BLOCKS
  0
BLOCK
  5
D
100
AcDbEntity
  8
0
100
AcDbBlockBegin
  2
*MODEL_SPACE
 70
     0
 10
0.0
 20
0.0
 30
0.0
  3
*MODEL_SPACE
  1

  0
ENDBLK
  5
E
100
AcDbEntity
  8
0
100
AcDbBlockEnd
  0
BLOCK
  5
F
100
AcDbEntity
 67
     1
  8
0
100
AcDbBlockBegin
  2
*PAPER_SPACE
 70
     0
 10
0.0
 20
0.0
 30
0.0
  3
*PAPER_SPACE
  1

  0
ENDBLK
  5
10
100
AcDbEntity
 67
     1
  8
0
100
AcDbBlockEnd
  0
ENDSEC
  0
SECTION
  2
ENTITIES
  0
SPLINE
  5
25
100
AcDbEntity
  8
Ebene 1
100
AcDbSpline
210
0.0
220
0.0
230
1.0
 70
     1
 71
     3
 72
   180
 73
   176
 74
     0
 42
0.0000000001
 43
0.0000000001
 40
0.0
 40
0.0
 40
0.0
 40
0.0
 40
0.0227272727272727
 40
0.0227272727272727
 40
0.0227272727272727
 40
0.0227272727272727
 40
0.0454545454545455
 40
0.0454545454545455
 40
0.0454545454545455
 40
0.0454545454545455
 40
0.0681818181818182
 40
0.0681818181818182
 40
0.0681818181818182
 40
0.0681818181818182
 40
0.0909090909090909
 40
0.0909090909090909
 40
0.0909090909090909
 40
0.0909090909090909
 40
0.1136363636363637
 40
0.1136363636363637
 40
0.1136363636363637
 40
0.1136363636363637
 40
0.1363636363636364
 40
0.1363636363636364
 40
0.1363636363636364
 40
0.1363636363636364
 40
0.1590909090909091
 40
0.1590909090909091
 40
0.1590909090909091
 40
0.1590909090909091
 40
0.1818181818181819
 40
0.1818181818181819
 40
0.1818181818181819
 40
0.1818181818181819
 40
0.2045454545454546
 40
0.2045454545454546
 40
0.2045454545454546
 40
0.2045454545454546
 40
0.2272727272727273
 40
0.2272727272727273
 40
0.2272727272727273
 40
0.2272727272727273
 40
0.2500000000000001
 40
0.2500000000000001
 40
0.2500000000000001
 40
0.2500000000000001
 40
0.2727272727272728
 40
0.2727272727272728
 40
0.2727272727272728
 40
0.2727272727272728
 40
0.2954545454545455
 40
0.2954545454545455
 40
0.2954545454545455
 40
0.2954545454545455
 40
0.3181818181818182
 40
0.3181818181818182
 40
0.3181818181818182
 40
0.3181818181818182
 40
0.3409090909090909
 40
0.3409090909090909
 40
0.3409090909090909
 40
0.3409090909090909
 40
0.3636363636363636
 40
0.3636363636363636
 40
0.3636363636363636
 40
0.3636363636363636
 40
0.3863636363636363
 40
0.3863636363636363
 40
0.3863636363636363
 40
0.3863636363636363
 40
0.409090909090909
 40
0.409090909090909
 40
0.409090909090909
 40
0.409090909090909
 40
0.4318181818181817
 40
0.4318181818181817
 40
0.4318181818181817
 40
0.4318181818181817
 40
0.4545454545454544
 40
0.4545454545454544
 40
0.4545454545454544
 40
0.4545454545454544
 40
0.4772727272727271
 40
0.4772727272727271
 40
0.4772727272727271
 40
0.4772727272727271
 40
0.4999999999999998
 40
0.4999999999999998
 40
0.4999999999999998
 40
0.4999999999999998
 40
0.5227272727272726
 40
0.5227272727272726
 40
0.5227272727272726
 40
0.5227272727272726
 40
0.5454545454545453
 40
0.5454545454545453
 40
0.5454545454545453
 40
0.5454545454545453
 40
0.568181818181818
 40
0.568181818181818
 40
0.568181818181818
 40
0.568181818181818
 40
0.5909090909090907
 40
0.5909090909090907
 40
0.5909090909090907
 40
0.5909090909090907
 40
0.6136363636363634
 40
0.6136363636363634
 40
0.6136363636363634
 40
0.6136363636363634
 40
0.6363636363636361
 40
0.6363636363636361
 40
0.6363636363636361
 40
0.6363636363636361
 40
0.6590909090909088
 40
0.6590909090909088
 40
0.6590909090909088
 40
0.6590909090909088
 40
0.6818181818181816
 40
0.6818181818181816
 40
0.6818181818181816
 40
0.6818181818181816
 40
0.7045454545454543
 40
0.7045454545454543
 40
0.7045454545454543
 40
0.7045454545454543
 40
0.727272727272727
 40
0.727272727272727
 40
0.727272727272727
 40
0.727272727272727
 40
0.7499999999999997
 40
0.7499999999999997
 40
0.7499999999999997
 40
0.7499999999999997
 40
0.7727272727272724
 40
0.7727272727272724
 40
0.7727272727272724
 40
0.7727272727272724
 40
0.7954545454545451
 40
0.7954545454545451
 40
0.7954545454545451
 40
0.7954545454545451
 40
0.8181818181818178
 40
0.8181818181818178
 40
0.8181818181818178
 40
0.8181818181818178
 40
0.8409090909090905
 40
0.8409090909090905
 40
0.8409090909090905
 40
0.8409090909090905
 40
0.8636363636363632
 40
0.8636363636363632
 40
0.8636363636363632
 40
0.8636363636363632
 40
0.8863636363636359
 40
0.8863636363636359
 40
0.8863636363636359
 40
0.8863636363636359
 40
0.9090909090909086
 40
0.9090909090909086
 40
0.9090909090909086
 40
0.9090909090909086
 40
0.9318181818181813
 40
0.9318181818181813
 40
0.9318181818181813
 40
0.9318181818181813
 40
0.954545454545454
 40
0.954545454545454
 40
0.954545454545454
 40
0.954545454545454
 40
0.9772727272727267
 40
0.9772727272727267
 40
0.9772727272727267
 40
0.9772727272727267
 40
1.0
 40
1.0
 40
1.0
 40
1.0
 10
0.8205600000000001
 20
6.4205500000000004
 30
0.0
 10
0.5183000000000001
 20
5.3639100000000006
 30
0.0
 10
0.25668
 20
3.9669100000000004
 30
0.0
 10
0.59704
 20
2.7604100000000003
 30
0.0
 10
0.59704
 20
2.7604100000000003
 30
0.0
 10
1.9838800000000001
 20
2.9788500000000004
 30
0.0
 10
4.19876
 20
2.6105500000000004
 30
0.0
 10
4.2114600000000006
 20
0.78937
 30
0.0
 10
4.2114600000000006
 20
0.78937
 30
0.0
 10
4.3003600000000004
 20
0.5429900000000001
 30
0.0
 10
4.3359200000000007
 20
0.28137
 30
0.0
 10
4.3359200000000007
 20
0.00705
 30
0.0
 10
4.3359200000000007
 20
0.00705
 30
0.0
 10
4.3130600000000001
 20
-1.0495800000000002
 30
0.0
 10
3.5688400000000002
 20
-1.8827000000000003
 30
0.0
 10
2.7484200000000003
 20
-2.5050000000000003
 30
0.0
 10
2.7484200000000003
 20
-2.5050000000000003
 30
0.0
 10
2.0067400000000002
 20
-2.4440400000000002
 30
0.0
 10
1.31332
 20
-2.9876
 30
0.0
 10
0.6326000000000001
 20
-2.6751800000000001
 30
0.0
 10
0.6326000000000001
 20
-2.6751800000000001
 30
0.0
 10
0.45734
 20
-3.0993600000000003
 30
0.0
 10
0.531
 20
-3.6175200000000003
 30
0.0
 10
0.4192400000000001
 20
-4.0544000000000002
 30
0.0
 10
0.4192400000000001
 20
-4.0544000000000002
 30
0.0
 10
0.01538
 20
-4.4608000000000008
 30
0.0
 10
-0.6627900000000001
 20
-4.6792400000000001
 30
0.0
 10
-0.7999500000000001
 20
-5.2939200000000008
 30
0.0
 10
-0.7999500000000001
 20
-5.2939200000000008
 30
0.0
 10
-1.6254500000000001
 20
-5.5377600000000005
 30
0.0
 10
-2.0724900000000002
 20
-5.9721000000000002
 30
0.0
 10
-2.65415
 20
-6.4267600000000007
 30
0.0
 10
-2.65415
 20
-6.4267600000000007
 30
0.0
 10
-2.65415
 20
-6.4267600000000007
 30
0.0
 10
-3.6193500000000003
 20
-6.3099200000000009
 30
0.0
 10
-3.6193500000000003
 20
-6.3099200000000009
 30
0.0
 10
-3.6193500000000003
 20
-6.3099200000000009
 30
0.0
 10
-3.3450300000000004
 20
-5.6546000000000003
 30
0.0
 10
-3.8098500000000004
 20
-5.0450000000000008
 30
0.0
 10
-3.8987500000000002
 20
-4.44048
 30
0.0
 10
-3.8987500000000002
 20
-4.44048
 30
0.0
 10
-3.8987500000000002
 20
-4.44048
 30
0.0
 10
-3.6320500000000004
 20
-4.6970200000000002
 30
0.0
 10
-3.6320500000000004
 20
-4.6970200000000002
 30
0.0
 10
-3.6320500000000004
 20
-4.6970200000000002
 30
0.0
 10
-3.5837900000000005
 20
-4.77576
 30
0.0
 10
-3.5279100000000003
 20
-4.8748200000000006
 30
0.0
 10
-3.4339300000000001
 20
-4.9027600000000007
 30
0.0
 10
-3.4339300000000001
 20
-4.9027600000000007
 30
0.0
 10
-3.3932900000000004
 20
-4.77576
 30
0.0
 10
-3.5126700000000004
 20
-4.2728400000000004
 30
0.0
 10
-3.3297900000000005
 20
-4.6233600000000008
 30
0.0
 10
-3.3297900000000005
 20
-4.6233600000000008
 30
0.0
 10
-3.2510500000000002
 20
-4.4176200000000003
 30
0.0
 10
-3.2383500000000001
 20
-4.3109400000000004
 30
0.0
 10
-3.1088100000000001
 20
-4.6360600000000005
 30
0.0
 10
-3.1088100000000001
 20
-4.6360600000000005
 30
0.0
 10
-3.11389
 20
-4.4963600000000001
 30
0.0
 10
-3.0351500000000002
 20
-4.0620200000000004
 30
0.0
 10
-2.9081500000000005
 20
-4.34396
 30
0.0
 10
-2.9081500000000005
 20
-4.34396
 30
0.0
 10
-2.8903700000000003
 20
-4.1941000000000006
 30
0.0
 10
-2.82179
 20
-4.1458400000000006
 30
0.0
 10
-2.7176500000000003
 20
-4.2830000000000004
 30
0.0
 10
-2.7176500000000003
 20
-4.2830000000000004
 30
0.0
 10
-2.7633700000000001
 20
-3.7496000000000005
 30
0.0
 10
-2.4534900000000004
 20
-4.1661600000000005
 30
0.0
 10
-2.4026900000000002
 20
-3.6454600000000004
 30
0.0
 10
-2.4026900000000002
 20
-3.6454600000000004
 30
0.0
 10
-2.3493500000000003
 20
-3.7877000000000005
 30
0.0
 10
-2.3696700000000002
 20
-3.9731200000000002
 30
0.0
 10
-2.3264900000000002
 20
-3.7064200000000005
 30
0.0
 10
-2.3264900000000002
 20
-3.7064200000000005
 30
0.0
 10
-2.3239500000000004
 20
-3.6353000000000004
 30
0.0
 10
-2.3823700000000003
 20
-3.3863800000000004
 30
0.0
 10
-2.2528300000000003
 20
-3.5083000000000002
 30
0.0
 10
-2.2528300000000003
 20
-3.5083000000000002
 30
0.0
 10
-2.2528300000000003
 20
-3.5083000000000002
 30
0.0
 10
-2.1486900000000002
 20
-3.6429200000000002
 30
0.0
 10
-2.1486900000000002
 20
-3.6429200000000002
 30
0.0
 10
-2.1486900000000002
 20
-3.6429200000000002
 30
0.0
 10
-1.8972300000000002
 20
-3.1958800000000003
 30
0.0
 10
-2.1055100000000002
 20
-2.6167600000000002
 30
0.0
 10
-2.2020300000000002
 20
-2.1468600000000002
 30
0.0
 10
-2.2020300000000002
 20
-2.1468600000000002
 30
0.0
 10
-2.3341100000000004
 20
-2.23068
 30
0.0
 10
-2.3899900000000001
 20
-2.52786
 30
0.0
 10
-2.5855700000000001
 20
-2.4923000000000002
 30
0.0
 10
-2.5855700000000001
 20
-2.4923000000000002
 30
0.0
 10
-2.5855700000000001
 20
-2.4923000000000002
 30
0.0
 10
-2.6414500000000003
 20
-1.9284200000000002
 30
0.0
 10
-2.6414500000000003
 20
-1.9284200000000002
 30
0.0
 10
-2.6414500000000003
 20
-1.9284200000000002
 30
0.0
 10
-2.8751300000000004
 20
-2.1367000000000003
 30
0.0
 10
-2.8141700000000003
 20
-2.5253200000000002
 30
0.0
 10
-3.0453100000000002
 20
-2.7488400000000004
 30
0.0
 10
-3.0453100000000002
 20
-2.7488400000000004
 30
0.0
 10
-3.2231100000000001
 20
-2.9647400000000004
 30
0.0
 10
-3.2027900000000002
 20
-2.7310600000000003
 30
0.0
 10
-3.1392900000000004
 20
-2.5735800000000002
 30
0.0
 10
-3.1392900000000004
 20
-2.5735800000000002
 30
0.0
 10
-3.1392900000000004
 20
-2.5735800000000002
 30
0.0
 10
-3.0529300000000004
 20
-2.2078200000000003
 30
0.0
 10
-3.0529300000000004
 20
-2.2078200000000003
 30
0.0
 10
-3.0529300000000004
 20
-2.2078200000000003
 30
0.0
 10
-2.8903700000000003
 20
-1.5296400000000001
 30
0.0
 10
-3.6244300000000003
 20
-2.9241000000000001
 30
0.0
 10
-3.6625300000000003
 20
-2.5354800000000002
 30
0.0
 10
-3.6625300000000003
 20
-2.5354800000000002
 30
0.0
 10
-3.6625300000000003
 20
-2.5354800000000002
 30
0.0
 10
-3.6066500000000001
 20
-2.2713200000000002
 30
0.0
 10
-3.6066500000000001
 20
-2.2713200000000002
 30
0.0
 10
-3.6066500000000001
 20
-2.2713200000000002
 30
0.0
 10
-3.5710900000000003
 20
-2.2078200000000003
 30
0.0
 10
-3.6142700000000003
 20
-2.1265400000000003
 30
0.0
 10
-3.6650700000000005
 20
-2.2154400000000001
 30
0.0
 10
-3.6650700000000005
 20
-2.2154400000000001
 30
0.0
 10
-3.6650700000000005
 20
-2.2154400000000001
 30
0.0
 10
-3.7463500000000005
 20
-2.2967200000000001
 30
0.0
 10
-3.7463500000000005
 20
-2.2967200000000001
 30
0.0
 10
-3.7463500000000005
 20
-2.2967200000000001
 30
0.0
 10
-3.7463500000000005
 20
-2.2967200000000001
 30
0.0
 10
-3.8200100000000003
 20
-2.3729200000000001
 30
0.0
 10
-3.8200100000000003
 20
-2.3729200000000001
 30
0.0
 10
-3.8200100000000003
 20
-2.3729200000000001
 30
0.0
 10
-3.9419300000000002
 20
-2.4745200000000001
 30
0.0
 10
-4.2492700000000001
 20
-2.8656800000000002
 30
0.0
 10
-4.1654500000000008
 20
-2.52278
 30
0.0
 10
-4.1654500000000008
 20
-2.52278
 30
0.0
 10
-4.5718500000000004
 20
-2.9215600000000004
 30
0.0
 10
-3.8784300000000003
 20
-1.8776200000000001
 30
0.0
 10
-4.2441900000000006
 20
-2.3043400000000003
 30
0.0
 10
-4.2441900000000006
 20
-2.3043400000000003
 30
0.0
 10
-4.2746700000000004
 20
-2.3272000000000004
 30
0.0
 10
-4.3534100000000002
 20
-2.3348200000000001
 30
0.0
 10
-4.3254700000000001
 20
-2.2713200000000002
 30
0.0
 10
-4.3254700000000001
 20
-2.2713200000000002
 30
0.0
 10
-4.0384500000000001
 20
-1.7734800000000002
 30
0.0
 10
-3.4288500000000002
 20
-1.42042
 30
0.0
 10
-3.5126700000000004
 20
-0.76002
 30
0.0
 10
-3.5126700000000004
 20
-0.76002
 30
0.0
 10
-3.6472900000000004
 20
-0.7778000000000001
 30
0.0
 10
-3.7768300000000004
 20
-1.0292600000000001
 30
0.0
 10
-3.8885900000000002
 20
-0.94798
 30
0.0
 10
-3.8885900000000002
 20
-0.94798
 30
0.0
 10
-3.6625300000000003
 20
-0.4171200000000001
 30
0.0
 10
-3.2205700000000004
 20
0.02991
 30
0.0
 10
-2.6820900000000001
 20
0.21279
 30
0.0
 10
-2.6820900000000001
 20
0.21279
 30
0.0
 10
-2.9360900000000001
 20
0.8808100000000001
 30
0.0
 10
-2.05471
 20
0.89097
 30
0.0
 10
-1.8591300000000002
 20
1.40659
 30
0.0
 10
-1.8591300000000002
 20
1.40659
 30
0.0
 10
-2.5906500000000001
 20
2.6664300000000001
 30
0.0
 10
-3.1748500000000002
 20
4.3174300000000008
 30
0.0
 10
-2.5144500000000001
 20
5.7296700000000005
 30
0.0
 10
-2.5144500000000001
 20
5.7296700000000005
 30
0.0
 10
-2.5601700000000003
 20
5.2623100000000003
 30
0.0
 10
-2.5881100000000004
 20
4.6577900000000003
 30
0.0
 10
-2.4280900000000001
 20
4.1777300000000004
 30
0.0
 10
-2.4280900000000001
 20
4.1777300000000004
 30
0.0
 10
-2.3214100000000002
 20
3.7510100000000004
 30
0.0
 10
-2.1613900000000004
 20
3.3471500000000001
 30
0.0
 10
-1.9937500000000001
 20
2.9356700000000004
 30
0.0
 10
-1.9937500000000001
 20
2.9356700000000004
 30
0.0
 10
-1.7245100000000002
 20
2.50387
 30
0.0
 10
-1.5136900000000002
 20
2.2854300000000003
 30
0.0
 10
-1.16825
 20
2.2320900000000004
 30
0.0
 10
-1.16825
 20
2.2320900000000004
 30
0.0
 10
-0.86599
 20
2.1838300000000004
 30
0.0
 10
-0.71613
 20
2.3667100000000003
 30
0.0
 10
-0.4164100000000001
 20
2.6537300000000004
 30
0.0
 10
-0.4164100000000001
 20
2.6537300000000004
 30
0.0
 10
-0.28941
 20
4.0354900000000002
 30
0.0
 10
-0.12177
 20
5.3385100000000003
 30
0.0
 10
0.8205600000000001
 20
6.4205500000000004
 30
0.0
  0
SPLINE
  5
26
100
AcDbEntity
  8
Ebene 1
100
AcDbSpline
210
0.0
220
0.0
230
1.0
 70
     1
 71
     3
 72
    60
 73
    56
 74
     0
 42
0.0000000001
 43
0.0000000001
 40
0.0
 40
0.0
 40
0.0
 40
0.0
 40
0.0714285714285714
 40
0.0714285714285714
 40
0.0714285714285714
 40
0.0714285714285714
 40
0.1428571428571429
 40
0.1428571428571429
 40
0.1428571428571429
 40
0.1428571428571429
 40
0.2142857142857143
 40
0.2142857142857143
 40
0.2142857142857143
 40
0.2142857142857143
 40
0.2857142857142857
 40
0.2857142857142857
 40
0.2857142857142857
 40
0.2857142857142857
 40
0.3571428571428571
 40
0.3571428571428571
 40
0.3571428571428571
 40
0.3571428571428571
 40
0.4285714285714285
 40
0.4285714285714285
 40
0.4285714285714285
 40
0.4285714285714285
 40
0.4999999999999999
 40
0.4999999999999999
 40
0.4999999999999999
 40
0.4999999999999999
 40
0.5714285714285713
 40
0.5714285714285713
 40
0.5714285714285713
 40
0.5714285714285713
 40
0.6428571428571427
 40
0.6428571428571427
 40
0.6428571428571427
 40
0.6428571428571427
 40
0.7142857142857141
 40
0.7142857142857141
 40
0.7142857142857141
 40
0.7142857142857141
 40
0.7857142857142855
 40
0.7857142857142855
 40
0.7857142857142855
 40
0.7857142857142855
 40
0.8571428571428569
 40
0.8571428571428569
 40
0.8571428571428569
 40
0.8571428571428569
 40
0.9285714285714283
 40
0.9285714285714283
 40
0.9285714285714283
 40
0.9285714285714283
 40
1.0
 40
1.0
 40
1.0
 40
1.0
 10
-0.8634500000000001
 20
-2.3703800000000004
 30
0.0
 10
-0.9396500000000001
 20
-2.4999200000000004
 30
0.0
 10
-0.9904500000000001
 20
-2.64724
 30
0.0
 10
-1.0539500000000002
 20
-2.7869400000000004
 30
0.0
 10
-1.0539500000000002
 20
-2.7869400000000004
 30
0.0
 10
-1.0539500000000002
 20
-2.7869400000000004
 30
0.0
 10
-1.07935
 20
-3.0257000000000001
 30
0.0
 10
-1.07935
 20
-3.0257000000000001
 30
0.0
 10
-1.07935
 20
-3.0257000000000001
 30
0.0
 10
-1.07935
 20
-3.2035000000000005
 30
0.0
 10
-1.0920500000000002
 20
-3.3762200000000004
 30
0.0
 10
-1.1530100000000001
 20
-3.5387800000000005
 30
0.0
 10
-1.1530100000000001
 20
-3.5387800000000005
 30
0.0
 10
-1.4933700000000001
 20
-3.7292800000000002
 30
0.0
 10
-1.7727700000000002
 20
-4.0670999999999999
 30
0.0
 10
-1.9861300000000002
 20
-4.3871400000000005
 30
0.0
 10
-1.9861300000000002
 20
-4.3871400000000005
 30
0.0
 10
-1.9734300000000002
 20
-4.52684
 30
0.0
 10
-1.9099300000000001
 20
-4.6868600000000002
 30
0.0
 10
-1.8337300000000001
 20
-4.7910000000000004
 30
0.0
 10
-1.8337300000000001
 20
-4.7910000000000004
 30
0.0
 10
-1.7092700000000001
 20
-4.6436800000000007
 30
0.0
 10
-1.8845300000000003
 20
-4.3134800000000002
 30
0.0
 10
-1.7092700000000001
 20
-4.2449000000000003
 30
0.0
 10
-1.7092700000000001
 20
-4.2449000000000003
 30
0.0
 10
-1.7092700000000001
 20
-4.2449000000000003
 30
0.0
 10
-1.54417
 20
-4.5344600000000002
 30
0.0
 10
-1.54417
 20
-4.5344600000000002
 30
0.0
 10
-1.54417
 20
-4.5344600000000002
 30
0.0
 10
-1.4933700000000001
 20
-4.3769800000000005
 30
0.0
 10
-1.50607
 20
-4.19156
 30
0.0
 10
-1.4070100000000001
 20
-4.0493200000000007
 30
0.0
 10
-1.4070100000000001
 20
-4.0493200000000007
 30
0.0
 10
-1.25461
 20
-4.0442400000000003
 30
0.0
 10
-1.3562100000000001
 20
-4.2626800000000005
 30
0.0
 10
-1.25461
 20
-4.3211000000000004
 30
0.0
 10
-1.25461
 20
-4.3211000000000004
 30
0.0
 10
-1.1403100000000002
 20
-4.1560000000000006
 30
0.0
 10
-1.1784100000000002
 20
-3.9426400000000004
 30
0.0
 10
-1.0539500000000002
 20
-3.7699200000000004
 30
0.0
 10
-1.0539500000000002
 20
-3.7699200000000004
 30
0.0
 10
-0.95235
 20
-3.7394400000000001
 30
0.0
 10
-0.9904500000000001
 20
-3.9172400000000005
 30
0.0
 10
-0.9142500000000001
 20
-3.9451800000000001
 30
0.0
 10
-0.9142500000000001
 20
-3.9451800000000001
 30
0.0
 10
-0.49769
 20
-3.6861000000000002
 30
0.0
 10
-0.17257
 20
-3.2111200000000002
 30
0.0
 10
-0.25893
 20
-2.6853400000000001
 30
0.0
 10
-0.25893
 20
-2.6853400000000001
 30
0.0
 10
-0.27163
 20
-2.6421600000000001
 30
0.0
 10
-0.3224300000000001
 20
-2.6447000000000003
 30
0.0
 10
-0.36053
 20
-2.64724
 30
0.0
 10
-0.36053
 20
-2.64724
 30
0.0
 10
-0.6246900000000001
 20
-2.8402800000000004
 30
0.0
 10
-0.67549
 20
-2.4516600000000004
 30
0.0
 10
-0.8634500000000001
 20
-2.3703800000000004
 30
0.0
  0
SPLINE
  5
27
100
AcDbEntity
  8
Ebene 1
 62
     7
100
AcDbSpline
210
0.0
220
0.0
230
1.0
 70
     1
 71
     3
 72
   180
 73
   176
 74
     0
 42
0.0000000001
 43
0.0000000001
 40
0.0
 40
0.0
 40
0.0
 40
0.0
 40
0.0227272727272727
 40
0.0227272727272727
 40
0.0227272727272727
 40
0.0227272727272727
 40
0.0454545454545455
 40
0.0454545454545455
 40
0.0454545454545455
 40
0.0454545454545455
 40
0.0681818181818182
 40
0.0681818181818182
 40
0.0681818181818182
 40
0.0681818181818182
 40
0.0909090909090909
 40
0.0909090909090909
 40
0.0909090909090909
 40
0.0909090909090909
 40
0.1136363636363637
 40
0.1136363636363637
 40
0.1136363636363637
 40
0.1136363636363637
 40
0.1363636363636364
 40
0.1363636363636364
 40
0.1363636363636364
 40
0.1363636363636364
 40
0.1590909090909091
 40
0.1590909090909091
 40
0.1590909090909091
 40
0.1590909090909091
 40
0.1818181818181819
 40
0.1818181818181819
 40
0.1818181818181819
 40
0.1818181818181819
 40
0.2045454545454546
 40
0.2045454545454546
 40
0.2045454545454546
 40
0.2045454545454546
 40
0.2272727272727273
 40
0.2272727272727273
 40
0.2272727272727273
 40
0.2272727272727273
 40
0.2500000000000001
 40
0.2500000000000001
 40
0.2500000000000001
 40
0.2500000000000001
 40
0.2727272727272728
 40
0.2727272727272728
 40
0.2727272727272728
 40
0.2727272727272728
 40
0.2954545454545455
 40
0.2954545454545455
 40
0.2954545454545455
 40
0.2954545454545455
 40
0.3181818181818182
 40
0.3181818181818182
 40
0.3181818181818182
 40
0.3181818181818182
 40
0.3409090909090909
 40
0.3409090909090909
 40
0.3409090909090909
 40
0.3409090909090909
 40
0.3636363636363636
 40
0.3636363636363636
 40
0.3636363636363636
 40
0.3636363636363636
 40
0.3863636363636363
 40
0.3863636363636363
 40
0.3863636363636363
 40
0.3863636363636363
 40
0.409090909090909
 40
0.409090909090909
 40
0.409090909090909
 40
0.409090909090909
 40
0.4318181818181817
 40
0.4318181818181817
 40
0.4318181818181817
 40
0.4318181818181817
 40
0.4545454545454544
 40
0.4545454545454544
 40
0.4545454545454544
 40
0.4545454545454544
 40
0.4772727272727271
 40
0.4772727272727271
 40
0.4772727272727271
 40
0.4772727272727271
 40
0.4999999999999998
 40
0.4999999999999998
 40
0.4999999999999998
 40
0.4999999999999998
 40
0.5227272727272726
 40
0.5227272727272726
 40
0.5227272727272726
 40
0.5227272727272726
 40
0.5454545454545453
 40
0.5454545454545453
 40
0.5454545454545453
 40
0.5454545454545453
 40
0.568181818181818
 40
0.568181818181818
 40
0.568181818181818
 40
0.568181818181818
 40
0.5909090909090907
 40
0.5909090909090907
 40
0.5909090909090907
 40
0.5909090909090907
 40
0.6136363636363634
 40
0.6136363636363634
 40
0.6136363636363634
 40
0.6136363636363634
 40
0.6363636363636361
 40
0.6363636363636361
 40
0.6363636363636361
 40
0.6363636363636361
 40
0.6590909090909088
 40
0.6590909090909088
 40
0.6590909090909088
 40
0.6590909090909088
 40
0.6818181818181816
 40
0.6818181818181816
 40
0.6818181818181816
 40
0.6818181818181816
 40
0.7045454545454543
 40
0.7045454545454543
 40
0.7045454545454543
 40
0.7045454545454543
 40
0.727272727272727
 40
0.727272727272727
 40
0.727272727272727
 40
0.727272727272727
 40
0.7499999999999997
 40
0.7499999999999997
 40
0.7499999999999997
 40
0.7499999999999997
 40
0.7727272727272724
 40
0.7727272727272724
 40
0.7727272727272724
 40
0.7727272727272724
 40
0.7954545454545451
 40
0.7954545454545451
 40
0.7954545454545451
 40
0.7954545454545451
 40
0.8181818181818178
 40
0.8181818181818178
 40
0.8181818181818178
 40
0.8181818181818178
 40
0.8409090909090905
 40
0.8409090909090905
 40
0.8409090909090905
 40
0.8409090909090905
 40
0.8636363636363632
 40
0.8636363636363632
 40
0.8636363636363632
 40
0.8636363636363632
 40
0.8863636363636359
 40
0.8863636363636359
 40
0.8863636363636359
 40
0.8863636363636359
 40
0.9090909090909086
 40
0.9090909090909086
 40
0.9090909090909086
 40
0.9090909090909086
 40
0.9318181818181813
 40
0.9318181818181813
 40
0.9318181818181813
 40
0.9318181818181813
 40
0.954545454545454
 40
0.954545454545454
 40
0.954545454545454
 40
0.954545454545454
 40
0.9772727272727267
 40
0.9772727272727267
 40
0.9772727272727267
 40
0.9772727272727267
 40
1.0
 40
1.0
 40
1.0
 40
1.0
 10
0.44464
 20
5.6153700000000004
 30
0.0
 10
0.30494
 20
4.4444300000000005
 30
0.0
 10
0.20334
 20
3.0855300000000003
 30
0.0
 10
0.6326000000000001
 20
1.9653900000000002
 30
0.0
 10
0.6326000000000001
 20
1.9653900000000002
 30
0.0
 10
0.9729600000000001
 20
1.6834500000000001
 30
0.0
 10
0.4675
 20
2.4048100000000003
 30
0.0
 10
0.5564
 20
2.63849
 30
0.0
 10
0.5564
 20
2.63849
 30
0.0
 10
1.5901800000000001
 20
2.8315300000000003
 30
0.0
 10
2.7484200000000003
 20
2.7045300000000001
 30
0.0
 10
3.6069400000000003
 20
2.0593700000000004
 30
0.0
 10
3.6069400000000003
 20
2.0593700000000004
 30
0.0
 10
3.9955600000000002
 20
1.7317100000000001
 30
0.0
 10
4.1733600000000006
 20
1.2694300000000001
 30
0.0
 10
4.0971600000000006
 20
0.76397
 30
0.0
 10
4.0971600000000006
 20
0.76397
 30
0.0
 10
4.6534200000000006
 20
-0.45014
 30
0.0
 10
3.5815400000000004
 20
-2.39324
 30
0.0
 10
2.2201
 20
-2.4161000000000001
 30
0.0
 10
2.2201
 20
-2.4161000000000001
 30
0.0
 10
2.3344
 20
-2.2459200000000004
 30
0.0
 10
3.1522800000000002
 20
-1.9970000000000001
 30
0.0
 10
2.7255600000000002
 20
-2.0427200000000001
 30
0.0
 10
2.7255600000000002
 20
-2.0427200000000001
 30
0.0
 10
2.7255600000000002
 20
-2.0427200000000001
 30
0.0
 10
2.5350600000000001
 20
-2.1214600000000003
 30
0.0
 10
2.5350600000000001
 20
-2.1214600000000003
 30
0.0
 10
2.5350600000000001
 20
-2.1214600000000003
 30
0.0
 10
2.4842600000000004
 20
-2.1494
 30
0.0
 10
2.42076
 20
-2.19258
 30
0.0
 10
2.3598000000000003
 20
-2.1951200000000002
 30
0.0
 10
2.3598000000000003
 20
-2.1951200000000002
 30
0.0
 10
1.9813400000000001
 20
-2.2941800000000003
 30
0.0
 10
1.6155800000000002
 20
-2.6980400000000002
 30
0.0
 10
1.2117200000000001
 20
-2.5304000000000002
 30
0.0
 10
1.2117200000000001
 20
-2.5304000000000002
 30
0.0
 10
1.18632
 20
-2.0554200000000002
 30
0.0
 10
1.40222
 20
-1.0191000000000001
 30
0.0
 10
2.1566000000000001
 20
-1.29596
 30
0.0
 10
2.1566000000000001
 20
-1.29596
 30
0.0
 10
2.3953600000000002
 20
-1.3670800000000001
 30
0.0
 10
2.42076
 20
-1.2426200000000001
 30
0.0
 10
2.1693000000000002
 20
-1.2375400000000001
 30
0.0
 10
2.1693000000000002
 20
-1.2375400000000001
 30
0.0
 10
1.5393800000000002
 20
-1.03688
 30
0.0
 10
0.9729600000000001
 20
-1.5575800000000002
 30
0.0
 10
0.3684400000000001
 20
-1.2756400000000001
 30
0.0
 10
0.3684400000000001
 20
-1.2756400000000001
 30
0.0
 10
0.4802
 20
-1.2223000000000002
 30
0.0
 10
0.7977000000000001
 20
-1.1943600000000001
 30
0.0
 10
0.7596000000000001
 20
-1.0978400000000001
 30
0.0
 10
0.7596000000000001
 20
-1.0978400000000001
 30
0.0
 10
0.10428
 20
-1.2807200000000001
 30
0.0
 10
-0.7516900000000001
 20
-1.9030200000000002
 30
0.0
 10
-1.1784100000000002
 20
-1.0114800000000002
 30
0.0
 10
-1.1784100000000002
 20
-1.0114800000000002
 30
0.0
 10
-1.1784100000000002
 20
-1.0114800000000002
 30
0.0
 10
-1.41971
 20
-0.90988
 30
0.0
 10
-1.41971
 20
-0.90988
 30
0.0
 10
-1.41971
 20
-0.90988
 30
0.0
 10
-1.54417
 20
-0.8997200000000001
 30
0.0
 10
-1.7219700000000002
 20
-0.9352800000000001
 30
0.0
 10
-1.7473700000000001
 20
-1.0724400000000001
 30
0.0
 10
-1.7473700000000001
 20
-1.0724400000000001
 30
0.0
 10
-1.6203700000000001
 20
-1.0826
 30
0.0
 10
-1.4070100000000001
 20
-0.9657600000000001
 30
0.0
 10
-1.2673100000000002
 20
-1.1105400000000001
 30
0.0
 10
-1.2673100000000002
 20
-1.1105400000000001
 30
0.0
 10
-0.9777500000000001
 20
-1.2680200000000001
 30
0.0
 10
-1.16571
 20
-2.3424400000000003
 30
0.0
 10
-1.6203700000000001
 20
-1.9411200000000002
 30
0.0
 10
-1.6203700000000001
 20
-1.9411200000000002
 30
0.0
 10
-1.6203700000000001
 20
-1.9411200000000002
 30
0.0
 10
-1.75499
 20
-1.9741400000000002
 30
0.0
 10
-1.75499
 20
-1.9741400000000002
 30
0.0
 10
-1.75499
 20
-1.9741400000000002
 30
0.0
 10
-1.8184900000000002
 20
-1.7531600000000001
 30
0.0
 10
-1.6330700000000002
 20
-1.16896
 30
0.0
 10
-1.7600700000000002
 20
-1.2324600000000001
 30
0.0
 10
-1.7600700000000002
 20
-1.2324600000000001
 30
0.0
 10
-1.8972300000000002
 20
-1.4788400000000002
 30
0.0
 10
-1.7727700000000002
 20
-1.7811000000000001
 30
0.0
 10
-1.8972300000000002
 20
-2.0274800000000002
 30
0.0
 10
-1.8972300000000002
 20
-2.0274800000000002
 30
0.0
 10
-2.0521700000000003
 20
-1.9157200000000001
 30
0.0
 10
-2.2883900000000001
 20
-1.92334
 30
0.0
 10
-2.1207500000000001
 20
-1.6795000000000002
 30
0.0
 10
-2.1207500000000001
 20
-1.6795000000000002
 30
0.0
 10
-2.1207500000000001
 20
-1.6795000000000002
 30
0.0
 10
-2.0394700000000001
 20
-1.4077200000000001
 30
0.0
 10
-2.0394700000000001
 20
-1.4077200000000001
 30
0.0
 10
-2.0394700000000001
 20
-1.4077200000000001
 30
0.0
 10
-2.02169
 20
-1.0470400000000002
 30
0.0
 10
-2.1817100000000003
 20
-1.8725400000000001
 30
0.0
 10
-2.30871
 20
-1.8877800000000002
 30
0.0
 10
-2.30871
 20
-1.8877800000000002
 30
0.0
 10
-2.8751300000000004
 20
-1.9106400000000001
 30
0.0
 10
-1.9607300000000001
 20
-0.9860800000000001
 30
0.0
 10
-2.3595100000000002
 20
-1.3645400000000001
 30
0.0
 10
-2.3595100000000002
 20
-1.3645400000000001
 30
0.0
 10
-2.3595100000000002
 20
-1.3645400000000001
 30
0.0
 10
-2.4890500000000002
 20
-1.5652000000000001
 30
0.0
 10
-2.4890500000000002
 20
-1.5652000000000001
 30
0.0
 10
-2.4890500000000002
 20
-1.5652000000000001
 30
0.0
 10
-2.5855700000000001
 20
-2.0071600000000003
 30
0.0
 10
-2.9157700000000002
 20
-1.6871200000000002
 30
0.0
 10
-2.81671
 20
-1.4890000000000001
 30
0.0
 10
-2.81671
 20
-1.4890000000000001
 30
0.0
 10
-2.7608300000000003
 20
-1.2223000000000002
 30
0.0
 10
-2.8852900000000004
 20
-1.3112000000000001
 30
0.0
 10
-2.8979900000000001
 20
-1.5245600000000001
 30
0.0
 10
-2.8979900000000001
 20
-1.5245600000000001
 30
0.0
 10
-2.9005300000000003
 20
-1.5652000000000001
 30
0.0
 10
-2.8954500000000003
 20
-1.6490200000000002
 30
0.0
 10
-2.9970500000000002
 20
-1.7201400000000002
 30
0.0
 10
-2.9970500000000002
 20
-1.7201400000000002
 30
0.0
 10
-3.1011900000000003
 20
-1.33152
 30
0.0
 10
-3.8428700000000005
 20
-1.8903200000000002
 30
0.0
 10
-3.4186900000000002
 20
-1.28834
 30
0.0
 10
-3.4186900000000002
 20
-1.28834
 30
0.0
 10
-3.3272500000000003
 20
-1.7049000000000001
 30
0.0
 10
-2.9233900000000004
 20
-1.2146800000000002
 30
0.0
 10
-2.7049500000000002
 20
-1.1080000000000001
 30
0.0
 10
-2.7049500000000002
 20
-1.1080000000000001
 30
0.0
 10
-2.5601700000000003
 20
-0.86416
 30
0.0
 10
-2.44333
 20
-0.5415800000000001
 30
0.0
 10
-2.8065500000000001
 20
-0.44506
 30
0.0
 10
-2.8065500000000001
 20
-0.44506
 30
0.0
 10
-3.1240500000000004
 20
-0.45014
 30
0.0
 10
-3.3983700000000003
 20
-0.6457200000000001
 30
0.0
 10
-3.6828500000000002
 20
-0.7549400000000001
 30
0.0
 10
-3.6828500000000002
 20
-0.7549400000000001
 30
0.0
 10
-3.4415500000000003
 20
-0.16058
 30
0.0
 10
-2.8522700000000003
 20
-0.01072
 30
0.0
 10
-2.3899900000000001
 20
0.31439
 30
0.0
 10
-2.3899900000000001
 20
0.31439
 30
0.0
 10
-2.9208500000000002
 20
0.4439300000000001
 30
0.0
 10
-2.23251
 20
0.9951100000000001
 30
0.0
 10
-1.7600700000000002
 20
1.0001900000000001
 30
0.0
 10
-1.7600700000000002
 20
1.0001900000000001
 30
0.0
 10
-1.1911100000000001
 20
1.2414900000000002
 30
0.0
 10
-1.4755900000000002
 20
1.2948300000000001
 30
0.0
 10
-1.8159500000000002
 20
1.10941
 30
0.0
 10
-1.8159500000000002
 20
1.10941
 30
0.0
 10
-1.8286500000000001
 20
1.35833
 30
0.0
 10
-1.5949700000000002
 20
1.4523100000000002
 30
0.0
 10
-1.4933700000000001
 20
1.69615
 30
0.0
 10
-1.4933700000000001
 20
1.69615
 30
0.0
 10
-1.5695700000000001
 20
1.7901300000000002
 30
0.0
 10
-1.6076700000000002
 20
1.5920100000000001
 30
0.0
 10
-1.6965700000000001
 20
1.6250300000000002
 30
0.0
 10
-1.6965700000000001
 20
1.6250300000000002
 30
0.0
 10
-2.4839700000000002
 20
2.3108300000000002
 30
0.0
 10
-2.7278100000000003
 20
3.4106500000000004
 30
0.0
 10
-2.65415
 20
4.4190300000000002
 30
0.0
 10
-2.65415
 20
4.4190300000000002
 30
0.0
 10
-2.2934700000000001
 20
3.5986100000000003
 30
0.0
 10
-2.1232900000000003
 20
2.5343500000000003
 30
0.0
 10
-1.33081
 20
1.9831700000000001
 30
0.0
 10
-1.33081
 20
1.9831700000000001
 30
0.0
 10
-1.33081
 20
1.9399900000000001
 30
0.0
 10
-1.41971
 20
1.9374500000000001
 30
0.0
 10
-1.4070100000000001
 20
1.8891900000000001
 30
0.0
 10
-1.4070100000000001
 20
1.8891900000000001
 30
0.0
 10
-1.0158500000000001
 20
1.9450700000000001
 30
0.0
 10
-0.80503
 20
2.26003
 30
0.0
 10
-0.4291100000000001
 20
2.3768700000000003
 30
0.0
 10
-0.4291100000000001
 20
2.3768700000000003
 30
0.0
 10
-0.28941
 20
2.2397100000000001
 30
0.0
 10
-0.53579
 20
1.8688700000000003
 30
0.0
 10
-0.30973
 20
1.8764900000000002
 30
0.0
 10
-0.30973
 20
1.8764900000000002
 30
0.0
 10
-0.09637
 20
3.1160100000000002
 30
0.0
 10
-0.24623
 20
4.5053900000000002
 30
0.0
 10
0.44464
 20
5.6153700000000004
 30
0.0
  0
SPLINE
  5
28
100
AcDbEntity
  8
Ebene 1
100
AcDbSpline
210
0.0
220
0.0
230
1.0
 70
     1
 71
     3
 72
    12
 73
     8
 74
     0
 42
0.0000000001
 43
0.0000000001
 40
0.0
 40
0.0
 40
0.0
 40
0.0
 40
0.5
 40
0.5
 40
0.5
 40
0.5
 40
1.0
 40
1.0
 40
1.0
 40
1.0
 10
0.4675
 20
1.9603100000000002
 30
0.0
 10
0.5056000000000001
 20
1.9399900000000001
 30
0.0
 10
0.5818000000000001
 20
1.8714100000000002
 30
0.0
 10
0.5437000000000001
 20
1.8256900000000003
 30
0.0
 10
0.5437000000000001
 20
1.8256900000000003
 30
0.0
 10
0.4929000000000001
 20
1.8409300000000002
 30
0.0
 10
0.44464
 20
1.9095100000000003
 30
0.0
 10
0.4675
 20
1.9603100000000002
 30
0.0
  0
SPLINE
  5
29
100
AcDbEntity
  8
Ebene 1
100
AcDbSpline
210
0.0
220
0.0
230
1.0
 70
     1
 71
     3
 72
    20
 73
    16
 74
     0
 42
0.0000000001
 43
0.0000000001
 40
0.0
 40
0.0
 40
0.0
 40
0.0
 40
0.25
 40
0.25
 40
0.25
 40
0.25
 40
0.5
 40
0.5
 40
0.5
 40
0.5
 40
0.75
 40
0.75
 40
0.75
 40
0.75
 40
1.0
 40
1.0
 40
1.0
 40
1.0
 10
0.15254
 20
1.6834500000000001
 30
0.0
 10
0.20334
 20
1.6732900000000002
 30
0.0
 10
0.31764
 20
1.6631300000000002
 30
0.0
 10
0.31764
 20
1.5996300000000001
 30
0.0
 10
0.31764
 20
1.5996300000000001
 30
0.0
 10
0.30494
 20
1.5767700000000002
 30
0.0
 10
0.27954
 20
1.5843900000000002
 30
0.0
 10
0.25414
 20
1.5843900000000002
 30
0.0
 10
0.25414
 20
1.5843900000000002
 30
0.0
 10
-0.22083
 20
1.7952100000000002
 30
0.0
 10
-0.67549
 20
1.4497700000000002
 30
0.0
 10
-1.1047500000000001
 20
1.32277
 30
0.0
 10
-1.1047500000000001
 20
1.32277
 30
0.0
 10
-0.9269500000000001
 20
1.5894700000000002
 30
0.0
 10
-0.14463
 20
1.7748900000000001
 30
0.0
 10
0.15254
 20
1.6834500000000001
 30
0.0
  0
SPLINE
  5
2A
100
AcDbEntity
  8
Ebene 1
100
AcDbSpline
210
0.0
220
0.0
230
1.0
 70
     1
 71
     3
 72
    40
 73
    36
 74
     0
 42
0.0000000001
 43
0.0000000001
 40
0.0
 40
0.0
 40
0.0
 40
0.0
 40
0.1111111111111111
 40
0.1111111111111111
 40
0.1111111111111111
 40
0.1111111111111111
 40
0.2222222222222222
 40
0.2222222222222222
 40
0.2222222222222222
 40
0.2222222222222222
 40
0.3333333333333333
 40
0.3333333333333333
 40
0.3333333333333333
 40
0.3333333333333333
 40
0.4444444444444444
 40
0.4444444444444444
 40
0.4444444444444444
 40
0.4444444444444444
 40
0.5555555555555556
 40
0.5555555555555556
 40
0.5555555555555556
 40
0.5555555555555556
 40
0.6666666666666667
 40
0.6666666666666667
 40
0.6666666666666667
 40
0.6666666666666667
 40
0.7777777777777779
 40
0.7777777777777779
 40
0.7777777777777779
 40
0.7777777777777779
 40
0.8888888888888891
 40
0.8888888888888891
 40
0.8888888888888891
 40
0.8888888888888891
 40
1.0
 40
1.0
 40
1.0
 40
1.0
 10
2.1947000000000001
 20
1.23133
 30
0.0
 10
2.1947000000000001
 20
1.23133
 30
0.0
 10
2.7255600000000002
 20
1.1678300000000001
 30
0.0
 10
2.7255600000000002
 20
1.1678300000000001
 30
0.0
 10
2.7255600000000002
 20
1.1678300000000001
 30
0.0
 10
2.2074000000000003
 20
1.1652900000000002
 30
0.0
 10
1.6028800000000001
 20
1.1830700000000001
 30
0.0
 10
1.2244200000000001
 20
0.74873
 30
0.0
 10
1.2244200000000001
 20
0.74873
 30
0.0
 10
1.2117200000000001
 20
0.5633100000000001
 30
0.0
 10
1.18632
 20
0.39313
 30
0.0
 10
1.23712
 20
0.22295
 30
0.0
 10
1.23712
 20
0.22295
 30
0.0
 10
1.2625200000000001
 20
0.16453
 30
0.0
 10
1.23712
 20
0.09849
 30
0.0
 10
1.1736200000000001
 20
0.15945
 30
0.0
 10
1.1736200000000001
 20
0.15945
 30
0.0
 10
1.09996
 20
0.24327
 30
0.0
 10
1.09996
 20
0.36519
 30
0.0
 10
1.09996
 20
0.4744100000000001
 30
0.0
 10
1.09996
 20
0.4744100000000001
 30
0.0
 10
1.09996
 20
0.57347
 30
0.0
 10
1.0745600000000002
 20
0.6699900000000001
 30
0.0
 10
1.06186
 20
0.76397
 30
0.0
 10
1.06186
 20
0.76397
 30
0.0
 10
1.06186
 20
0.76397
 30
0.0
 10
0.9983600000000001
 20
0.9646300000000001
 30
0.0
 10
0.9983600000000001
 20
0.9646300000000001
 30
0.0
 10
0.9983600000000001
 20
0.9646300000000001
 30
0.0
 10
1.0872600000000001
 20
0.9900300000000001
 30
0.0
 10
1.0745600000000002
 20
0.8655700000000001
 30
0.0
 10
1.1253600000000001
 20
0.8401700000000001
 30
0.0
 10
1.1253600000000001
 20
0.8401700000000001
 30
0.0
 10
1.4276200000000001
 20
1.0967100000000001
 30
0.0
 10
1.8289400000000002
 20
1.1805300000000001
 30
0.0
 10
2.1947000000000001
 20
1.23133
 30
0.0
  0
SPLINE
  5
2B
100
AcDbEntity
  8
Ebene 1
100
AcDbSpline
210
0.0
220
0.0
230
1.0
 70
     1
 71
     3
 72
    60
 73
    56
 74
     0
 42
0.0000000001
 43
0.0000000001
 40
0.0
 40
0.0
 40
0.0
 40
0.0
 40
0.0714285714285714
 40
0.0714285714285714
 40
0.0714285714285714
 40
0.0714285714285714
 40
0.1428571428571429
 40
0.1428571428571429
 40
0.1428571428571429
 40
0.1428571428571429
 40
0.2142857142857143
 40
0.2142857142857143
 40
0.2142857142857143
 40
0.2142857142857143
 40
0.2857142857142857
 40
0.2857142857142857
 40
0.2857142857142857
 40
0.2857142857142857
 40
0.3571428571428571
 40
0.3571428571428571
 40
0.3571428571428571
 40
0.3571428571428571
 40
0.4285714285714285
 40
0.4285714285714285
 40
0.4285714285714285
 40
0.4285714285714285
 40
0.4999999999999999
 40
0.4999999999999999
 40
0.4999999999999999
 40
0.4999999999999999
 40
0.5714285714285713
 40
0.5714285714285713
 40
0.5714285714285713
 40
0.5714285714285713
 40
0.6428571428571427
 40
0.6428571428571427
 40
0.6428571428571427
 40
0.6428571428571427
 40
0.7142857142857141
 40
0.7142857142857141
 40
0.7142857142857141
 40
0.7142857142857141
 40
0.7857142857142855
 40
0.7857142857142855
 40
0.7857142857142855
 40
0.7857142857142855
 40
0.8571428571428569
 40
0.8571428571428569
 40
0.8571428571428569
 40
0.8571428571428569
 40
0.9285714285714283
 40
0.9285714285714283
 40
0.9285714285714283
 40
0.9285714285714283
 40
1.0
 40
1.0
 40
1.0
 40
1.0
 10
-0.19797
 20
0.9163700000000001
 30
0.0
 10
-0.19797
 20
0.9163700000000001
 30
0.0
 10
0.07888
 20
0.89097
 30
0.0
 10
0.07888
 20
0.89097
 30
0.0
 10
0.07888
 20
0.89097
 30
0.0
 10
0.15254
 20
0.87319
 30
0.0
 10
0.27954
 20
0.9062100000000001
 30
0.0
 10
0.30494
 20
0.82747
 30
0.0
 10
0.30494
 20
0.82747
 30
0.0
 10
0.04078
 20
0.8173100000000001
 30
0.0
 10
-0.33513
 20
0.9163700000000001
 30
0.0
 10
-0.5865900000000001
 20
0.68015
 30
0.0
 10
-0.5865900000000001
 20
0.68015
 30
0.0
 10
-0.5865900000000001
 20
0.68015
 30
0.0
 10
-0.39863
 20
0.6750700000000001
 30
0.0
 10
-0.39863
 20
0.6750700000000001
 30
0.0
 10
-0.39863
 20
0.6750700000000001
 30
0.0
 10
-0.39863
 20
0.6750700000000001
 30
0.0
 10
-0.18527
 20
0.61665
 30
0.0
 10
-0.18527
 20
0.61665
 30
0.0
 10
-0.18527
 20
0.61665
 30
0.0
 10
-0.07097
 20
0.5861700000000001
 30
0.0
 10
0.04078
 20
0.5683900000000001
 30
0.0
 10
0.13984
 20
0.51251
 30
0.0
 10
0.13984
 20
0.51251
 30
0.0
 10
0.3557400000000001
 20
0.4007500000000001
 30
0.0
 10
0.6072000000000001
 20
0.26613
 30
0.0
 10
0.7596000000000001
 20
0.10103
 30
0.0
 10
0.7596000000000001
 20
0.10103
 30
0.0
 10
0.6072000000000001
 20
0.12897
 30
0.0
 10
0.45734
 20
0.28645
 30
0.0
 10
0.29224
 20
0.16961
 30
0.0
 10
0.29224
 20
0.16961
 30
0.0
 10
0.01538
 20
0.04261
 30
0.0
 10
-0.19797
 20
-0.25964
 30
0.0
 10
-0.5230900000000001
 20
-0.2825
 30
0.0
 10
-0.5230900000000001
 20
-0.2825
 30
0.0
 10
-0.49769
 20
-0.33838
 30
0.0
 10
-0.36053
 20
-0.37648
 30
0.0
 10
-0.39863
 20
-0.44252
 30
0.0
 10
-0.39863
 20
-0.44252
 30
0.0
 10
-0.9015500000000001
 20
-0.07676
 30
0.0
 10
-1.4679700000000002
 20
0.20263
 30
0.0
 10
-2.0953500000000003
 20
0.25089
 30
0.0
 10
-2.0953500000000003
 20
0.25089
 30
0.0
 10
-2.2121900000000001
 20
0.30931
 30
0.0
 10
-2.30871
 20
0.43631
 30
0.0
 10
-2.3341100000000004
 20
0.56077
 30
0.0
 10
-2.3341100000000004
 20
0.56077
 30
0.0
 10
-2.1055100000000002
 20
0.40583
 30
0.0
 10
-1.8083300000000002
 20
0.14421
 30
0.0
 10
-1.4933700000000001
 20
0.38551
 30
0.0
 10
-1.4933700000000001
 20
0.38551
 30
0.0
 10
-1.0666500000000001
 20
0.55569
 30
0.0
 10
-0.6500900000000001
 20
0.8147700000000001
 30
0.0
 10
-0.19797
 20
0.9163700000000001
 30
0.0
  0
SPLINE
  5
2C
100
AcDbEntity
  8
Ebene 1
100
AcDbSpline
210
0.0
220
0.0
230
1.0
 70
     1
 71
     3
 72
    28
 73
    24
 74
     0
 42
0.0000000001
 43
0.0000000001
 40
0.0
 40
0.0
 40
0.0
 40
0.0
 40
0.1666666666666667
 40
0.1666666666666667
 40
0.1666666666666667
 40
0.1666666666666667
 40
0.3333333333333333
 40
0.3333333333333333
 40
0.3333333333333333
 40
0.3333333333333333
 40
0.5
 40
0.5
 40
0.5
 40
0.5
 40
0.6666666666666666
 40
0.6666666666666666
 40
0.6666666666666666
 40
0.6666666666666666
 40
0.8333333333333333
 40
0.8333333333333333
 40
0.8333333333333333
 40
0.8333333333333333
 40
1.0
 40
1.0
 40
1.0
 40
1.0
 10
-2.4763500000000001
 20
0.00959
 30
0.0
 10
-2.3747500000000001
 20
-0.0031
 30
0.0
 10
-2.22743
 20
0.05277
 30
0.0
 10
-2.18425
 20
-0.06152
 30
0.0
 10
-2.18425
 20
-0.06152
 30
0.0
 10
-2.18425
 20
-0.06152
 30
0.0
 10
-2.0242300000000002
 20
-0.16566
 30
0.0
 10
-2.0242300000000002
 20
-0.16566
 30
0.0
 10
-2.0242300000000002
 20
-0.16566
 30
0.0
 10
-1.9962900000000001
 20
-0.1682
 30
0.0
 10
-1.9480300000000002
 20
-0.18852
 30
0.0
 10
-1.9632700000000001
 20
-0.22408
 30
0.0
 10
-1.9632700000000001
 20
-0.22408
 30
0.0
 10
-2.14615
 20
-0.21646
 30
0.0
 10
-2.2782300000000002
 20
-0.0031
 30
0.0
 10
-2.4763500000000001
 20
-0.07676
 30
0.0
 10
-2.4763500000000001
 20
-0.07676
 30
0.0
 10
-2.4763500000000001
 20
-0.07676
 30
0.0
 10
-2.56271
 20
-0.06152
 30
0.0
 10
-2.56271
 20
-0.06152
 30
0.0
 10
-2.56271
 20
-0.06152
 30
0.0
 10
-2.5830300000000004
 20
-0.0031
 30
0.0
 10
-2.4966700000000004
 20
-0.01072
 30
0.0
 10
-2.4763500000000001
 20
0.00959
 30
0.0
  0
SPLINE
  5
2D
100
AcDbEntity
  8
Ebene 1
100
AcDbSpline
210
0.0
220
0.0
230
1.0
 70
     1
 71
     3
 72
    32
 73
    28
 74
     0
 42
0.0000000001
 43
0.0000000001
 40
0.0
 40
0.0
 40
0.0
 40
0.0
 40
0.1428571428571429
 40
0.1428571428571429
 40
0.1428571428571429
 40
0.1428571428571429
 40
0.2857142857142857
 40
0.2857142857142857
 40
0.2857142857142857
 40
0.2857142857142857
 40
0.4285714285714286
 40
0.4285714285714286
 40
0.4285714285714286
 40
0.4285714285714286
 40
0.5714285714285714
 40
0.5714285714285714
 40
0.5714285714285714
 40
0.5714285714285714
 40
0.7142857142857142
 40
0.7142857142857142
 40
0.7142857142857142
 40
0.7142857142857142
 40
0.857142857142857
 40
0.857142857142857
 40
0.857142857142857
 40
0.857142857142857
 40
1.0
 40
1.0
 40
1.0
 40
1.0
 10
1.2117200000000001
 20
-0.11486
 30
0.0
 10
1.27522
 20
-0.11994
 30
0.0
 10
1.2244200000000001
 20
-0.1809
 30
0.0
 10
1.1990200000000002
 20
-0.20376
 30
0.0
 10
1.1990200000000002
 20
-0.20376
 30
0.0
 10
1.2117200000000001
 20
-0.22154
 30
0.0
 10
1.2117200000000001
 20
-0.24186
 30
0.0
 10
1.2117200000000001
 20
-0.26218
 30
0.0
 10
1.2117200000000001
 20
-0.26218
 30
0.0
 10
1.0872600000000001
 20
-0.3841000000000001
 30
0.0
 10
0.7215
 20
-0.55174
 30
0.0
 10
0.9602600000000001
 20
-0.7346200000000001
 30
0.0
 10
0.9602600000000001
 20
-0.7346200000000001
 30
0.0
 10
0.9729600000000001
 20
-0.7473200000000001
 30
0.0
 10
0.9475600000000001
 20
-0.76002
 30
0.0
 10
0.9475600000000001
 20
-0.7676400000000001
 30
0.0
 10
0.9475600000000001
 20
-0.7676400000000001
 30
0.0
 10
0.8586600000000001
 20
-0.76002
 30
0.0
 10
0.785
 20
-0.7066800000000001
 30
0.0
 10
0.7596000000000001
 20
-0.6203200000000001
 30
0.0
 10
0.7596000000000001
 20
-0.6203200000000001
 30
0.0
 10
0.6961000000000001
 20
-0.5822200000000001
 30
0.0
 10
0.658
 20
-0.69652
 30
0.0
 10
0.5945
 20
-0.6406400000000001
 30
0.0
 10
0.5945
 20
-0.6406400000000001
 30
0.0
 10
0.7469
 20
-0.42982
 30
0.0
 10
1.02376
 20
-0.3002800000000001
 30
0.0
 10
1.2117200000000001
 20
-0.11486
 30
0.0
  0
SPLINE
  5
2E
100
AcDbEntity
  8
Ebene 1
100
AcDbSpline
210
0.0
220
0.0
230
1.0
 70
     1
 71
     3
 72
    16
 73
    12
 74
     0
 42
0.0000000001
 43
0.0000000001
 40
0.0
 40
0.0
 40
0.0
 40
0.0
 40
0.3333333333333333
 40
0.3333333333333333
 40
0.3333333333333333
 40
0.3333333333333333
 40
0.6666666666666666
 40
0.6666666666666666
 40
0.6666666666666666
 40
0.6666666666666666
 40
1.0
 40
1.0
 40
1.0
 40
1.0
 10
1.5139800000000001
 20
-0.6812800000000001
 30
0.0
 10
1.7146400000000002
 20
-0.7016000000000001
 30
0.0
 10
1.9559400000000002
 20
-0.6762
 30
0.0
 10
2.1312000000000002
 20
-0.7447800000000001
 30
0.0
 10
2.1312000000000002
 20
-0.7447800000000001
 30
0.0
 10
1.9559400000000002
 20
-0.8616200000000001
 30
0.0
 10
1.7273400000000001
 20
-0.7549400000000001
 30
0.0
 10
1.52668
 20
-0.7676400000000001
 30
0.0
 10
1.52668
 20
-0.7676400000000001
 30
0.0
 10
1.5012800000000002
 20
-0.7473200000000001
 30
0.0
 10
1.48858
 20
-0.7092200000000001
 30
0.0
 10
1.5139800000000001
 20
-0.6812800000000001
 30
0.0
  0
SPLINE
  5
2F
100
AcDbEntity
  8
Ebene 1
100
AcDbSpline
210
0.0
220
0.0
230
1.0
 70
     1
 71
     3
 72
    28
 73
    24
 74
     0
 42
0.0000000001
 43
0.0000000001
 40
0.0
 40
0.0
 40
0.0
 40
0.0
 40
0.1666666666666667
 40
0.1666666666666667
 40
0.1666666666666667
 40
0.1666666666666667
 40
0.3333333333333333
 40
0.3333333333333333
 40
0.3333333333333333
 40
0.3333333333333333
 40
0.5
 40
0.5
 40
0.5
 40
0.5
 40
0.6666666666666666
 40
0.6666666666666666
 40
0.6666666666666666
 40
0.6666666666666666
 40
0.8333333333333333
 40
0.8333333333333333
 40
0.8333333333333333
 40
0.8333333333333333
 40
1.0
 40
1.0
 40
1.0
 40
1.0
 10
-2.0242300000000002
 20
-0.78288
 30
0.0
 10
-1.8845300000000003
 20
-0.7676400000000001
 30
0.0
 10
-2.10297
 20
-0.9632200000000001
 30
0.0
 10
-1.9607300000000001
 20
-0.94798
 30
0.0
 10
-1.9607300000000001
 20
-0.94798
 30
0.0
 10
-1.9607300000000001
 20
-0.94798
 30
0.0
 10
-1.8337300000000001
 20
-0.9810000000000001
 30
0.0
 10
-1.8337300000000001
 20
-0.9810000000000001
 30
0.0
 10
-1.8337300000000001
 20
-0.9810000000000001
 30
0.0
 10
-2.1105900000000002
 20
-1.0470400000000002
 30
0.0
 10
-2.4077700000000002
 20
-1.1308600000000002
 30
0.0
 10
-2.5804900000000002
 20
-1.3823200000000002
 30
0.0
 10
-2.5804900000000002
 20
-1.3823200000000002
 30
0.0
 10
-2.5804900000000002
 20
-1.3823200000000002
 30
0.0
 10
-2.6363700000000003
 20
-1.3823200000000002
 30
0.0
 10
-2.6363700000000003
 20
-1.3823200000000002
 30
0.0
 10
-2.6363700000000003
 20
-1.3823200000000002
 30
0.0
 10
-2.6414500000000003
 20
-1.2985000000000002
 30
0.0
 10
-2.52461
 20
-1.20706
 30
0.0
 10
-2.4534900000000004
 20
-1.1461000000000001
 30
0.0
 10
-2.4534900000000004
 20
-1.1461000000000001
 30
0.0
 10
-2.3010900000000003
 20
-1.0445
 30
0.0
 10
-2.0851900000000003
 20
-0.9810000000000001
 30
0.0
 10
-2.0242300000000002
 20
-0.78288
 30
0.0
  0
SPLINE
  5
30
100
AcDbEntity
  8
Ebene 1
100
AcDbSpline
210
0.0
220
0.0
230
1.0
 70
     1
 71
     3
 72
    20
 73
    16
 74
     0
 42
0.0000000001
 43
0.0000000001
 40
0.0
 40
0.0
 40
0.0
 40
0.0
 40
0.25
 40
0.25
 40
0.25
 40
0.25
 40
0.5
 40
0.5
 40
0.5
 40
0.5
 40
0.75
 40
0.75
 40
0.75
 40
0.75
 40
1.0
 40
1.0
 40
1.0
 40
1.0
 10
-1.4070100000000001
 20
-1.1994400000000001
 30
0.0
 10
-1.4070100000000001
 20
-1.1994400000000001
 30
0.0
 10
-1.3435100000000002
 20
-1.20198
 30
0.0
 10
-1.3435100000000002
 20
-1.20198
 30
0.0
 10
-1.3435100000000002
 20
-1.20198
 30
0.0
 10
-1.3943100000000002
 20
-1.3569200000000001
 30
0.0
 10
-1.41971
 20
-1.5220200000000002
 30
0.0
 10
-1.4324100000000002
 20
-1.6871200000000002
 30
0.0
 10
-1.4324100000000002
 20
-1.6871200000000002
 30
0.0
 10
-1.4578100000000001
 20
-1.6210800000000001
 30
0.0
 10
-1.4806700000000002
 20
-1.5017
 30
0.0
 10
-1.4578100000000001
 20
-1.4128000000000001
 30
0.0
 10
-1.4578100000000001
 20
-1.4128000000000001
 30
0.0
 10
-1.50607
 20
-1.3416800000000002
 30
0.0
 10
-1.4451100000000001
 20
-1.2629400000000002
 30
0.0
 10
-1.4070100000000001
 20
-1.1994400000000001
 30
0.0
  0
SPLINE
  5
31
100
AcDbEntity
  8
Ebene 1
 62
     7
100
AcDbSpline
210
0.0
220
0.0
230
1.0
 70
     1
 71
     3
 72
   160
 73
   156
 74
     0
 42
0.0000000001
 43
0.0000000001
 40
0.0
 40
0.0
 40
0.0
 40
0.0
 40
0.0256410256410256
 40
0.0256410256410256
 40
0.0256410256410256
 40
0.0256410256410256
 40
0.0512820512820513
 40
0.0512820512820513
 40
0.0512820512820513
 40
0.0512820512820513
 40
0.0769230769230769
 40
0.0769230769230769
 40
0.0769230769230769
 40
0.0769230769230769
 40
0.1025641025641026
 40
0.1025641025641026
 40
0.1025641025641026
 40
0.1025641025641026
 40
0.1282051282051282
 40
0.1282051282051282
 40
0.1282051282051282
 40
0.1282051282051282
 40
0.1538461538461538
 40
0.1538461538461538
 40
0.1538461538461538
 40
0.1538461538461538
 40
0.1794871794871795
 40
0.1794871794871795
 40
0.1794871794871795
 40
0.1794871794871795
 40
0.2051282051282051
 40
0.2051282051282051
 40
0.2051282051282051
 40
0.2051282051282051
 40
0.2307692307692307
 40
0.2307692307692307
 40
0.2307692307692307
 40
0.2307692307692307
 40
0.2564102564102564
 40
0.2564102564102564
 40
0.2564102564102564
 40
0.2564102564102564
 40
0.2820512820512821
 40
0.2820512820512821
 40
0.2820512820512821
 40
0.2820512820512821
 40
0.3076923076923077
 40
0.3076923076923077
 40
0.3076923076923077
 40
0.3076923076923077
 40
0.3333333333333334
 40
0.3333333333333334
 40
0.3333333333333334
 40
0.3333333333333334
 40
0.358974358974359
 40
0.358974358974359
 40
0.358974358974359
 40
0.358974358974359
 40
0.3846153846153847
 40
0.3846153846153847
 40
0.3846153846153847
 40
0.3846153846153847
 40
0.4102564102564104
 40
0.4102564102564104
 40
0.4102564102564104
 40
0.4102564102564104
 40
0.435897435897436
 40
0.435897435897436
 40
0.435897435897436
 40
0.435897435897436
 40
0.4615384615384617
 40
0.4615384615384617
 40
0.4615384615384617
 40
0.4615384615384617
 40
0.4871794871794873
 40
0.4871794871794873
 40
0.4871794871794873
 40
0.4871794871794873
 40
0.512820512820513
 40
0.512820512820513
 40
0.512820512820513
 40
0.512820512820513
 40
0.5384615384615387
 40
0.5384615384615387
 40
0.5384615384615387
 40
0.5384615384615387
 40
0.5641025641025643
 40
0.5641025641025643
 40
0.5641025641025643
 40
0.5641025641025643
 40
0.58974358974359
 40
0.58974358974359
 40
0.58974358974359
 40
0.58974358974359
 40
0.6153846153846156
 40
0.6153846153846156
 40
0.6153846153846156
 40
0.6153846153846156
 40
0.6410256410256413
 40
0.6410256410256413
 40
0.6410256410256413
 40
0.6410256410256413
 40
0.666666666666667
 40
0.666666666666667
 40
0.666666666666667
 40
0.666666666666667
 40
0.6923076923076926
 40
0.6923076923076926
 40
0.6923076923076926
 40
0.6923076923076926
 40
0.7179487179487183
 40
0.7179487179487183
 40
0.7179487179487183
 40
0.7179487179487183
 40
0.743589743589744
 40
0.743589743589744
 40
0.743589743589744
 40
0.743589743589744
 40
0.7692307692307696
 40
0.7692307692307696
 40
0.7692307692307696
 40
0.7692307692307696
 40
0.7948717948717953
 40
0.7948717948717953
 40
0.7948717948717953
 40
0.7948717948717953
 40
0.8205128205128209
 40
0.8205128205128209
 40
0.8205128205128209
 40
0.8205128205128209
 40
0.8461538461538466
 40
0.8461538461538466
 40
0.8461538461538466
 40
0.8461538461538466
 40
0.8717948717948723
 40
0.8717948717948723
 40
0.8717948717948723
 40
0.8717948717948723
 40
0.8974358974358979
 40
0.8974358974358979
 40
0.8974358974358979
 40
0.8974358974358979
 40
0.9230769230769236
 40
0.9230769230769236
 40
0.9230769230769236
 40
0.9230769230769236
 40
0.9487179487179492
 40
0.9487179487179492
 40
0.9487179487179492
 40
0.9487179487179492
 40
0.9743589743589749
 40
0.9743589743589749
 40
0.9743589743589749
 40
0.9743589743589749
 40
1.0
 40
1.0
 40
1.0
 40
1.0
 10
0.39384
 20
-1.3874000000000002
 30
0.0
 10
0.6707000000000001
 20
-1.4534400000000001
 30
0.0
 10
1.11266
 20
-1.3239000000000001
 30
0.0
 10
1.1609200000000002
 20
-1.6769600000000002
 30
0.0
 10
1.1609200000000002
 20
-1.6769600000000002
 30
0.0
 10
1.1609200000000002
 20
-1.6769600000000002
 30
0.0
 10
1.1609200000000002
 20
-1.7988800000000003
 30
0.0
 10
1.1609200000000002
 20
-1.7988800000000003
 30
0.0
 10
1.1609200000000002
 20
-1.7988800000000003
 30
0.0
 10
0.6072000000000001
 20
-2.1265400000000003
 30
0.0
 10
0.3684400000000001
 20
-2.7640800000000003
 30
0.0
 10
0.22874
 20
-3.3406600000000002
 30
0.0
 10
0.22874
 20
-3.3406600000000002
 30
0.0
 10
0.39384
 20
-3.3101800000000003
 30
0.0
 10
0.3557400000000001
 20
-2.9393400000000001
 30
0.0
 10
0.5056000000000001
 20
-2.8275800000000002
 30
0.0
 10
0.5056000000000001
 20
-2.8275800000000002
 30
0.0
 10
0.5056000000000001
 20
-2.8275800000000002
 30
0.0
 10
0.3684400000000001
 20
-3.9426400000000004
 30
0.0
 10
0.3684400000000001
 20
-3.9426400000000004
 30
0.0
 10
0.3684400000000001
 20
-3.9426400000000004
 30
0.0
 10
-0.08367
 20
-4.3896800000000002
 30
0.0
 10
-0.7262900000000001
 20
-4.6309800000000001
 30
0.0
 10
-1.12761
 20
-5.1008800000000001
 30
0.0
 10
-1.12761
 20
-5.1008800000000001
 30
0.0
 10
-1.04125
 20
-5.1059600000000005
 30
0.0
 10
-0.9904500000000001
 20
-4.9789600000000007
 30
0.0
 10
-0.9015500000000001
 20
-4.9662600000000001
 30
0.0
 10
-0.9015500000000001
 20
-4.9662600000000001
 30
0.0
 10
-0.7770900000000001
 20
-4.8900600000000001
 30
0.0
 10
-0.8507500000000001
 20
-5.1313600000000008
 30
0.0
 10
-0.9142500000000001
 20
-5.1770800000000001
 30
0.0
 10
-0.9142500000000001
 20
-5.1770800000000001
 30
0.0
 10
-1.5822700000000001
 20
-5.4691800000000006
 30
0.0
 10
-2.1359900000000001
 20
-5.9695600000000004
 30
0.0
 10
-2.7532100000000002
 20
-6.3277000000000001
 30
0.0
 10
-2.7532100000000002
 20
-6.3277000000000001
 30
0.0
 10
-3.0097500000000004
 20
-6.3785000000000007
 30
0.0
 10
-3.3551900000000003
 20
-6.0229000000000008
 30
0.0
 10
-3.4796500000000004
 20
-6.2362600000000006
 30
0.0
 10
-3.4796500000000004
 20
-6.2362600000000006
 30
0.0
 10
-3.4999700000000002
 20
-6.1803800000000004
 30
0.0
 10
-3.4263100000000004
 20
-6.0610000000000008
 30
0.0
 10
-3.4263100000000004
 20
-5.9594000000000005
 30
0.0
 10
-3.4263100000000004
 20
-5.9594000000000005
 30
0.0
 10
-3.4237700000000002
 20
-5.6520600000000005
 30
0.0
 10
-3.4186900000000002
 20
-5.2939200000000008
 30
0.0
 10
-3.3120100000000003
 20
-5.6292000000000009
 30
0.0
 10
-3.3120100000000003
 20
-5.6292000000000009
 30
0.0
 10
-3.2688300000000003
 20
-5.5580800000000004
 30
0.0
 10
-3.3374100000000002
 20
-5.4564800000000009
 30
0.0
 10
-3.2739100000000003
 20
-5.3980600000000001
 30
0.0
 10
-3.2739100000000003
 20
-5.3980600000000001
 30
0.0
 10
-3.2078700000000002
 20
-5.8120800000000008
 30
0.0
 10
-3.0224500000000001
 20
-5.2050200000000002
 30
0.0
 10
-2.9691100000000001
 20
-5.4564800000000009
 30
0.0
 10
-2.9691100000000001
 20
-5.4564800000000009
 30
0.0
 10
-2.9868900000000003
 20
-5.5199800000000003
 30
0.0
 10
-3.0300700000000003
 20
-5.5834800000000007
 30
0.0
 10
-3.0199100000000003
 20
-5.6469800000000001
 30
0.0
 10
-3.0199100000000003
 20
-5.6469800000000001
 30
0.0
 10
-3.0376900000000004
 20
-5.6901600000000006
 30
0.0
 10
-2.9818100000000003
 20
-5.7358800000000008
 30
0.0
 10
-2.9818100000000003
 20
-5.7841400000000007
 30
0.0
 10
-2.9818100000000003
 20
-5.7841400000000007
 30
0.0
 10
-2.9284700000000004
 20
-6.1321200000000005
 30
0.0
 10
-2.9741900000000001
 20
-5.0678600000000005
 30
0.0
 10
-2.81671
 20
-5.4437800000000003
 30
0.0
 10
-2.81671
 20
-5.4437800000000003
 30
0.0
 10
-2.7074900000000004
 20
-5.5453800000000006
 30
0.0
 10
-2.7582900000000001
 20
-5.3625000000000007
 30
0.0
 10
-2.8141700000000003
 20
-5.3142400000000007
 30
0.0
 10
-2.8141700000000003
 20
-5.3142400000000007
 30
0.0
 10
-2.98943
 20
-5.1516800000000007
 30
0.0
 10
-2.8852900000000004
 20
-4.6157400000000006
 30
0.0
 10
-2.7532100000000002
 20
-5.0805600000000002
 30
0.0
 10
-2.7532100000000002
 20
-5.0805600000000002
 30
0.0
 10
-2.5982700000000003
 20
-5.2913800000000002
 30
0.0
 10
-2.7151100000000001
 20
-5.5453800000000006
 30
0.0
 10
-2.6871700000000001
 20
-5.7816000000000001
 30
0.0
 10
-2.6871700000000001
 20
-5.7816000000000001
 30
0.0
 10
-2.6871700000000001
 20
-5.7816000000000001
 30
0.0
 10
-2.5982700000000003
 20
-5.4361600000000001
 30
0.0
 10
-2.5982700000000003
 20
-5.4361600000000001
 30
0.0
 10
-2.5982700000000003
 20
-5.4361600000000001
 30
0.0
 10
-2.5068300000000003
 20
-5.4717200000000004
 30
0.0
 10
-2.3925300000000003
 20
-5.5784000000000002
 30
0.0
 10
-2.3290300000000004
 20
-5.4488600000000007
 30
0.0
 10
-2.3290300000000004
 20
-5.4488600000000007
 30
0.0
 10
-2.30871
 20
-5.5377600000000005
 30
0.0
 10
-2.4585700000000004
 20
-5.7358800000000008
 30
0.0
 10
-2.35189
 20
-5.7435
 30
0.0
 10
-2.35189
 20
-5.7435
 30
0.0
 10
-2.2782300000000002
 20
-5.5301400000000003
 30
0.0
 10
-2.18933
 20
-4.9459400000000002
 30
0.0
 10
-2.1359900000000001
 20
-5.4717200000000004
 30
0.0
 10
-2.1359900000000001
 20
-5.4717200000000004
 30
0.0
 10
-2.10297
 20
-5.4742600000000001
 30
0.0
 10
-2.09789
 20
-5.3269400000000005
 30
0.0
 10
-2.0623300000000002
 20
-5.2634400000000001
 30
0.0
 10
-2.0623300000000002
 20
-5.2634400000000001
 30
0.0
 10
-2.0013700000000001
 20
-5.1593
 30
0.0
 10
-1.9175500000000001
 20
-5.1389800000000001
 30
0.0
 10
-1.9480300000000002
 20
-5.3574200000000003
 30
0.0
 10
-1.9480300000000002
 20
-5.3574200000000003
 30
0.0
 10
-1.8718300000000001
 20
-5.2075600000000009
 30
0.0
 10
-1.8210300000000001
 20
-5.0272200000000007
 30
0.0
 10
-1.79817
 20
-4.8545000000000007
 30
0.0
 10
-1.79817
 20
-4.8545000000000007
 30
0.0
 10
-1.7219700000000002
 20
-4.8875200000000003
 30
0.0
 10
-1.6457700000000002
 20
-4.8519600000000001
 30
0.0
 10
-1.5695700000000001
 20
-4.8291000000000004
 30
0.0
 10
-1.5695700000000001
 20
-4.8291000000000004
 30
0.0
 10
-1.5695700000000001
 20
-4.9459400000000002
 30
0.0
 10
-1.6584700000000001
 20
-5.1034200000000007
 30
0.0
 10
-1.6076700000000002
 20
-5.1897800000000007
 30
0.0
 10
-1.6076700000000002
 20
-5.1897800000000007
 30
0.0
 10
-1.54417
 20
-5.03484
 30
0.0
 10
-1.4933700000000001
 20
-4.8570400000000005
 30
0.0
 10
-1.4933700000000001
 20
-4.6919400000000007
 30
0.0
 10
-1.4933700000000001
 20
-4.6919400000000007
 30
0.0
 10
-1.2673100000000002
 20
-4.7960800000000008
 30
0.0
 10
-1.29271
 20
-4.4582600000000001
 30
0.0
 10
-1.12761
 20
-4.5014400000000006
 30
0.0
 10
-1.12761
 20
-4.5014400000000006
 30
0.0
 10
-1.1174500000000001
 20
-4.5928800000000001
 30
0.0
 10
-1.20381
 20
-4.6970200000000002
 30
0.0
 10
-1.1403100000000002
 20
-4.7732200000000002
 30
0.0
 10
-1.1403100000000002
 20
-4.7732200000000002
 30
0.0
 10
-1.0158500000000001
 20
-4.6665400000000004
 30
0.0
 10
-1.1403100000000002
 20
-4.4100000000000001
 30
0.0
 10
-0.9777500000000001
 20
-4.3642799999999999
 30
0.0
 10
-0.9777500000000001
 20
-4.3642799999999999
 30
0.0
 10
-0.9396500000000001
 20
-4.47858
 30
0.0
 10
-1.04125
 20
-4.6309800000000001
 30
0.0
 10
-0.9777500000000001
 20
-4.7097200000000008
 30
0.0
 10
-0.9777500000000001
 20
-4.7097200000000008
 30
0.0
 10
-0.75931
 20
-3.9451800000000001
 30
0.0
 10
0.02046
 20
-3.4956000000000005
 30
0.0
 10
-0.17257
 20
-2.64724
 30
0.0
 10
-0.17257
 20
-2.64724
 30
0.0
 10
-0.23353
 20
-2.3043400000000003
 30
0.0
 10
-0.37323
 20
-1.9843000000000002
 30
0.0
 10
-0.47229
 20
-1.6541000000000001
 30
0.0
 10
-0.47229
 20
-1.6541000000000001
 30
0.0
 10
-0.37323
 20
-1.5906000000000002
 30
0.0
 10
-0.25893
 20
-1.5575800000000002
 30
0.0
 10
-0.14717
 20
-1.54234
 30
0.0
 10
-0.14717
 20
-1.54234
 30
0.0
 10
-0.09637
 20
-1.7861800000000001
 30
0.0
 10
-0.15987
 20
-2.2332200000000002
 30
0.0
 10
0.10428
 20
-2.30688
 30
0.0
 10
0.10428
 20
-2.30688
 30
0.0
 10
0.34304
 20
-2.0655800000000002
 30
0.0
 10
0.19064
 20
-1.6591800000000001
 30
0.0
 10
0.39384
 20
-1.3874000000000002
 30
0.0
  0
SPLINE
  5
32
100
AcDbEntity
  8
Ebene 1
 62
     7
100
AcDbSpline
210
0.0
220
0.0
230
1.0
 70
     1
 71
     3
 72
    12
 73
     8
 74
     0
 42
0.0000000001
 43
0.0000000001
 40
0.0
 40
0.0
 40
0.0
 40
0.0
 40
0.5
 40
0.5
 40
0.5
 40
0.5
 40
1.0
 40
1.0
 40
1.0
 40
1.0
 10
-3.5863300000000002
 20
-1.4001000000000001
 30
0.0
 10
-3.5507700000000004
 20
-1.4890000000000001
 30
0.0
 10
-3.6650700000000005
 20
-1.58806
 30
0.0
 10
-3.6955500000000003
 20
-1.6617200000000001
 30
0.0
 10
-3.6955500000000003
 20
-1.6617200000000001
 30
0.0
 10
-3.7158700000000002
 20
-1.5575800000000002
 30
0.0
 10
-3.6295100000000002
 20
-1.4813800000000001
 30
0.0
 10
-3.5863300000000002
 20
-1.4001000000000001
 30
0.0
  0
SPLINE
  5
33
100
AcDbEntity
  8
Ebene 1
 62
     7
100
AcDbSpline
210
0.0
220
0.0
230
1.0
 70
     1
 71
     3
 72
    20
 73
    16
 74
     0
 42
0.0000000001
 43
0.0000000001
 40
0.0
 40
0.0
 40
0.0
 40
0.0
 40
0.25
 40
0.25
 40
0.25
 40
0.25
 40
0.5
 40
0.5
 40
0.5
 40
0.5
 40
0.75
 40
0.75
 40
0.75
 40
0.75
 40
1.0
 40
1.0
 40
1.0
 40
1.0
 10
-3.1951700000000001
 20
-1.6388600000000002
 30
0.0
 10
-3.1951700000000001
 20
-1.6388600000000002
 30
0.0
 10
-3.1342100000000004
 20
-1.6414000000000002
 30
0.0
 10
-3.1342100000000004
 20
-1.6414000000000002
 30
0.0
 10
-3.1342100000000004
 20
-1.6414000000000002
 30
0.0
 10
-3.1342100000000004
 20
-1.6414000000000002
 30
0.0
 10
-3.0554700000000001
 20
-1.7658600000000002
 30
0.0
 10
-3.0554700000000001
 20
-1.7658600000000002
 30
0.0
 10
-3.0554700000000001
 20
-1.7658600000000002
 30
0.0
 10
-3.0986500000000001
 20
-2.0503400000000003
 30
0.0
 10
-3.3577300000000001
 20
-2.2560800000000003
 30
0.0
 10
-3.5558500000000004
 20
-2.4288000000000003
 30
0.0
 10
-3.5558500000000004
 20
-2.4288000000000003
 30
0.0
 10
-3.5279100000000003
 20
-2.14432
 30
0.0
 10
-3.4136100000000003
 20
-1.8420600000000003
 30
0.0
 10
-3.1951700000000001
 20
-1.6388600000000002
 30
0.0
  0
SPLINE
  5
34
100
AcDbEntity
  8
Ebene 1
 62
     7
100
AcDbSpline
210
0.0
220
0.0
230
1.0
 70
     1
 71
     3
 72
    16
 73
    12
 74
     0
 42
0.0000000001
 43
0.0000000001
 40
0.0
 40
0.0
 40
0.0
 40
0.0
 40
0.3333333333333333
 40
0.3333333333333333
 40
0.3333333333333333
 40
0.3333333333333333
 40
0.6666666666666666
 40
0.6666666666666666
 40
0.6666666666666666
 40
0.6666666666666666
 40
1.0
 40
1.0
 40
1.0
 40
1.0
 10
-3.5609300000000004
 20
-1.6515600000000001
 30
0.0
 10
-3.5609300000000004
 20
-1.6515600000000001
 30
0.0
 10
-3.4466300000000003
 20
-1.7658600000000002
 30
0.0
 10
-3.4466300000000003
 20
-1.7658600000000002
 30
0.0
 10
-3.4466300000000003
 20
-1.7658600000000002
 30
0.0
 10
-3.5583900000000002
 20
-2.0655800000000002
 30
0.0
 10
-3.8225500000000001
 20
-2.3195800000000002
 30
0.0
 10
-4.0740100000000004
 20
-2.5050000000000003
 30
0.0
 10
-4.0740100000000004
 20
-2.5050000000000003
 30
0.0
 10
-3.9063700000000003
 20
-2.2256
 30
0.0
 10
-3.8098500000000004
 20
-1.8623800000000001
 30
0.0
 10
-3.5609300000000004
 20
-1.6515600000000001
 30
0.0
  0
SPLINE
  5
35
100
AcDbEntity
  8
Ebene 1
 62
     7
100
AcDbSpline
210
0.0
220
0.0
230
1.0
 70
     1
 71
     3
 72
    16
 73
    12
 74
     0
 42
0.0000000001
 43
0.0000000001
 40
0.0
 40
0.0
 40
0.0
 40
0.0
 40
0.3333333333333333
 40
0.3333333333333333
 40
0.3333333333333333
 40
0.3333333333333333
 40
0.6666666666666666
 40
0.6666666666666666
 40
0.6666666666666666
 40
0.6666666666666666
 40
1.0
 40
1.0
 40
1.0
 40
1.0
 10
-3.7996900000000005
 20
-1.7023600000000001
 30
0.0
 10
-3.7615900000000004
 20
-1.6947400000000001
 30
0.0
 10
-3.7793700000000001
 20
-1.7455400000000001
 30
0.0
 10
-3.7742900000000001
 20
-1.7658600000000002
 30
0.0
 10
-3.7742900000000001
 20
-1.7658600000000002
 30
0.0
 10
-3.8784300000000003
 20
-1.9131800000000001
 30
0.0
 10
-4.0079700000000003
 20
-2.0478000000000001
 30
0.0
 10
-4.1603700000000003
 20
-2.1265400000000003
 30
0.0
 10
-4.1603700000000003
 20
-2.1265400000000003
 30
0.0
 10
-4.0917900000000005
 20
-1.9614400000000001
 30
0.0
 10
-3.9063700000000003
 20
-1.8573000000000002
 30
0.0
 10
-3.7996900000000005
 20
-1.7023600000000001
 30
0.0
  0
SPLINE
  5
36
100
AcDbEntity
  8
Ebene 1
 62
     7
100
AcDbSpline
210
0.0
220
0.0
230
1.0
 70
     1
 71
     3
 72
    20
 73
    16
 74
     0
 42
0.0000000001
 43
0.0000000001
 40
0.0
 40
0.0
 40
0.0
 40
0.0
 40
0.25
 40
0.25
 40
0.25
 40
0.25
 40
0.5
 40
0.5
 40
0.5
 40
0.5
 40
0.75
 40
0.75
 40
0.75
 40
0.75
 40
1.0
 40
1.0
 40
1.0
 40
1.0
 10
-2.8675100000000002
 20
-1.7785600000000001
 30
0.0
 10
-2.82179
 20
-1.7811000000000001
 30
0.0
 10
-2.7862300000000002
 20
-1.8090400000000002
 30
0.0
 10
-2.7557500000000004
 20
-1.8446000000000002
 30
0.0
 10
-2.7557500000000004
 20
-1.8446000000000002
 30
0.0
 10
-2.7557500000000004
 20
-1.8446000000000002
 30
0.0
 10
-2.7532100000000002
 20
-1.9157200000000001
 30
0.0
 10
-2.7532100000000002
 20
-1.9157200000000001
 30
0.0
 10
-2.7532100000000002
 20
-1.9157200000000001
 30
0.0
 10
-2.8903700000000003
 20
-2.1646400000000003
 30
0.0
 10
-2.8802100000000004
 20
-2.5100800000000003
 30
0.0
 10
-3.1037300000000001
 20
-2.6955
 30
0.0
 10
-3.1037300000000001
 20
-2.6955
 30
0.0
 10
-3.1037300000000001
 20
-2.6955
 30
0.0
 10
-2.8675100000000002
 20
-1.7785600000000001
 30
0.0
 10
-2.8675100000000002
 20
-1.7785600000000001
 30
0.0
  0
SPLINE
  5
37
100
AcDbEntity
  8
Ebene 1
 62
     7
100
AcDbSpline
210
0.0
220
0.0
230
1.0
 70
     1
 71
     3
 72
    12
 73
     8
 74
     0
 42
0.0000000001
 43
0.0000000001
 40
0.0
 40
0.0
 40
0.0
 40
0.0
 40
0.5
 40
0.5
 40
0.5
 40
0.5
 40
1.0
 40
1.0
 40
1.0
 40
1.0
 10
-2.5017500000000004
 20
-1.92334
 30
0.0
 10
-2.1639300000000001
 20
-1.9335000000000002
 30
0.0
 10
-2.3214100000000002
 20
-2.2967200000000001
 30
0.0
 10
-2.5119100000000003
 20
-2.39324
 30
0.0
 10
-2.5119100000000003
 20
-2.39324
 30
0.0
 10
-2.5500100000000003
 20
-2.2560800000000003
 30
0.0
 10
-2.6008100000000001
 20
-2.0503400000000003
 30
0.0
 10
-2.5017500000000004
 20
-1.92334
 30
0.0
  0
SPLINE
  5
38
100
AcDbEntity
  8
Ebene 1
 62
     7
100
AcDbSpline
210
0.0
220
0.0
230
1.0
 70
     1
 71
     3
 72
    12
 73
     8
 74
     0
 42
0.0000000001
 43
0.0000000001
 40
0.0
 40
0.0
 40
0.0
 40
0.0
 40
0.5
 40
0.5
 40
0.5
 40
0.5
 40
1.0
 40
1.0
 40
1.0
 40
1.0
 10
-2.1613900000000004
 20
-1.9792200000000002
 30
0.0
 10
-1.9658100000000001
 20
-1.9589000000000001
 30
0.0
 10
-1.8083300000000002
 20
-2.2078200000000003
 30
0.0
 10
-1.9632700000000001
 20
-2.35514
 30
0.0
 10
-1.9632700000000001
 20
-2.35514
 30
0.0
 10
-2.0318500000000004
 20
-2.2383000000000002
 30
0.0
 10
-2.1867900000000002
 20
-2.13924
 30
0.0
 10
-2.1613900000000004
 20
-1.9792200000000002
 30
0.0
  0
SPLINE
  5
39
100
AcDbEntity
  8
Ebene 1
 62
     7
100
AcDbSpline
210
0.0
220
0.0
230
1.0
 70
     1
 71
     3
 72
    12
 73
     8
 74
     0
 42
0.0000000001
 43
0.0000000001
 40
0.0
 40
0.0
 40
0.0
 40
0.0
 40
0.5
 40
0.5
 40
0.5
 40
0.5
 40
1.0
 40
1.0
 40
1.0
 40
1.0
 10
-1.6965700000000001
 20
-2.0300200000000004
 30
0.0
 10
-1.4324100000000002
 20
-2.0122400000000003
 30
0.0
 10
-1.3562100000000001
 20
-2.35006
 30
0.0
 10
-1.4679700000000002
 20
-2.5354800000000002
 30
0.0
 10
-1.4679700000000002
 20
-2.5354800000000002
 30
0.0
 10
-1.5568700000000002
 20
-2.3830800000000001
 30
0.0
 10
-1.8972300000000002
 20
-2.19258
 30
0.0
 10
-1.6965700000000001
 20
-2.0300200000000004
 30
0.0
  0
SPLINE
  5
3A
100
AcDbEntity
  8
Ebene 1
 62
     7
100
AcDbSpline
210
0.0
220
0.0
230
1.0
 70
     1
 71
     3
 72
    16
 73
    12
 74
     0
 42
0.0000000001
 43
0.0000000001
 40
0.0
 40
0.0
 40
0.0
 40
0.0
 40
0.3333333333333333
 40
0.3333333333333333
 40
0.3333333333333333
 40
0.3333333333333333
 40
0.6666666666666666
 40
0.6666666666666666
 40
0.6666666666666666
 40
0.6666666666666666
 40
1.0
 40
1.0
 40
1.0
 40
1.0
 10
-3.9749500000000002
 20
-2.0808200000000001
 30
0.0
 10
-3.9673300000000005
 20
-2.0808200000000001
 30
0.0
 10
-3.9495500000000003
 20
-2.0782800000000003
 30
0.0
 10
-3.9520900000000001
 20
-2.0935200000000003
 30
0.0
 10
-3.9520900000000001
 20
-2.0935200000000003
 30
0.0
 10
-4.0384500000000001
 20
-2.2002000000000002
 30
0.0
 10
-4.0409900000000007
 20
-2.39324
 30
0.0
 10
-4.1857700000000007
 20
-2.4415
 30
0.0
 10
-4.1857700000000007
 20
-2.4415
 30
0.0
 10
-4.1857700000000007
 20
-2.4415
 30
0.0
 10
-3.9749500000000002
 20
-2.0808200000000001
 30
0.0
 10
-3.9749500000000002
 20
-2.0808200000000001
 30
0.0
  0
SPLINE
  5
3B
100
AcDbEntity
  8
Ebene 1
 62
     7
100
AcDbSpline
210
0.0
220
0.0
230
1.0
 70
     1
 71
     3
 72
    12
 73
     8
 74
     0
 42
0.0000000001
 43
0.0000000001
 40
0.0
 40
0.0
 40
0.0
 40
0.0
 40
0.5
 40
0.5
 40
0.5
 40
0.5
 40
1.0
 40
1.0
 40
1.0
 40
1.0
 10
-1.2800100000000001
 20
-2.0808200000000001
 30
0.0
 10
-1.16571
 20
-2.0655800000000002
 30
0.0
 10
-1.1174500000000001
 20
-2.1875
 30
0.0
 10
-1.1047500000000001
 20
-2.27894
 30
0.0
 10
-1.1047500000000001
 20
-2.27894
 30
0.0
 10
-1.16571
 20
-2.2383000000000002
 30
0.0
 10
-1.3943100000000002
 20
-2.1722600000000001
 30
0.0
 10
-1.2800100000000001
 20
-2.0808200000000001
 30
0.0
  0
SPLINE
  5
3C
100
AcDbEntity
  8
Ebene 1
 62
     7
100
AcDbSpline
210
0.0
220
0.0
230
1.0
 70
     1
 71
     3
 72
    16
 73
    12
 74
     0
 42
0.0000000001
 43
0.0000000001
 40
0.0
 40
0.0
 40
0.0
 40
0.0
 40
0.3333333333333333
 40
0.3333333333333333
 40
0.3333333333333333
 40
0.3333333333333333
 40
0.6666666666666666
 40
0.6666666666666666
 40
0.6666666666666666
 40
0.6666666666666666
 40
1.0
 40
1.0
 40
1.0
 40
1.0
 10
-1.5949700000000002
 20
-2.5100800000000003
 30
0.0
 10
-1.5187700000000002
 20
-2.5481800000000003
 30
0.0
 10
-1.5187700000000002
 20
-2.6878800000000003
 30
0.0
 10
-1.4070100000000001
 20
-2.6624800000000004
 30
0.0
 10
-1.4070100000000001
 20
-2.6624800000000004
 30
0.0
 10
-1.41971
 20
-2.7463000000000002
 30
0.0
 10
-1.50607
 20
-2.8352000000000004
 30
0.0
 10
-1.5949700000000002
 20
-2.8326600000000002
 30
0.0
 10
-1.5949700000000002
 20
-2.8326600000000002
 30
0.0
 10
-1.5949700000000002
 20
-2.8326600000000002
 30
0.0
 10
-1.5949700000000002
 20
-2.5100800000000003
 30
0.0
 10
-1.5949700000000002
 20
-2.5100800000000003
 30
0.0
  0
SPLINE
  5
3D
100
AcDbEntity
  8
Ebene 1
 62
     7
100
AcDbSpline
210
0.0
220
0.0
230
1.0
 70
     1
 71
     3
 72
    12
 73
     8
 74
     0
 42
0.0000000001
 43
0.0000000001
 40
0.0
 40
0.0
 40
0.0
 40
0.0
 40
0.5
 40
0.5
 40
0.5
 40
0.5
 40
1.0
 40
1.0
 40
1.0
 40
1.0
 10
-1.8616700000000002
 20
-3.0688800000000001
 30
0.0
 10
-1.9835900000000002
 20
-2.9977600000000004
 30
0.0
 10
-1.9632700000000001
 20
-2.8809200000000001
 30
0.0
 10
-1.9810500000000002
 20
-2.7894800000000002
 30
0.0
 10
-1.9810500000000002
 20
-2.7894800000000002
 30
0.0
 10
-1.9327900000000002
 20
-2.8758400000000002
 30
0.0
 10
-1.8794500000000001
 20
-2.9723600000000001
 30
0.0
 10
-1.8616700000000002
 20
-3.0688800000000001
 30
0.0
  0
SPLINE
  5
3E
100
AcDbEntity
  8
Ebene 1
 62
     7
100
AcDbSpline
210
0.0
220
0.0
230
1.0
 70
     1
 71
     3
 72
    12
 73
     8
 74
     0
 42
0.0000000001
 43
0.0000000001
 40
0.0
 40
0.0
 40
0.0
 40
0.0
 40
0.5
 40
0.5
 40
0.5
 40
0.5
 40
1.0
 40
1.0
 40
1.0
 40
1.0
 10
-1.8972300000000002
 20
-3.1400000000000001
 30
0.0
 10
-1.8210300000000001
 20
-3.2822400000000003
 30
0.0
 10
-1.8210300000000001
 20
-3.5133800000000002
 30
0.0
 10
-1.9810500000000002
 20
-3.6022800000000004
 30
0.0
 10
-1.9810500000000002
 20
-3.6022800000000004
 30
0.0
 10
-1.9099300000000001
 20
-3.4625800000000004
 30
0.0
 10
-1.8845300000000003
 20
-3.2974800000000002
 30
0.0
 10
-1.8972300000000002
 20
-3.1400000000000001
 30
0.0
  0
SPLINE
  5
3F
100
AcDbEntity
  8
Ebene 1
 62
     7
100
AcDbSpline
210
0.0
220
0.0
230
1.0
 70
     1
 71
     3
 72
    12
 73
     8
 74
     0
 42
0.0000000001
 43
0.0000000001
 40
0.0
 40
0.0
 40
0.0
 40
0.0
 40
0.5
 40
0.5
 40
0.5
 40
0.5
 40
1.0
 40
1.0
 40
1.0
 40
1.0
 10
-1.04125
 20
-3.8816800000000002
 30
0.0
 10
-0.9396500000000001
 20
-4.0036000000000005
 30
0.0
 10
-0.8634500000000001
 20
-4.2398199999999999
 30
0.0
 10
-1.0539500000000002
 20
-4.3236400000000001
 30
0.0
 10
-1.0539500000000002
 20
-4.3236400000000001
 30
0.0
 10
-1.16571
 20
-4.2068000000000003
 30
0.0
 10
-1.0666500000000001
 20
-4.0163000000000002
 30
0.0
 10
-1.04125
 20
-3.8816800000000002
 30
0.0
  0
SPLINE
  5
40
100
AcDbEntity
  8
Ebene 1
 62
     7
100
AcDbSpline
210
0.0
220
0.0
230
1.0
 70
     1
 71
     3
 72
    16
 73
    12
 74
     0
 42
0.0000000001
 43
0.0000000001
 40
0.0
 40
0.0
 40
0.0
 40
0.0
 40
0.3333333333333333
 40
0.3333333333333333
 40
0.3333333333333333
 40
0.3333333333333333
 40
0.6666666666666666
 40
0.6666666666666666
 40
0.6666666666666666
 40
0.6666666666666666
 40
1.0
 40
1.0
 40
1.0
 40
1.0
 10
-1.3943100000000002
 20
-4.1585400000000003
 30
0.0
 10
-1.3181100000000001
 20
-4.2982400000000007
 30
0.0
 10
-1.1911100000000001
 20
-4.6589200000000002
 30
0.0
 10
-1.4806700000000002
 20
-4.6360600000000005
 30
0.0
 10
-1.4806700000000002
 20
-4.6360600000000005
 30
0.0
 10
-1.50607
 20
-4.4963600000000001
 30
0.0
 10
-1.41971
 20
-4.3490400000000005
 30
0.0
 10
-1.4324100000000002
 20
-4.1991800000000001
 30
0.0
 10
-1.4324100000000002
 20
-4.1991800000000001
 30
0.0
 10
-1.4324100000000002
 20
-4.1991800000000001
 30
0.0
 10
-1.3943100000000002
 20
-4.1585400000000003
 30
0.0
 10
-1.3943100000000002
 20
-4.1585400000000003
 30
0.0
  0
SPLINE
  5
41
100
AcDbEntity
  8
Ebene 1
 62
     7
100
AcDbSpline
210
0.0
220
0.0
230
1.0
 70
     1
 71
     3
 72
    12
 73
     8
 74
     0
 42
0.0000000001
 43
0.0000000001
 40
0.0
 40
0.0
 40
0.0
 40
0.0
 40
0.5
 40
0.5
 40
0.5
 40
0.5
 40
1.0
 40
1.0
 40
1.0
 40
1.0
 10
-1.1784100000000002
 20
-4.2982400000000007
 30
0.0
 10
-1.1174500000000001
 20
-4.3007800000000005
 30
0.0
 10
-1.1174500000000001
 20
-4.3973000000000004
 30
0.0
 10
-1.16571
 20
-4.4201600000000001
 30
0.0
 10
-1.16571
 20
-4.4201600000000001
 30
0.0
 10
-1.2165100000000002
 20
-4.3998400000000002
 30
0.0
 10
-1.1784100000000002
 20
-4.3363400000000007
 30
0.0
 10
-1.1784100000000002
 20
-4.2982400000000007
 30
0.0
  0
SPLINE
  5
42
100
AcDbEntity
  8
Ebene 1
 62
     7
100
AcDbSpline
210
0.0
220
0.0
230
1.0
 70
     1
 71
     3
 72
    20
 73
    16
 74
     0
 42
0.0000000001
 43
0.0000000001
 40
0.0
 40
0.0
 40
0.0
 40
0.0
 40
0.25
 40
0.25
 40
0.25
 40
0.25
 40
0.5
 40
0.5
 40
0.5
 40
0.5
 40
0.75
 40
0.75
 40
0.75
 40
0.75
 40
1.0
 40
1.0
 40
1.0
 40
1.0
 10
-1.7346700000000002
 20
-4.3617400000000002
 30
0.0
 10
-1.6457700000000002
 20
-4.4506399999999999
 30
0.0
 10
-1.5822700000000001
 20
-4.6005000000000003
 30
0.0
 10
-1.5568700000000002
 20
-4.7275
 30
0.0
 10
-1.5568700000000002
 20
-4.7275
 30
0.0
 10
-1.5949700000000002
 20
-4.7808400000000004
 30
0.0
 10
-1.6584700000000001
 20
-4.8087800000000005
 30
0.0
 10
-1.7219700000000002
 20
-4.8113200000000003
 30
0.0
 10
-1.7219700000000002
 20
-4.8113200000000003
 30
0.0
 10
-1.7219700000000002
 20
-4.8113200000000003
 30
0.0
 10
-1.7727700000000002
 20
-4.7605200000000005
 30
0.0
 10
-1.7727700000000002
 20
-4.7605200000000005
 30
0.0
 10
-1.7727700000000002
 20
-4.7605200000000005
 30
0.0
 10
-1.6965700000000001
 20
-4.6386000000000003
 30
0.0
 10
-1.7346700000000002
 20
-4.4989000000000008
 30
0.0
 10
-1.7346700000000002
 20
-4.3617400000000002
 30
0.0
  0
SPLINE
  5
43
100
AcDbEntity
  8
Ebene 1
 62
     7
100
AcDbSpline
210
0.0
220
0.0
230
1.0
 70
     1
 71
     3
 72
    16
 73
    12
 74
     0
 42
0.0000000001
 43
0.0000000001
 40
0.0
 40
0.0
 40
0.0
 40
0.0
 40
0.3333333333333333
 40
0.3333333333333333
 40
0.3333333333333333
 40
0.3333333333333333
 40
0.6666666666666666
 40
0.6666666666666666
 40
0.6666666666666666
 40
0.6666666666666666
 40
1.0
 40
1.0
 40
1.0
 40
1.0
 10
-2.05979
 20
-4.4379400000000002
 30
0.0
 10
-2.05979
 20
-4.4379400000000002
 30
0.0
 10
-1.8718300000000001
 20
-4.8773600000000004
 30
0.0
 10
-1.8718300000000001
 20
-4.8773600000000004
 30
0.0
 10
-1.8718300000000001
 20
-4.8773600000000004
 30
0.0
 10
-1.8591300000000002
 20
-5.0018200000000004
 30
0.0
 10
-1.9632700000000001
 20
-5.07294
 30
0.0
 10
-2.0343900000000001
 20
-5.1542200000000005
 30
0.0
 10
-2.0343900000000001
 20
-5.1542200000000005
 30
0.0
 10
-2.1791700000000001
 20
-4.9561000000000002
 30
0.0
 10
-2.05471
 20
-4.6665400000000004
 30
0.0
 10
-2.05979
 20
-4.4379400000000002
 30
0.0
  0
SPLINE
  5
44
100
AcDbEntity
  8
Ebene 1
 62
     7
100
AcDbSpline
210
0.0
220
0.0
230
1.0
 70
     1
 71
     3
 72
    12
 73
     8
 74
     0
 42
0.0000000001
 43
0.0000000001
 40
0.0
 40
0.0
 40
0.0
 40
0.0
 40
0.5
 40
0.5
 40
0.5
 40
0.5
 40
1.0
 40
1.0
 40
1.0
 40
1.0
 10
-3.7869900000000003
 20
-4.6132
 30
0.0
 10
-3.6523700000000003
 20
-4.8443400000000008
 30
0.0
 10
-3.2383500000000001
 20
-5.0577000000000005
 30
0.0
 10
-3.4339300000000001
 20
-5.3574200000000003
 30
0.0
 10
-3.4339300000000001
 20
-5.3574200000000003
 30
0.0
 10
-3.6371300000000004
 20
-5.1593
 30
0.0
 10
-3.7260300000000002
 20
-4.8773600000000004
 30
0.0
 10
-3.7869900000000003
 20
-4.6132
 30
0.0
  0
SPLINE
  5
45
100
AcDbEntity
  8
Ebene 1
 62
     7
100
AcDbSpline
210
0.0
220
0.0
230
1.0
 70
     1
 71
     3
 72
    16
 73
    12
 74
     0
 42
0.0000000001
 43
0.0000000001
 40
0.0
 40
0.0
 40
0.0
 40
0.0
 40
0.3333333333333333
 40
0.3333333333333333
 40
0.3333333333333333
 40
0.3333333333333333
 40
0.6666666666666666
 40
0.6666666666666666
 40
0.6666666666666666
 40
0.6666666666666666
 40
1.0
 40
1.0
 40
1.0
 40
1.0
 10
-3.3856700000000002
 20
-4.6767000000000003
 30
0.0
 10
-3.2942300000000002
 20
-4.8697400000000002
 30
0.0
 10
-3.0986500000000001
 20
-5.0094400000000006
 30
0.0
 10
-3.0072100000000002
 20
-5.2050200000000002
 30
0.0
 10
-3.0072100000000002
 20
-5.2050200000000002
 30
0.0
 10
-3.0427700000000004
 20
-5.2913800000000002
 30
0.0
 10
-3.1088100000000001
 20
-5.3980600000000001
 30
0.0
 10
-3.1697700000000002
 20
-5.4564800000000009
 30
0.0
 10
-3.1697700000000002
 20
-5.4564800000000009
 30
0.0
 10
-3.2510500000000002
 20
-5.2075600000000009
 30
0.0
 10
-3.4059900000000001
 20
-4.9662600000000001
 30
0.0
 10
-3.3856700000000002
 20
-4.6767000000000003
 30
0.0
  0
SPLINE
  5
46
100
AcDbEntity
  8
Ebene 1
 62
     7
100
AcDbSpline
210
0.0
220
0.0
230
1.0
 70
     1
 71
     3
 72
    20
 73
    16
 74
     0
 42
0.0000000001
 43
0.0000000001
 40
0.0
 40
0.0
 40
0.0
 40
0.0
 40
0.25
 40
0.25
 40
0.25
 40
0.25
 40
0.5
 40
0.5
 40
0.5
 40
0.5
 40
0.75
 40
0.75
 40
0.75
 40
0.75
 40
1.0
 40
1.0
 40
1.0
 40
1.0
 10
-2.1867900000000002
 20
-4.7021000000000006
 30
0.0
 10
-2.1791700000000001
 20
-4.7021000000000006
 30
0.0
 10
-2.1588500000000002
 20
-4.69956
 30
0.0
 10
-2.1613900000000004
 20
-4.7148000000000003
 30
0.0
 10
-2.1613900000000004
 20
-4.7148000000000003
 30
0.0
 10
-2.1918700000000002
 20
-4.8672000000000004
 30
0.0
 10
-2.1385300000000003
 20
-5.0526200000000001
 30
0.0
 10
-2.2401300000000002
 20
-5.1770800000000001
 30
0.0
 10
-2.2401300000000002
 20
-5.1770800000000001
 30
0.0
 10
-2.31379
 20
-5.1186600000000002
 30
0.0
 10
-2.3264900000000002
 20
-5.0094400000000006
 30
0.0
 10
-2.3645900000000002
 20
-4.9281600000000001
 30
0.0
 10
-2.3645900000000002
 20
-4.9281600000000001
 30
0.0
 10
-2.3061700000000003
 20
-4.8519600000000001
 30
0.0
 10
-2.2680700000000003
 20
-4.7554400000000001
 30
0.0
 10
-2.1867900000000002
 20
-4.7021000000000006
 30
0.0
  0
SPLINE
  5
47
100
AcDbEntity
  8
Ebene 1
 62
     7
100
AcDbSpline
210
0.0
220
0.0
230
1.0
 70
     1
 71
     3
 72
    16
 73
    12
 74
     0
 42
0.0000000001
 43
0.0000000001
 40
0.0
 40
0.0
 40
0.0
 40
0.0
 40
0.3333333333333333
 40
0.3333333333333333
 40
0.3333333333333333
 40
0.3333333333333333
 40
0.6666666666666666
 40
0.6666666666666666
 40
0.6666666666666666
 40
0.6666666666666666
 40
1.0
 40
1.0
 40
1.0
 40
1.0
 10
-2.5398500000000004
 20
-4.7910000000000004
 30
0.0
 10
-2.5398500000000004
 20
-4.7910000000000004
 30
0.0
 10
-2.4661900000000001
 20
-4.8418000000000001
 30
0.0
 10
-2.4661900000000001
 20
-4.8418000000000001
 30
0.0
 10
-2.4661900000000001
 20
-4.8418000000000001
 30
0.0
 10
-2.4128500000000002
 20
-5.0424600000000002
 30
0.0
 10
-2.1994900000000004
 20
-5.2863000000000007
 30
0.0
 10
-2.4280900000000001
 20
-5.4539400000000002
 30
0.0
 10
-2.4280900000000001
 20
-5.4539400000000002
 30
0.0
 10
-2.69225
 20
-5.3345600000000006
 30
0.0
 10
-2.5398500000000004
 20
-5.0094400000000006
 30
0.0
 10
-2.5398500000000004
 20
-4.7910000000000004
 30
0.0
  0
ENDSEC
  0
SECTION
  2
OBJECTS
  0
DICTIONARY
  5
19
100
AcDbDictionary
280
     0
281
     1
  3
ACAD_GROUP
350
1A
  3
ACAD_MLINESTYLE
350
1B
  3
ACAD_LAYOUT
350
1E
  3
ACAD_PLOTSETTINGS
350
22
  3
ACAD_PLOTSTYLENAME
350
1F
  3
ACAD_WIPEOUT_VARS
350
23
  0
DICTIONARY
  5
1A
102
{ACAD_REACTORS
330
19
102
}
100
AcDbDictionary
280
     0
281
     1
  0
DICTIONARY
  5
1B
102
{ACAD_REACTORS
330
19
102
}
100
AcDbDictionary
280
     0
281
     1
  3
Standard
350
1C
  0
MLINESTYLE
  5
1C
102
{ACAD_REACTORS
330
1B
102
}
100
AcDbMlineStyle
  2
Standard
 70
     0
  3

 62
     0
 51
90.0
 52
90.0
 71
     2
 49
0.5
 62
   256
  6
BYLAYER
 49
-0.5
 62
   256
  6
BYLAYER
  0
ACDBDICTIONARYWDFLT
  5
1F
102
{ACAD_REACTORS
330
19
102
}
100
AcDbDictionary
281
     1
  3
Normal
350
1D
100
AcDbDictionaryWithDefault
340
1D
  0
ACDBPLACEHOLDER
  5
1D
102
{ACAD_REACTORS
330
1F
102
}
  0
LAYOUT
  5
20
102
{ACAD_REACTORS
330
1E
102
}
100
AcDbPlotSettings
  1

  2

  4

  6

 40
0.0
 41
0.0
 42
0.0
 43
0.0
 44
0.0
 45
0.0
 46
0.0
 47
0.0
 48
0.0
 49
0.0
140
0.0
141
0.0
142
1.0
143
1.0
 70
  1024
 72
     0
 73
     0
 74
     0
  7

 75
     0
147
1.0
148
0.0
149
0.0
100
AcDbLayout
  1
Model
 70
     0
 71
     0
 10
0.0
 20
0.0
 11
0.0
 21
0.0
 12
0.0
 22
0.0
 32
0.0
 14
0.0
 24
0.0
 34
0.0
 15
0.0
 25
0.0
 35
0.0
146
0.0
 13
0.0
 23
0.0
 33
0.0
 16
0.0
 26
0.0
 36
0.0
 17
0.0
 27
0.0
 37
0.0
 76
     0
330
A
331
0
345
0
346
0
  0
LAYOUT
  5
21
102
{ACAD_REACTORS
330
1E
102
}
100
AcDbPlotSettings
  1

  2

  4

  6

 40
0.0
 41
0.0
 42
0.0
 43
0.0
 44
0.0
 45
0.0
 46
0.0
 47
0.0
 48
0.0
 49
0.0
140
0.0
141
0.0
142
1.0
143
1.0
 70
     0
 72
     0
 73
     0
 74
     0
  7

 75
     0
147
1.0
148
0.0
149
0.0
100
AcDbLayout
  1
Layout1
 70
     0
 71
     0
 10
0.0
 20
0.0
 11
0.0
 21
0.0
 12
0.0
 22
0.0
 32
0.0
 14
0.0
 24
0.0
 34
0.0
 15
0.0
 25
0.0
 35
0.0
146
0.0
 13
0.0
 23
0.0
 33
0.0
 16
0.0
 26
0.0
 36
0.0
 17
0.0
 27
0.0
 37
0.0
 76
     0
330
B
331
0
345
0
346
0
  0
DICTIONARY
  5
1E
102
{ACAD_REACTORS
330
19
102
}
100
AcDbDictionary
280
     0
281
     1
  3
Layout1
350
21
  3
Model
350
20
  0
DICTIONARY
  5
22
102
{ACAD_REACTORS
330
19
102
}
100
AcDbDictionary
280
     0
281
     1
  0
WIPEOUTVARIABLES
  5
23
100
AcDbWipeoutVariables
 70
     1
  0
ENDSEC
  0
EOF
