  0
SECTION
  2
HEADER
  9
$ACADVER
  1
AC1015
  9
$ACADMAINTVER
 70
     6
  9
$DWGCODEPAGE
  3
DOS850
  9
$INSBASE
 10
0.0
 20
0.0
 30
0.0
  9
$EXTMIN
 10
-4.01104
 20
-5.21518
 30
1.000000E+20
  9
$EXTMAX
 10
4.01588
 20
5.20884
 30
-1.000000E+20
  9
$LIMMIN
 10
0.0
 20
0.0
  9
$LIMMAX
 10
0.0
 20
0.0
  9
$ORTHOMODE
 70
     0
  9
$REGENMODE
 70
     1
  9
$FILLMODE
 70
     1
  9
$QTEXTMODE
 70
     0
  9
$MIRRTEXT
 70
     1
  9
$LTSCALE
 40
1.0
  9
$ATTMODE
 70
     1
  9
$TEXTSIZE
 40
0.2
  9
$TRACEWID
 40
0.05
  9
$TEXTSTYLE
  7
Standard
  9
$CLAYER
  8
0
  9
$CELTYPE
  6
Continuous
  9
$CECOLOR
 62
   256
  9
$CELTSCALE
 40
1.0
  9
$DISPSILH
 70
     0
  9
$DIMSCALE
 40
1.0
  9
$DIMASZ
 40
0.18
  9
$DIMEXO
 40
0.0625
  9
$DIMDLI
 40
0.38
  9
$DIMRND
 40
0.0
  9
$DIMDLE
 40
0.0
  9
$DIMEXE
 40
0.18
  9
$DIMTP
 40
0.0
  9
$DIMTM
 40
0.0
  9
$DIMTXT
 40
0.18
  9
$DIMCEN
 40
0.09
  9
$DIMTSZ
 40
0.0
  9
$DIMTOL
 70
     0
  9
$DIMLIM
 70
     0
  9
$DIMTIH
 70
     1
  9
$DIMTOH
 70
     1
  9
$DIMSE1
 70
     0
  9
$DIMSE2
 70
     0
  9
$DIMTAD
 70
     0
  9
$DIMZIN
 70
     0
  9
$DIMBLK
  1

  9
$DIMASO
 70
     1
  9
$DIMSHO
 70
     1
  9
$DIMPOST
  1

  9
$DIMAPOST
  1

  9
$DIMALT
 70
     0
  9
$DIMALTD
 70
     2
  9
$DIMALTF
 40
25.4
  9
$DIMLFAC
 40
1.0
  9
$DIMTOFL
 70
     0
  9
$DIMTVP
 40
0.0
  9
$DIMTIX
 70
     0
  9
$DIMSOXD
 70
     0
  9
$DIMSAH
 70
     0
  9
$DIMBLK1
  1

  9
$DIMBLK2
  1

  9
$DIMSTYLE
  2
Standard
  9
$DIMCLRD
 70
     0
  9
$DIMCLRE
 70
     0
  9
$DIMCLRT
 70
     0
  9
$DIMTFAC
 40
1.0
  9
$DIMGAP
 40
0.09
  9
$DIMJUST
 70
     0
  9
$DIMSD1
 70
     0
  9
$DIMSD2
 70
     0
  9
$DIMTOLJ
 70
     1
  9
$DIMTZIN
 70
     0
  9
$DIMALTZ
 70
     0
  9
$DIMALTTZ
 70
     0
  9
$DIMUPT
 70
     0
  9
$DIMDEC
 70
     4
  9
$DIMTDEC
 70
     4
  9
$DIMALTU
 70
     2
  9
$DIMALTTD
 70
     2
  9
$DIMTXSTY
  7
Standard
  9
$DIMAUNIT
 70
     0
  9
$DIMADEC
 70
     0
  9
$DIMALTRND
 40
0.0
  9
$DIMAZIN
 70
     0
  9
$DIMDSEP
 70
     0
  9
$DIMATFIT
 70
     3
  9
$DIMFRAC
 70
     0
  9
$DIMLDRBLK
  1

  9
$DIMLUNIT
 70
     2
  9
$DIMLWD
 70
     0
  9
$DIMLWE
 70
     0
  9
$DIMTMOVE
 70
     0
  9
$LUNITS
 70
     2
  9
$LUPREC
 70
     4
  9
$SKETCHINC
 40
0.1
  9
$FILLETRAD
 40
0.0
  9
$AUNITS
 70
     0
  9
$AUPREC
 70
     0
  9
$MENU
  1
acad
  9
$ELEVATION
 40
0.0
  9
$PELEVATION
 40
0.0
  9
$THICKNESS
 40
0.0
  9
$LIMCHECK
 70
     0
  9
$CHAMFERA
 40
0.0
  9
$CHAMFERB
 40
0.0
  9
$CHAMFERC
 40
0.0
  9
$CHAMFERD
 40
0.0
  9
$SKPOLY
 70
     0
  9
$TDCREATE
 40
0.000000000
  9
$TDUCREATE
 40
0.000000000
  9
$TDUPDATE
 40
0.000000000
  9
$TDUUPDATE
 40
0.000000000
  9
$TDINDWG
 40
0.0000000000
  9
$TDUSRTIMER
 40
0.0000000000
  9
$USRTIMER
 70
     1
  9
$ANGBASE
 50
0.0
  9
$ANGDIR
 70
     0
  9
$PDMODE
 70
     0
  9
$PDSIZE
 40
0.0
  9
$PLINEWID
 40
0.0
  9
$SPLFRAME
 70
     0
  9
$SPLINETYPE
 70
     6
  9
$SPLINESEGS
 70
     8
  9
$HANDSEED
  5
3E
  9
$SURFTAB1
 70
     6
  9
$SURFTAB2
 70
     6
  9
$SURFTYPE
 70
     6
  9
$SURFU
 70
     6
  9
$SURFV
 70
     6
  9
$UCSBASE
  2

  9
$UCSNAME
  2

  9
$UCSORG
 10
0.0
 20
0.0
 30
0.0
  9
$UCSXDIR
 10
1.0
 20
0.0
 30
0.0
  9
$UCSYDIR
 10
0.0
 20
1.0
 30
0.0
  9
$UCSORTHOREF
  2

  9
$UCSORTHOVIEW
 70
     0
  9
$UCSORGTOP
 10
0.0
 20
0.0
 30
0.0
  9
$UCSORGBOTTOM
 10
0.0
 20
0.0
 30
0.0
  9
$UCSORGLEFT
 10
0.0
 20
0.0
 30
0.0
  9
$UCSORGRIGHT
 10
0.0
 20
0.0
 30
0.0
  9
$UCSORGFRONT
 10
0.0
 20
0.0
 30
0.0
  9
$UCSORGBACK
 10
0.0
 20
0.0
 30
0.0
  9
$PUCSBASE
  2

  9
$PUCSNAME
  2

  9
$PUCSORG
 10
0.0
 20
0.0
 30
0.0
  9
$PUCSXDIR
 10
1.0
 20
0.0
 30
0.0
  9
$PUCSYDIR
 10
0.0
 20
1.0
 30
0.0
  9
$PUCSORTHOREF
  2

  9
$PUCSORTHOVIEW
 70
     0
  9
$PUCSORGTOP
 10
0.0
 20
0.0
 30
0.0
  9
$PUCSORGBOTTOM
 10
0.0
 20
0.0
 30
0.0
  9
$PUCSORGLEFT
 10
0.0
 20
0.0
 30
0.0
  9
$PUCSORGRIGHT
 10
0.0
 20
0.0
 30
0.0
  9
$PUCSORGFRONT
 10
0.0
 20
0.0
 30
0.0
  9
$PUCSORGBACK
 10
0.0
 20
0.0
 30
0.0
  9
$USERI1
 70
     0
  9
$USERI2
 70
     0
  9
$USERI3
 70
     0
  9
$USERI4
 70
     0
  9
$USERI5
 70
     0
  9
$USERR1
 40
0.0
  9
$USERR2
 40
0.0
  9
$USERR3
 40
0.0
  9
$USERR4
 40
0.0
  9
$USERR5
 40
0.0
  9
$WORLDVIEW
 70
     1
  9
$SHADEDGE
 70
     3
  9
$SHADEDIF
 70
    70
  9
$TILEMODE
 70
     1
  9
$MAXACTVP
 70
    16
  9
$PINSBASE
 10
0.0
 20
0.0
 30
0.0
  9
$PLIMCHECK
 70
     0
  9
$PEXTMIN
 10
1.000000E+20
 20
1.000000E+20
 30
1.000000E+20
  9
$PEXTMAX
 10
-1.000000E+20
 20
-1.000000E+20
 30
-1.000000E+20
  9
$PLIMMIN
 10
0.0
 20
0.0
  9
$PLIMMAX
 10
12.0
 20
9.0
  9
$UNITMODE
 70
     0
  9
$VISRETAIN
 70
     0
  9
$PLINEGEN
 70
     1
  9
$PSLTSCALE
 70
     0
  9
$TREEDEPTH
 70
  3020
  9
$CMLSTYLE
  2
Standard
  9
$CMLJUST
 70
     0
  9
$CMLSCALE
 40
1.0
  9
$PROXYGRAPHICS
 70
     0
  9
$MEASUREMENT
 70
     0
  9
$CELWEIGHT
370
     0
  9
$ENDCAPS
280
     0
  9
$JOINSTYLE
280
     0
  9
$LWDISPLAY
290
     0
  9
$INSUNITS
 70
     5
  9
$HYPERLINKBASE
  1

  9
$XEDIT
290
     1
  9
$CEPSNTYPE
380
     0
  9
$PSTYLEMODE
290
     1
  9
$FINGERPRINTGUID
  2

  9
$VERSIONGUID
  2

  9
$EXTNAMES
290
     1
  9
$PSVPSCALE
 40
0.0
  0
ENDSEC
  0
SECTION
  2
CLASSES
  0
CLASS
  1
LWPOLYLINE
  2
AcDbPolyline
  3
AutoCAD 2000
 90
    32768
280
     0
281
     1
  0
CLASS
  1
IMAGE
  2
AcDbRasterImage
  3
ISM
 90
    32895
280
     0
281
     1
  0
CLASS
  1
OLE2FRAME
  2
AcDbOle2Frame
  3
AutoCAD 2000
 90
    32768
280
     0
281
     1
  0
CLASS
  1
HATCH
  2
AcDbHatch
  3
AutoCAD 2000
 90
    32768
280
     0
281
     1
  0
CLASS
  1
DICTIONARYVAR
  2
AcDbDictionaryVar
  3
AutoCAD 2000
 90
    32768
280
     0
281
     0
  0
CLASS
  1
RASTERVARIABLES
  2
AcDbRasterVariables
  3
ISM
 90
    32768
280
     0
281
     0
  0
CLASS
  1
IMAGEDEF
  2
AcDbRasterImageDef
  3
ISM
 90
    32768
280
     0
281
     0
  0
CLASS
  1
IMAGEDEF_REACTOR
  2
AcDbRasterImageDefReactor
  3
ISM
 90
    32769
280
     0
281
     0
  0
CLASS
  1
IDBUFFER
  2
AcDbIdBuffer
  3
AutoCAD 2000
 90
    32768
280
     0
281
     0
  0
CLASS
  1
SPATIAL_FILTER
  2
AcDbSpatialFilter
  3
AutoCAD 2000
 90
    32768
280
     0
281
     0
  0
CLASS
  1
XRECORD
  2
AcDbXrecord
  3
AutoCAD 2000
 90
    32768
280
     0
281
     0
  0
CLASS
  1
SORTENTSTABLE
  2
AcDbSortentsTable
  3
AutoCAD 2000
 90
    32768
280
     0
281
     0
  0
CLASS
  1
LAYER_INDEX
  2
AcDbLayerIndex
  3
AutoCAD 2000
 90
    32768
280
     0
281
     0
  0
CLASS
  1
SPATIAL_INDEX
  2
AcDbSpatialIndex
  3
AutoCAD 2000
 90
    32768
280
     0
281
     0
  0
CLASS
  1
OBJECT_PTR
  2
CAseDLPNTableRecord
  3
"ASE-LPNTableRecord"
 90
    32769
280
     0
281
     0
  0
CLASS
  1
LAYOUT
  2
AcDbLayout
  3
AutoCAD 2000
 90
        0
280
     0
281
     0
  0
CLASS
  1
PLOTSETTINGS
  2
AcDbPlotSettings
  3
AutoCAD 2000
 90
    32768
280
     0
281
     0
  0
CLASS
  1
ACDBDICTIONARYWDFLT
  2
AcDbDictionaryWithDefault
  3
AutoCAD 2000
 90
        0
280
     0
281
     0
  0
CLASS
  1
ACDBPLACEHOLDER
  2
AcDbPlaceHolder
  3
AutoCAD 2000
 90
        0
280
     0
281
     0
  0
CLASS
  1
VBA_PROJECT
  2
AcDbVbaProject
  3
acadvba
 90
    32768
280
     0
281
     0
  0
CLASS
  1
WIPEOUT
  2
AcDbWipeout
  3
WipeOut|AutoCAD Express Tool|expresstools@autodesk.com
 90
    32895
280
     0
281
     1
  0
CLASS
  1
WIPEOUTVARIABLES
  2
AcDbWipeoutVariables
  3
WipeOut|AutoCAD Express Tool|expresstools@autodesk.com
 90
        0
280
     0
281
     0
  0
CLASS
  1
RTEXT
  2
RText
  3
RText|AutoCAD Express Tool|expresstools@autodesk.com
 90
    32768
280
     0
281
     1
  0
CLASS
  1
ARCALIGNEDTEXT
  2
AcDbArcAlignedText
  3
ATEXT|AutoCAD Express Tool|expresstools@autodesk.com
 90
    32768
280
     0
281
     1
  0
ENDSEC
  0
SECTION
  2
TABLES
  0
TABLE
  2
VPORT
  5
7
100
AcDbSymbolTable
 70
     1
  0
VPORT
  5
15
100
AcDbSymbolTableRecord
100
AcDbViewportTableRecord
  2
*ACTIVE
 70
     0
 10
0.0
 20
0.0
 11
1.0
 21
1.0
 12
6.591288
 22
4.579184
 13
0.0
 23
0.0
 14
1.0
 24
1.0
 15
0.0
 25
0.0
 16
0.0
 26
0.0
 36
1.0
 17
0.0
 27
0.0
 37
0.0
 40
9.158369
 41
0.688564
 42
50.0
 43
0.0
 44
0.0
 50
0.0
 51
0.0
 71
     0
 72
   100
 73
     1
 74
     1
 75
     0
 76
     0
 77
     0
 78
     0
281
     0
 65
     0
110
0.0
120
0.0
130
0.0
111
1.0
121
0.0
131
0.0
112
0.0
122
1.0
132
0.0
345
0
346
0
 79
     0
146
0.0
  0
ENDTAB
  0
TABLE
  2
LTYPE
  5
4
100
AcDbSymbolTable
 70
     3
  0
LTYPE
  5
11
100
AcDbSymbolTableRecord
100
AcDbLinetypeTableRecord
  2
ByBlock
 70
    64
  3

 72
    65
 73
     0
 40
0.0
  0
LTYPE
  5
12
100
AcDbSymbolTableRecord
100
AcDbLinetypeTableRecord
  2
ByLayer
 70
    64
  3

 72
    65
 73
     0
 40
0.0
  0
LTYPE
  5
13
100
AcDbSymbolTableRecord
100
AcDbLinetypeTableRecord
  2
Continuous
 70
    64
  3
Solid line
 72
    65
 73
     0
 40
0.0
  0
ENDTAB
  0
TABLE
  2
LAYER
  5
2
100
AcDbSymbolTable
 70
     2
  0
LAYER
  5
14
100
AcDbSymbolTableRecord
100
AcDbLayerTableRecord
  2
0
 70
     0
 62
     7
  6
Continuous
290
     1
370
    -3
390
1D
  0
LAYER
  5
24
100
AcDbSymbolTableRecord
100
AcDbLayerTableRecord
  2
Ebene 1
 70
     0
 62
     7
  6
Continuous
290
     1
370
    -3
390
1F
  0
ENDTAB
  0
TABLE
  2
STYLE
  5
3
100
AcDbSymbolTable
 70
     1
  0
STYLE
  5
17
100
AcDbSymbolTableRecord
100
AcDbTextStyleTableRecord
  2
Standard
 70
     0
 40
0.0
 41
1.0
 50
0.0
 71
     0
 42
0.0
  3
txt
  4

  0
ENDTAB
  0
TABLE
  2
VIEW
  5
5
100
AcDbSymbolTable
 70
     0
  0
ENDTAB
  0
TABLE
  2
UCS
  5
6
100
AcDbSymbolTable
 70
     0
  0
ENDTAB
  0
TABLE
  2
APPID
  5
8
100
AcDbSymbolTable
 70
     1
  0
APPID
  5
16
100
AcDbSymbolTableRecord
100
AcDbRegAppTableRecord
  2
ACAD
 70
     0
  0
ENDTAB
  0
TABLE
  2
DIMSTYLE
  5
9
100
AcDbSymbolTable
 70
     1
100
AcDbDimStyleTable
 71
     0
  0
DIMSTYLE
105
18
100
AcDbSymbolTableRecord
100
AcDbDimStyleTableRecord
  2
Standard
 70
     0
  3

  4

 40
1.0
 41
0.18
 42
0.0625
 43
0.38
 44
0.18
 45
0.0
 46
0.0
 47
0.0
 48
0.0
 71
     0
 72
     0
 73
     1
 74
     1
 75
     0
 76
     0
 77
     0
 78
     0
 79
     0
140
0.18
141
0.09
142
0.0
143
25.4
144
1.0
145
0.0
146
1.0
147
0.09
148
0.0
170
     0
171
     2
172
     0
173
     0
174
     0
175
     0
176
     0
177
     0
178
     0
179
     0
271
     4
272
     4
273
     2
274
     2
275
     0
276
     0
277
     2
278
    46
279
     0
280
     0
281
     0
282
     0
283
     1
284
     0
285
     0
286
     0
288
     0
340
17
341
0
342
0
343
0
344
0
371
    -2
372
    -2
  0
ENDTAB
  0
TABLE
  2
BLOCK_RECORD
  5
1
100
AcDbSymbolTable
 70
     0
  0
BLOCK_RECORD
  5
A
100
AcDbSymbolTableRecord
100
AcDbBlockTableRecord
  2
*MODEL_SPACE
340
20
  0
BLOCK_RECORD
  5
B
100
AcDbSymbolTableRecord
100
AcDbBlockTableRecord
  2
*PAPER_SPACE
340
21
  0
ENDTAB
  0
ENDSEC
  0
SECTION
  2
BLOCKS
  0
BLOCK
  5
D
100
AcDbEntity
  8
0
100
AcDbBlockBegin
  2
*MODEL_SPACE
 70
     0
 10
0.0
 20
0.0
 30
0.0
  3
*MODEL_SPACE
  1

  0
ENDBLK
  5
E
100
AcDbEntity
  8
0
100
AcDbBlockEnd
  0
BLOCK
  5
F
100
AcDbEntity
 67
     1
  8
0
100
AcDbBlockBegin
  2
*PAPER_SPACE
 70
     0
 10
0.0
 20
0.0
 30
0.0
  3
*PAPER_SPACE
  1

  0
ENDBLK
  5
10
100
AcDbEntity
 67
     1
  8
0
100
AcDbBlockEnd
  0
ENDSEC
  0
SECTION
  2
ENTITIES
  0
SPLINE
  5
25
100
AcDbEntity
  8
Ebene 1
100
AcDbSpline
210
0.0
220
0.0
230
1.0
 70
     1
 71
     3
 72
   128
 73
   124
 74
     0
 42
0.0000000001
 43
0.0000000001
 40
0.0
 40
0.0
 40
0.0
 40
0.0
 40
0.032258064516129
 40
0.032258064516129
 40
0.032258064516129
 40
0.032258064516129
 40
0.0645161290322581
 40
0.0645161290322581
 40
0.0645161290322581
 40
0.0645161290322581
 40
0.0967741935483871
 40
0.0967741935483871
 40
0.0967741935483871
 40
0.0967741935483871
 40
0.1290322580645161
 40
0.1290322580645161
 40
0.1290322580645161
 40
0.1290322580645161
 40
0.1612903225806452
 40
0.1612903225806452
 40
0.1612903225806452
 40
0.1612903225806452
 40
0.1935483870967742
 40
0.1935483870967742
 40
0.1935483870967742
 40
0.1935483870967742
 40
0.2258064516129032
 40
0.2258064516129032
 40
0.2258064516129032
 40
0.2258064516129032
 40
0.2580645161290323
 40
0.2580645161290323
 40
0.2580645161290323
 40
0.2580645161290323
 40
0.2903225806451613
 40
0.2903225806451613
 40
0.2903225806451613
 40
0.2903225806451613
 40
0.3225806451612903
 40
0.3225806451612903
 40
0.3225806451612903
 40
0.3225806451612903
 40
0.3548387096774193
 40
0.3548387096774193
 40
0.3548387096774193
 40
0.3548387096774193
 40
0.3870967741935483
 40
0.3870967741935483
 40
0.3870967741935483
 40
0.3870967741935483
 40
0.4193548387096773
 40
0.4193548387096773
 40
0.4193548387096773
 40
0.4193548387096773
 40
0.4516129032258063
 40
0.4516129032258063
 40
0.4516129032258063
 40
0.4516129032258063
 40
0.4838709677419353
 40
0.4838709677419353
 40
0.4838709677419353
 40
0.4838709677419353
 40
0.5161290322580643
 40
0.5161290322580643
 40
0.5161290322580643
 40
0.5161290322580643
 40
0.5483870967741933
 40
0.5483870967741933
 40
0.5483870967741933
 40
0.5483870967741933
 40
0.5806451612903223
 40
0.5806451612903223
 40
0.5806451612903223
 40
0.5806451612903223
 40
0.6129032258064513
 40
0.6129032258064513
 40
0.6129032258064513
 40
0.6129032258064513
 40
0.6451612903225803
 40
0.6451612903225803
 40
0.6451612903225803
 40
0.6451612903225803
 40
0.6774193548387093
 40
0.6774193548387093
 40
0.6774193548387093
 40
0.6774193548387093
 40
0.7096774193548383
 40
0.7096774193548383
 40
0.7096774193548383
 40
0.7096774193548383
 40
0.7419354838709673
 40
0.7419354838709673
 40
0.7419354838709673
 40
0.7419354838709673
 40
0.7741935483870963
 40
0.7741935483870963
 40
0.7741935483870963
 40
0.7741935483870963
 40
0.8064516129032253
 40
0.8064516129032253
 40
0.8064516129032253
 40
0.8064516129032253
 40
0.8387096774193543
 40
0.8387096774193543
 40
0.8387096774193543
 40
0.8387096774193543
 40
0.8709677419354833
 40
0.8709677419354833
 40
0.8709677419354833
 40
0.8709677419354833
 40
0.9032258064516123
 40
0.9032258064516123
 40
0.9032258064516123
 40
0.9032258064516123
 40
0.9354838709677413
 40
0.9354838709677413
 40
0.9354838709677413
 40
0.9354838709677413
 40
0.9677419354838703
 40
0.9677419354838703
 40
0.9677419354838703
 40
0.9677419354838703
 40
1.0
 40
1.0
 40
1.0
 40
1.0
 10
-0.35545
 20
5.1835700000000005
 30
0.0
 10
1.9407000000000001
 20
5.4655100000000001
 30
0.0
 10
4.0438200000000002
 20
3.3471500000000001
 30
0.0
 10
3.8482400000000001
 20
1.0357500000000002
 30
0.0
 10
3.8482400000000001
 20
1.0357500000000002
 30
0.0
 10
3.8482400000000001
 20
1.0357500000000002
 30
0.0
 10
4.0158800000000001
 20
0.22549
 30
0.0
 10
4.0158800000000001
 20
0.22549
 30
0.0
 10
4.0158800000000001
 20
0.22549
 30
0.0
 10
3.8609400000000003
 20
0.29661
 30
0.0
 10
3.7923600000000004
 20
0.55569
 30
0.0
 10
3.6806000000000001
 20
0.64205
 30
0.0
 10
3.6806000000000001
 20
0.64205
 30
0.0
 10
3.9041200000000003
 20
-0.10216
 30
0.0
 10
3.4418400000000005
 20
-1.4382000000000001
 30
0.0
 10
2.3344
 20
-1.33406
 30
0.0
 10
2.3344
 20
-1.33406
 30
0.0
 10
1.9991200000000002
 20
-1.7506200000000001
 30
0.0
 10
1.4504800000000002
 20
-1.5956800000000002
 30
0.0
 10
1.0034400000000001
 20
-1.4864600000000001
 30
0.0
 10
1.0034400000000001
 20
-1.4864600000000001
 30
0.0
 10
0.7926200000000001
 20
-1.5829800000000001
 30
0.0
 10
0.59704
 20
-1.7099800000000001
 30
0.0
 10
0.35828
 20
-1.7557
 30
0.0
 10
0.35828
 20
-1.7557
 30
0.0
 10
0.1754
 20
-2.0884400000000003
 30
0.0
 10
0.42686
 20
-2.5456400000000001
 30
0.0
 10
0.7494400000000001
 20
-2.6929600000000002
 30
0.0
 10
0.7494400000000001
 20
-2.6929600000000002
 30
0.0
 10
0.6503800000000001
 20
-2.8352000000000004
 30
0.0
 10
0.4421000000000001
 20
-2.7590000000000003
 30
0.0
 10
0.3024
 20
-2.7513800000000002
 30
0.0
 10
0.3024
 20
-2.7513800000000002
 30
0.0
 10
0.37098
 20
-2.8733000000000004
 30
0.0
 10
0.47004
 20
-3.0028400000000004
 30
0.0
 10
0.4421000000000001
 20
-3.1654000000000004
 30
0.0
 10
0.4421000000000001
 20
-3.1654000000000004
 30
0.0
 10
0.4421000000000001
 20
-3.1654000000000004
 30
0.0
 10
0.13222
 20
-3.0714200000000003
 30
0.0
 10
0.13222
 20
-3.0714200000000003
 30
0.0
 10
0.13222
 20
-3.0714200000000003
 30
0.0
 10
0.25922
 20
-3.2390600000000003
 30
0.0
 10
0.3989200000000001
 20
-3.6861000000000002
 30
0.0
 10
0.07634
 20
-3.3965400000000003
 30
0.0
 10
0.07634
 20
-3.3965400000000003
 30
0.0
 10
0.09158
 20
-3.5616400000000001
 30
0.0
 10
0.27192
 20
-3.7115000000000005
 30
0.0
 10
0.1881
 20
-3.8791400000000005
 30
0.0
 10
0.1881
 20
-3.8791400000000005
 30
0.0
 10
-0.04557
 20
-3.8537400000000002
 30
0.0
 10
-0.28433
 20
-3.4143200000000005
 30
0.0
 10
-0.17257
 20
-3.8994600000000004
 30
0.0
 10
-0.17257
 20
-3.8994600000000004
 30
0.0
 10
-0.6069100000000001
 20
-3.6200600000000005
 30
0.0
 10
-0.27163
 20
-4.2855400000000001
 30
0.0
 10
-0.32751
 20
-4.5801800000000004
 30
0.0
 10
-0.32751
 20
-4.5801800000000004
 30
0.0
 10
-0.42403
 20
-4.6182800000000004
 30
0.0
 10
-0.45197
 20
-4.5090600000000007
 30
0.0
 10
-0.46721
 20
-4.4430200000000006
 30
0.0
 10
-0.46721
 20
-4.4430200000000006
 30
0.0
 10
-0.55103
 20
-4.2906200000000005
 30
0.0
 10
-0.8736100000000001
 20
-3.7267400000000004
 30
0.0
 10
-0.8736100000000001
 20
-4.1483800000000004
 30
0.0
 10
-0.8736100000000001
 20
-4.1483800000000004
 30
0.0
 10
-0.74153
 20
-4.3744400000000008
 30
0.0
 10
-0.71867
 20
-4.6690800000000001
 30
0.0
 10
-0.8355100000000001
 20
-4.6919400000000007
 30
0.0
 10
-0.8355100000000001
 20
-4.6919400000000007
 30
0.0
 10
-0.9040900000000001
 20
-4.7071800000000001
 30
0.0
 10
-1.0260100000000001
 20
-4.5039800000000003
 30
0.0
 10
-1.1530100000000001
 20
-4.4049200000000006
 30
0.0
 10
-1.1530100000000001
 20
-4.4049200000000006
 30
0.0
 10
-1.08443
 20
-4.5750999999999999
 30
0.0
 10
-1.04125
 20
-4.7986200000000006
 30
0.0
 10
-1.1530100000000001
 20
-4.9586400000000008
 30
0.0
 10
-1.1530100000000001
 20
-4.9586400000000008
 30
0.0
 10
-1.1530100000000001
 20
-4.9586400000000008
 30
0.0
 10
-1.5136900000000002
 20
-4.6005000000000003
 30
0.0
 10
-1.5136900000000002
 20
-4.6005000000000003
 30
0.0
 10
-1.5136900000000002
 20
-4.6005000000000003
 30
0.0
 10
-1.46289
 20
-4.7910000000000004
 30
0.0
 10
-1.4070100000000001
 20
-4.9840400000000002
 30
0.0
 10
-1.4806700000000002
 20
-5.1821600000000005
 30
0.0
 10
-1.4806700000000002
 20
-5.1821600000000005
 30
0.0
 10
-1.6610100000000001
 20
-5.1948600000000003
 30
0.0
 10
-1.7194300000000002
 20
-4.9281600000000001
 30
0.0
 10
-1.8159500000000002
 20
-4.7986200000000006
 30
0.0
 10
-1.8159500000000002
 20
-4.7986200000000006
 30
0.0
 10
-1.8921500000000002
 20
-4.9129200000000006
 30
0.0
 10
-1.8845300000000003
 20
-5.1440600000000005
 30
0.0
 10
-2.0089900000000003
 20
-5.2151800000000001
 30
0.0
 10
-2.0089900000000003
 20
-5.2151800000000001
 30
0.0
 10
-2.0369300000000004
 20
-4.8595800000000002
 30
0.0
 10
-2.1740900000000001
 20
-4.3973000000000004
 30
0.0
 10
-2.3595100000000002
 20
-4.9205400000000008
 30
0.0
 10
-2.3595100000000002
 20
-4.9205400000000008
 30
0.0
 10
-2.4585700000000004
 20
-4.6055800000000007
 30
0.0
 10
-2.3645900000000002
 20
-4.4252400000000005
 30
0.0
 10
-2.5804900000000002
 20
-4.7478200000000008
 30
0.0
 10
-2.5804900000000002
 20
-4.7478200000000008
 30
0.0
 10
-2.44333
 20
-3.4905200000000001
 30
0.0
 10
-2.9513300000000005
 20
-2.4796
 30
0.0
 10
-3.0478500000000004
 20
-1.25024
 30
0.0
 10
-3.0478500000000004
 20
-1.25024
 30
0.0
 10
-3.2205700000000004
 20
-0.9200400000000001
 30
0.0
 10
-3.7895300000000005
 20
-1.03688
 30
0.0
 10
-3.8454100000000002
 20
-0.63048
 30
0.0
 10
-3.8454100000000002
 20
-0.63048
 30
0.0
 10
-3.3653500000000003
 20
0.3677300000000001
 30
0.0
 10
-4.6124900000000002
 20
1.4167500000000002
 30
0.0
 10
-3.6066500000000001
 20
2.1838300000000004
 30
0.0
 10
-3.6066500000000001
 20
2.1838300000000004
 30
0.0
 10
-3.5126700000000004
 20
2.6181700000000001
 30
0.0
 10
-3.5710900000000003
 20
2.63341
 30
0.0
 10
-3.8733500000000003
 20
2.4505300000000001
 30
0.0
 10
-3.8733500000000003
 20
2.4505300000000001
 30
0.0
 10
-3.8733500000000003
 20
2.4505300000000001
 30
0.0
 10
-3.4694900000000004
 20
2.9686900000000001
 30
0.0
 10
-3.4694900000000004
 20
2.9686900000000001
 30
0.0
 10
-3.4694900000000004
 20
2.9686900000000001
 30
0.0
 10
-3.4263100000000004
 20
4.5536500000000002
 30
0.0
 10
-1.6660900000000001
 20
5.0870500000000005
 30
0.0
 10
-0.35545
 20
5.1835700000000005
 30
0.0
  0
SPLINE
  5
26
100
AcDbEntity
  8
Ebene 1
 62
     7
100
AcDbSpline
210
0.0
220
0.0
230
1.0
 70
     1
 71
     3
 72
   212
 73
   208
 74
     0
 42
0.0000000001
 43
0.0000000001
 40
0.0
 40
0.0
 40
0.0
 40
0.0
 40
0.0192307692307692
 40
0.0192307692307692
 40
0.0192307692307692
 40
0.0192307692307692
 40
0.0384615384615385
 40
0.0384615384615385
 40
0.0384615384615385
 40
0.0384615384615385
 40
0.0576923076923077
 40
0.0576923076923077
 40
0.0576923076923077
 40
0.0576923076923077
 40
0.0769230769230769
 40
0.0769230769230769
 40
0.0769230769230769
 40
0.0769230769230769
 40
0.0961538461538462
 40
0.0961538461538462
 40
0.0961538461538462
 40
0.0961538461538462
 40
0.1153846153846154
 40
0.1153846153846154
 40
0.1153846153846154
 40
0.1153846153846154
 40
0.1346153846153846
 40
0.1346153846153846
 40
0.1346153846153846
 40
0.1346153846153846
 40
0.1538461538461539
 40
0.1538461538461539
 40
0.1538461538461539
 40
0.1538461538461539
 40
0.1730769230769231
 40
0.1730769230769231
 40
0.1730769230769231
 40
0.1730769230769231
 40
0.1923076923076923
 40
0.1923076923076923
 40
0.1923076923076923
 40
0.1923076923076923
 40
0.2115384615384615
 40
0.2115384615384615
 40
0.2115384615384615
 40
0.2115384615384615
 40
0.2307692307692307
 40
0.2307692307692307
 40
0.2307692307692307
 40
0.2307692307692307
 40
0.2499999999999999
 40
0.2499999999999999
 40
0.2499999999999999
 40
0.2499999999999999
 40
0.2692307692307692
 40
0.2692307692307692
 40
0.2692307692307692
 40
0.2692307692307692
 40
0.2884615384615384
 40
0.2884615384615384
 40
0.2884615384615384
 40
0.2884615384615384
 40
0.3076923076923076
 40
0.3076923076923076
 40
0.3076923076923076
 40
0.3076923076923076
 40
0.3269230769230768
 40
0.3269230769230768
 40
0.3269230769230768
 40
0.3269230769230768
 40
0.346153846153846
 40
0.346153846153846
 40
0.346153846153846
 40
0.346153846153846
 40
0.3653846153846153
 40
0.3653846153846153
 40
0.3653846153846153
 40
0.3653846153846153
 40
0.3846153846153845
 40
0.3846153846153845
 40
0.3846153846153845
 40
0.3846153846153845
 40
0.4038461538461537
 40
0.4038461538461537
 40
0.4038461538461537
 40
0.4038461538461537
 40
0.4230769230769229
 40
0.4230769230769229
 40
0.4230769230769229
 40
0.4230769230769229
 40
0.4423076923076921
 40
0.4423076923076921
 40
0.4423076923076921
 40
0.4423076923076921
 40
0.4615384615384613
 40
0.4615384615384613
 40
0.4615384615384613
 40
0.4615384615384613
 40
0.4807692307692306
 40
0.4807692307692306
 40
0.4807692307692306
 40
0.4807692307692306
 40
0.4999999999999998
 40
0.4999999999999998
 40
0.4999999999999998
 40
0.4999999999999998
 40
0.5192307692307691
 40
0.5192307692307691
 40
0.5192307692307691
 40
0.5192307692307691
 40
0.5384615384615383
 40
0.5384615384615383
 40
0.5384615384615383
 40
0.5384615384615383
 40
0.5576923076923076
 40
0.5576923076923076
 40
0.5576923076923076
 40
0.5576923076923076
 40
0.5769230769230769
 40
0.5769230769230769
 40
0.5769230769230769
 40
0.5769230769230769
 40
0.5961538461538462
 40
0.5961538461538462
 40
0.5961538461538462
 40
0.5961538461538462
 40
0.6153846153846154
 40
0.6153846153846154
 40
0.6153846153846154
 40
0.6153846153846154
 40
0.6346153846153847
 40
0.6346153846153847
 40
0.6346153846153847
 40
0.6346153846153847
 40
0.653846153846154
 40
0.653846153846154
 40
0.653846153846154
 40
0.653846153846154
 40
0.6730769230769232
 40
0.6730769230769232
 40
0.6730769230769232
 40
0.6730769230769232
 40
0.6923076923076925
 40
0.6923076923076925
 40
0.6923076923076925
 40
0.6923076923076925
 40
0.7115384615384618
 40
0.7115384615384618
 40
0.7115384615384618
 40
0.7115384615384618
 40
0.7307692307692311
 40
0.7307692307692311
 40
0.7307692307692311
 40
0.7307692307692311
 40
0.7500000000000003
 40
0.7500000000000003
 40
0.7500000000000003
 40
0.7500000000000003
 40
0.7692307692307696
 40
0.7692307692307696
 40
0.7692307692307696
 40
0.7692307692307696
 40
0.7884615384615389
 40
0.7884615384615389
 40
0.7884615384615389
 40
0.7884615384615389
 40
0.8076923076923082
 40
0.8076923076923082
 40
0.8076923076923082
 40
0.8076923076923082
 40
0.8269230769230774
 40
0.8269230769230774
 40
0.8269230769230774
 40
0.8269230769230774
 40
0.8461538461538467
 40
0.8461538461538467
 40
0.8461538461538467
 40
0.8461538461538467
 40
0.865384615384616
 40
0.865384615384616
 40
0.865384615384616
 40
0.865384615384616
 40
0.8846153846153853
 40
0.8846153846153853
 40
0.8846153846153853
 40
0.8846153846153853
 40
0.9038461538461545
 40
0.9038461538461545
 40
0.9038461538461545
 40
0.9038461538461545
 40
0.9230769230769238
 40
0.9230769230769238
 40
0.9230769230769238
 40
0.9230769230769238
 40
0.9423076923076931
 40
0.9423076923076931
 40
0.9423076923076931
 40
0.9423076923076931
 40
0.9615384615384623
 40
0.9615384615384623
 40
0.9615384615384623
 40
0.9615384615384623
 40
0.9807692307692316
 40
0.9807692307692316
 40
0.9807692307692316
 40
0.9807692307692316
 40
1.0
 40
1.0
 40
1.0
 40
1.0
 10
3.0633800000000004
 20
3.3065100000000003
 30
0.0
 10
2.7585800000000003
 20
3.7027500000000004
 30
0.0
 10
2.3471000000000002
 20
4.0710500000000005
 30
0.0
 10
1.9254600000000002
 20
4.2818700000000005
 30
0.0
 10
1.9254600000000002
 20
4.2818700000000005
 30
0.0
 10
1.8416400000000002
 20
4.3225100000000003
 30
0.0
 10
1.5038200000000002
 20
4.5409500000000005
 30
0.0
 10
1.6892400000000001
 20
4.3301300000000005
 30
0.0
 10
1.6892400000000001
 20
4.3301300000000005
 30
0.0
 10
2.4309200000000004
 20
3.8932500000000001
 30
0.0
 10
3.1192600000000001
 20
3.2201500000000003
 30
0.0
 10
3.3986600000000005
 20
2.38449
 30
0.0
 10
3.3986600000000005
 20
2.38449
 30
0.0
 10
3.4418400000000005
 20
2.3082900000000004
 30
0.0
 10
3.4824800000000002
 20
2.1889100000000004
 30
0.0
 10
3.5536000000000003
 20
2.1609700000000003
 30
0.0
 10
3.5536000000000003
 20
2.1609700000000003
 30
0.0
 10
3.5815400000000004
 20
2.2397100000000001
 30
0.0
 10
3.4545400000000002
 20
2.3108300000000002
 30
0.0
 10
3.4824800000000002
 20
2.4048100000000003
 30
0.0
 10
3.4824800000000002
 20
2.4048100000000003
 30
0.0
 10
3.4418400000000005
 20
2.51403
 30
0.0
 10
3.3859600000000003
 20
2.63341
 30
0.0
 10
3.3580200000000002
 20
2.7451700000000003
 30
0.0
 10
3.3580200000000002
 20
2.7451700000000003
 30
0.0
 10
3.4418400000000005
 20
2.6613500000000001
 30
0.0
 10
3.5383600000000004
 20
2.5775300000000003
 30
0.0
 10
3.5663000000000005
 20
2.4683100000000002
 30
0.0
 10
3.5663000000000005
 20
2.4683100000000002
 30
0.0
 10
3.6933000000000002
 20
2.13557
 30
0.0
 10
3.7644200000000003
 20
1.7774300000000001
 30
0.0
 10
3.6806000000000001
 20
1.4167500000000002
 30
0.0
 10
3.6806000000000001
 20
1.4167500000000002
 30
0.0
 10
3.5383600000000004
 20
1.5793100000000002
 30
0.0
 10
3.4443800000000002
 20
2.00095
 30
0.0
 10
3.3021400000000001
 20
2.3006700000000002
 30
0.0
 10
3.3021400000000001
 20
2.3006700000000002
 30
0.0
 10
3.2335600000000002
 20
2.4429100000000004
 30
0.0
 10
3.1802200000000003
 20
2.5648300000000002
 30
0.0
 10
3.2538800000000001
 20
2.3336900000000003
 30
0.0
 10
3.2538800000000001
 20
2.3336900000000003
 30
0.0
 10
3.4418400000000005
 20
1.7596500000000002
 30
0.0
 10
3.5663000000000005
 20
1.3354700000000002
 30
0.0
 10
3.4824800000000002
 20
0.6471300000000001
 30
0.0
 10
3.4824800000000002
 20
0.6471300000000001
 30
0.0
 10
3.2640400000000001
 20
1.02559
 30
0.0
 10
3.1929200000000004
 20
1.4954900000000002
 30
0.0
 10
3.0176600000000002
 20
1.9018900000000001
 30
0.0
 10
3.0176600000000002
 20
1.9018900000000001
 30
0.0
 10
2.8957400000000004
 20
2.1889100000000004
 30
0.0
 10
2.9211400000000003
 20
2.1152500000000001
 30
0.0
 10
2.9897200000000002
 20
1.8714100000000002
 30
0.0
 10
2.9897200000000002
 20
1.8714100000000002
 30
0.0
 10
3.0710000000000002
 20
1.5793100000000002
 30
0.0
 10
3.1675200000000001
 20
1.2821300000000002
 30
0.0
 10
3.2030800000000004
 20
0.99765
 30
0.0
 10
3.2030800000000004
 20
0.99765
 30
0.0
 10
2.7966800000000003
 20
1.4827900000000001
 30
0.0
 10
2.4741000000000004
 20
2.0314300000000003
 30
0.0
 10
2.0118200000000002
 20
2.4886300000000001
 30
0.0
 10
2.0118200000000002
 20
2.4886300000000001
 30
0.0
 10
2.0118200000000002
 20
2.4886300000000001
 30
0.0
 10
1.8441800000000002
 20
2.63341
 30
0.0
 10
1.8441800000000002
 20
2.63341
 30
0.0
 10
1.8441800000000002
 20
2.63341
 30
0.0
 10
1.6333600000000001
 20
2.8569300000000002
 30
0.0
 10
1.5622400000000001
 20
2.7731100000000004
 30
0.0
 10
1.8162400000000001
 20
2.6054700000000004
 30
0.0
 10
1.8162400000000001
 20
2.6054700000000004
 30
0.0
 10
2.1388200000000004
 20
2.3057500000000002
 30
0.0
 10
2.37758
 20
1.9196700000000002
 30
0.0
 10
2.4893400000000003
 20
1.5158100000000001
 30
0.0
 10
2.4893400000000003
 20
1.5158100000000001
 30
0.0
 10
1.8441800000000002
 20
1.8891900000000001
 30
0.0
 10
1.02884
 20
2.1762100000000002
 30
0.0
 10
0.5386200000000001
 20
2.80105
 30
0.0
 10
0.5386200000000001
 20
2.80105
 30
0.0
 10
-0.04557
 20
3.1947500000000004
 30
0.0
 10
-0.9015500000000001
 20
3.3750900000000001
 30
0.0
 10
-1.12507
 20
4.1320100000000002
 30
0.0
 10
-1.12507
 20
4.1320100000000002
 30
0.0
 10
-1.1961900000000001
 20
4.1599500000000003
 30
0.0
 10
-1.20889
 20
4.28695
 30
0.0
 10
-1.3079500000000002
 20
4.2717100000000006
 30
0.0
 10
-1.3079500000000002
 20
4.2717100000000006
 30
0.0
 10
-1.0971300000000002
 20
3.8932500000000001
 30
0.0
 10
-0.86599
 20
3.1795100000000001
 30
0.0
 10
-0.4595900000000001
 20
3.0804500000000004
 30
0.0
 10
-0.4595900000000001
 20
3.0804500000000004
 30
0.0
 10
-0.48753
 20
3.1566500000000004
 30
0.0
 10
-0.5662700000000001
 20
3.2074500000000001
 30
0.0
 10
-0.6069100000000001
 20
3.2633300000000003
 30
0.0
 10
-0.6069100000000001
 20
3.2633300000000003
 30
0.0
 10
-0.29957
 20
3.1515700000000004
 30
0.0
 10
-0.01763
 20
2.9407500000000004
 30
0.0
 10
0.3024
 20
2.8416900000000003
 30
0.0
 10
0.3024
 20
2.8416900000000003
 30
0.0
 10
0.3024
 20
2.8416900000000003
 30
0.0
 10
0.5386200000000001
 20
2.7019900000000003
 30
0.0
 10
0.5386200000000001
 20
2.7019900000000003
 30
0.0
 10
0.5386200000000001
 20
2.7019900000000003
 30
0.0
 10
0.7088000000000001
 20
2.24987
 30
0.0
 10
1.6054200000000001
 20
2.0593700000000004
 30
0.0
 10
1.9559400000000002
 20
1.4675500000000001
 30
0.0
 10
1.9559400000000002
 20
1.4675500000000001
 30
0.0
 10
1.8721200000000002
 20
1.5031100000000002
 30
0.0
 10
1.8010000000000002
 20
1.57423
 30
0.0
 10
1.7451200000000002
 20
1.6351900000000001
 30
0.0
 10
1.7451200000000002
 20
1.6351900000000001
 30
0.0
 10
1.6613000000000002
 20
1.6758300000000002
 30
0.0
 10
1.5901800000000001
 20
1.6859900000000001
 30
0.0
 10
1.5063600000000001
 20
1.7113900000000002
 30
0.0
 10
1.5063600000000001
 20
1.7113900000000002
 30
0.0
 10
1.1710800000000001
 20
1.9704700000000002
 30
0.0
 10
0.785
 20
2.1533500000000001
 30
0.0
 10
0.40146
 20
2.3108300000000002
 30
0.0
 10
0.40146
 20
2.3108300000000002
 30
0.0
 10
0.04078
 20
2.46069
 30
0.0
 10
-0.17765
 20
2.5318100000000001
 30
0.0
 10
0.28208
 20
2.2752700000000003
 30
0.0
 10
0.28208
 20
2.2752700000000003
 30
0.0
 10
0.7392800000000001
 20
2.0212700000000003
 30
0.0
 10
1.3387200000000001
 20
1.8485500000000001
 30
0.0
 10
1.6333600000000001
 20
1.3888100000000001
 30
0.0
 10
1.6333600000000001
 20
1.3888100000000001
 30
0.0
 10
1.5343000000000002
 20
1.39897
 30
0.0
 10
1.4377800000000001
 20
1.4523100000000002
 30
0.0
 10
1.3539600000000001
 20
1.4980300000000002
 30
0.0
 10
1.3539600000000001
 20
1.4980300000000002
 30
0.0
 10
1.1990200000000002
 20
1.5081900000000001
 30
0.0
 10
1.0440800000000001
 20
1.5081900000000001
 30
0.0
 10
0.9043800000000001
 20
1.5386700000000002
 30
0.0
 10
0.9043800000000001
 20
1.5386700000000002
 30
0.0
 10
-0.12939
 20
1.3761100000000002
 30
0.0
 10
-1.0133100000000002
 20
2.0568300000000002
 30
0.0
 10
-1.29271
 20
3.0245700000000002
 30
0.0
 10
-1.29271
 20
3.0245700000000002
 30
0.0
 10
-1.4070100000000001
 20
3.1947500000000004
 30
0.0
 10
-1.46543
 20
3.4462100000000002
 30
0.0
 10
-1.6533900000000001
 20
3.5300300000000004
 30
0.0
 10
-1.6533900000000001
 20
3.5300300000000004
 30
0.0
 10
-1.6533900000000001
 20
3.5300300000000004
 30
0.0
 10
-1.41971
 20
3.1236300000000004
 30
0.0
 10
-1.41971
 20
3.1236300000000004
 30
0.0
 10
-1.41971
 20
3.1236300000000004
 30
0.0
 10
-1.2393700000000001
 20
2.7172300000000003
 30
0.0
 10
-1.0971300000000002
 20
2.2879700000000001
 30
0.0
 10
-0.80249
 20
1.9349100000000001
 30
0.0
 10
-0.80249
 20
1.9349100000000001
 30
0.0
 10
-0.80249
 20
1.9349100000000001
 30
0.0
 10
-1.00061
 20
2.04921
 30
0.0
 10
-1.00061
 20
2.04921
 30
0.0
 10
-1.00061
 20
2.04921
 30
0.0
 10
-1.63053
 20
2.59023
 30
0.0
 10
-2.5982700000000003
 20
3.3065100000000003
 30
0.0
 10
-2.2426700000000004
 20
4.25901
 30
0.0
 10
-2.2426700000000004
 20
4.25901
 30
0.0
 10
-2.2426700000000004
 20
4.25901
 30
0.0
 10
-2.1359900000000001
 20
4.2996500000000006
 30
0.0
 10
-2.1359900000000001
 20
4.2996500000000006
 30
0.0
 10
-2.1359900000000001
 20
4.2996500000000006
 30
0.0
 10
-2.1588500000000002
 20
4.4266500000000004
 30
0.0
 10
-2.2299700000000002
 20
4.5104700000000006
 30
0.0
 10
-2.1588500000000002
 20
4.6374700000000004
 30
0.0
 10
-2.1588500000000002
 20
4.6374700000000004
 30
0.0
 10
-1.7854700000000001
 20
4.80511
 30
0.0
 10
-1.29271
 20
4.7212900000000007
 30
0.0
 10
-0.9574300000000001
 20
4.4825300000000006
 30
0.0
 10
-0.9574300000000001
 20
4.4825300000000006
 30
0.0
 10
-0.9574300000000001
 20
4.4825300000000006
 30
0.0
 10
-0.88631
 20
4.4825300000000006
 30
0.0
 10
-0.88631
 20
4.4825300000000006
 30
0.0
 10
-0.88631
 20
4.4825300000000006
 30
0.0
 10
-1.0564900000000002
 20
4.6781100000000002
 30
0.0
 10
-1.37907
 20
4.7085900000000001
 30
0.0
 10
-1.5848100000000001
 20
4.8330500000000001
 30
0.0
 10
-1.5848100000000001
 20
4.8330500000000001
 30
0.0
 10
-1.20889
 20
5.0464100000000007
 30
0.0
 10
-0.75931
 20
4.9549700000000003
 30
0.0
 10
-0.41133
 20
4.6958900000000003
 30
0.0
 10
-0.41133
 20
4.6958900000000003
 30
0.0
 10
0.06364
 20
4.3377500000000007
 30
0.0
 10
-0.01509
 20
4.5282500000000008
 30
0.0
 10
-0.4392700000000001
 20
4.8152700000000008
 30
0.0
 10
-0.4392700000000001
 20
4.8152700000000008
 30
0.0
 10
-0.4392700000000001
 20
4.8152700000000008
 30
0.0
 10
-0.6907300000000001
 20
4.9879900000000008
 30
0.0
 10
-0.6907300000000001
 20
4.9879900000000008
 30
0.0
 10
-0.6907300000000001
 20
4.9879900000000008
 30
0.0
 10
-0.03287
 20
5.14039
 30
0.0
 10
0.6656200000000001
 20
4.9041700000000006
 30
0.0
 10
1.2549000000000001
 20
4.59429
 30
0.0
 10
1.2549000000000001
 20
4.59429
 30
0.0
 10
1.2828400000000002
 20
4.5815900000000003
 30
0.0
 10
1.2955400000000001
 20
4.6095300000000003
 30
0.0
 10
1.2828400000000002
 20
4.6374700000000004
 30
0.0
 10
1.2828400000000002
 20
4.6374700000000004
 30
0.0
 10
1.0034400000000001
 20
4.80511
 30
0.0
 10
0.8205600000000001
 20
4.9752900000000002
 30
0.0
 10
0.49798
 20
5.0565700000000007
 30
0.0
 10
0.49798
 20
5.0565700000000007
 30
0.0
 10
0.49798
 20
5.0565700000000007
 30
0.0
 10
0.8612000000000001
 20
5.0311700000000004
 30
0.0
 10
0.8612000000000001
 20
5.0311700000000004
 30
0.0
 10
0.8612000000000001
 20
5.0311700000000004
 30
0.0
 10
1.8010000000000002
 20
4.7924100000000003
 30
0.0
 10
2.6290400000000003
 20
4.1878900000000003
 30
0.0
 10
3.0633800000000004
 20
3.3065100000000003
 30
0.0
  0
SPLINE
  5
27
100
AcDbEntity
  8
Ebene 1
 62
     7
100
AcDbSpline
210
0.0
220
0.0
230
1.0
 70
     1
 71
     3
 72
    40
 73
    36
 74
     0
 42
0.0000000001
 43
0.0000000001
 40
0.0
 40
0.0
 40
0.0
 40
0.0
 40
0.1111111111111111
 40
0.1111111111111111
 40
0.1111111111111111
 40
0.1111111111111111
 40
0.2222222222222222
 40
0.2222222222222222
 40
0.2222222222222222
 40
0.2222222222222222
 40
0.3333333333333333
 40
0.3333333333333333
 40
0.3333333333333333
 40
0.3333333333333333
 40
0.4444444444444444
 40
0.4444444444444444
 40
0.4444444444444444
 40
0.4444444444444444
 40
0.5555555555555556
 40
0.5555555555555556
 40
0.5555555555555556
 40
0.5555555555555556
 40
0.6666666666666667
 40
0.6666666666666667
 40
0.6666666666666667
 40
0.6666666666666667
 40
0.7777777777777779
 40
0.7777777777777779
 40
0.7777777777777779
 40
0.7777777777777779
 40
0.8888888888888891
 40
0.8888888888888891
 40
0.8888888888888891
 40
0.8888888888888891
 40
1.0
 40
1.0
 40
1.0
 40
1.0
 10
-2.3163300000000002
 20
4.46983
 30
0.0
 10
-2.48651
 20
4.1040700000000001
 30
0.0
 10
-2.4966700000000004
 20
3.5986100000000003
 30
0.0
 10
-2.27569
 20
3.2201500000000003
 30
0.0
 10
-2.27569
 20
3.2201500000000003
 30
0.0
 10
-2.1232900000000003
 20
2.9559900000000003
 30
0.0
 10
-1.8591300000000002
 20
2.75787
 30
0.0
 10
-1.6889500000000002
 20
2.4962500000000003
 30
0.0
 10
-1.6889500000000002
 20
2.4962500000000003
 30
0.0
 10
-1.7600700000000002
 20
2.5216500000000002
 30
0.0
 10
-1.8261100000000001
 20
2.5775300000000003
 30
0.0
 10
-1.8845300000000003
 20
2.63341
 30
0.0
 10
-1.8845300000000003
 20
2.63341
 30
0.0
 10
-2.44333
 20
2.8848700000000003
 30
0.0
 10
-2.9995900000000004
 20
3.6138500000000002
 30
0.0
 10
-2.7100300000000002
 20
4.2031300000000007
 30
0.0
 10
-2.7100300000000002
 20
4.2031300000000007
 30
0.0
 10
-2.6998700000000002
 20
4.25901
 30
0.0
 10
-2.77861
 20
4.2158300000000004
 30
0.0
 10
-2.7887700000000004
 20
4.2437700000000005
 30
0.0
 10
-2.7887700000000004
 20
4.2437700000000005
 30
0.0
 10
-2.7887700000000004
 20
4.2437700000000005
 30
0.0
 10
-2.52969
 20
4.4418900000000008
 30
0.0
 10
-2.52969
 20
4.4418900000000008
 30
0.0
 10
-2.52969
 20
4.4418900000000008
 30
0.0
 10
-2.52969
 20
4.38347
 30
0.0
 10
-2.57287
 20
4.3555300000000008
 30
0.0
 10
-2.5982700000000003
 20
4.3148900000000001
 30
0.0
 10
-2.5982700000000003
 20
4.3148900000000001
 30
0.0
 10
-2.6008100000000001
 20
4.2158300000000004
 30
0.0
 10
-2.6795500000000003
 20
4.07613
 30
0.0
 10
-2.6160500000000004
 20
3.9923100000000002
 30
0.0
 10
-2.6160500000000004
 20
3.9923100000000002
 30
0.0
 10
-2.56271
 20
4.1751900000000006
 30
0.0
 10
-2.4738100000000003
 20
4.3555300000000008
 30
0.0
 10
-2.3163300000000002
 20
4.46983
 30
0.0
  0
SPLINE
  5
28
100
AcDbEntity
  8
Ebene 1
100
AcDbSpline
210
0.0
220
0.0
230
1.0
 70
     1
 71
     3
 72
    24
 73
    20
 74
     0
 42
0.0000000001
 43
0.0000000001
 40
0.0
 40
0.0
 40
0.0
 40
0.0
 40
0.2
 40
0.2
 40
0.2
 40
0.2
 40
0.4
 40
0.4
 40
0.4
 40
0.4
 40
0.6000000000000001
 40
0.6000000000000001
 40
0.6000000000000001
 40
0.6000000000000001
 40
0.8
 40
0.8
 40
0.8
 40
0.8
 40
1.0
 40
1.0
 40
1.0
 40
1.0
 10
0.48528
 20
4.38347
 30
0.0
 10
1.01614
 20
4.1751900000000006
 30
0.0
 10
1.5901800000000001
 20
4.07613
 30
0.0
 10
2.0956400000000004
 20
3.8094300000000003
 30
0.0
 10
2.0956400000000004
 20
3.8094300000000003
 30
0.0
 10
2.2785200000000003
 20
3.4868500000000004
 30
0.0
 10
2.6011000000000002
 20
3.2353900000000002
 30
0.0
 10
2.7687400000000002
 20
2.9128100000000003
 30
0.0
 10
2.7687400000000002
 20
2.9128100000000003
 30
0.0
 10
2.7687400000000002
 20
2.9128100000000003
 30
0.0
 10
2.5731600000000001
 20
3.0956900000000003
 30
0.0
 10
2.5731600000000001
 20
3.0956900000000003
 30
0.0
 10
2.5731600000000001
 20
3.0956900000000003
 30
0.0
 10
2.12358
 20
3.8373700000000004
 30
0.0
 10
1.2676000000000001
 20
3.9923100000000002
 30
0.0
 10
0.5386200000000001
 20
4.2996500000000006
 30
0.0
 10
0.5386200000000001
 20
4.2996500000000006
 30
0.0
 10
0.5386200000000001
 20
4.2996500000000006
 30
0.0
 10
0.48528
 20
4.38347
 30
0.0
 10
0.48528
 20
4.38347
 30
0.0
  0
SPLINE
  5
29
100
AcDbEntity
  8
Ebene 1
 62
     7
100
AcDbSpline
210
0.0
220
0.0
230
1.0
 70
     1
 71
     3
 72
   244
 73
   240
 74
     0
 42
0.0000000001
 43
0.0000000001
 40
0.0
 40
0.0
 40
0.0
 40
0.0
 40
0.0166666666666667
 40
0.0166666666666667
 40
0.0166666666666667
 40
0.0166666666666667
 40
0.0333333333333333
 40
0.0333333333333333
 40
0.0333333333333333
 40
0.0333333333333333
 40
0.05
 40
0.05
 40
0.05
 40
0.05
 40
0.0666666666666667
 40
0.0666666666666667
 40
0.0666666666666667
 40
0.0666666666666667
 40
0.0833333333333333
 40
0.0833333333333333
 40
0.0833333333333333
 40
0.0833333333333333
 40
0.1
 40
0.1
 40
0.1
 40
0.1
 40
0.1166666666666667
 40
0.1166666666666667
 40
0.1166666666666667
 40
0.1166666666666667
 40
0.1333333333333333
 40
0.1333333333333333
 40
0.1333333333333333
 40
0.1333333333333333
 40
0.15
 40
0.15
 40
0.15
 40
0.15
 40
0.1666666666666667
 40
0.1666666666666667
 40
0.1666666666666667
 40
0.1666666666666667
 40
0.1833333333333333
 40
0.1833333333333333
 40
0.1833333333333333
 40
0.1833333333333333
 40
0.2
 40
0.2
 40
0.2
 40
0.2
 40
0.2166666666666667
 40
0.2166666666666667
 40
0.2166666666666667
 40
0.2166666666666667
 40
0.2333333333333333
 40
0.2333333333333333
 40
0.2333333333333333
 40
0.2333333333333333
 40
0.25
 40
0.25
 40
0.25
 40
0.25
 40
0.2666666666666667
 40
0.2666666666666667
 40
0.2666666666666667
 40
0.2666666666666667
 40
0.2833333333333333
 40
0.2833333333333333
 40
0.2833333333333333
 40
0.2833333333333333
 40
0.3
 40
0.3
 40
0.3
 40
0.3
 40
0.3166666666666667
 40
0.3166666666666667
 40
0.3166666666666667
 40
0.3166666666666667
 40
0.3333333333333333
 40
0.3333333333333333
 40
0.3333333333333333
 40
0.3333333333333333
 40
0.35
 40
0.35
 40
0.35
 40
0.35
 40
0.3666666666666666
 40
0.3666666666666666
 40
0.3666666666666666
 40
0.3666666666666666
 40
0.3833333333333333
 40
0.3833333333333333
 40
0.3833333333333333
 40
0.3833333333333333
 40
0.4
 40
0.4
 40
0.4
 40
0.4
 40
0.4166666666666666
 40
0.4166666666666666
 40
0.4166666666666666
 40
0.4166666666666666
 40
0.4333333333333333
 40
0.4333333333333333
 40
0.4333333333333333
 40
0.4333333333333333
 40
0.45
 40
0.45
 40
0.45
 40
0.45
 40
0.4666666666666666
 40
0.4666666666666666
 40
0.4666666666666666
 40
0.4666666666666666
 40
0.4833333333333333
 40
0.4833333333333333
 40
0.4833333333333333
 40
0.4833333333333333
 40
0.4999999999999999
 40
0.4999999999999999
 40
0.4999999999999999
 40
0.4999999999999999
 40
0.5166666666666666
 40
0.5166666666666666
 40
0.5166666666666666
 40
0.5166666666666666
 40
0.5333333333333333
 40
0.5333333333333333
 40
0.5333333333333333
 40
0.5333333333333333
 40
0.55
 40
0.55
 40
0.55
 40
0.55
 40
0.5666666666666668
 40
0.5666666666666668
 40
0.5666666666666668
 40
0.5666666666666668
 40
0.5833333333333335
 40
0.5833333333333335
 40
0.5833333333333335
 40
0.5833333333333335
 40
0.6000000000000002
 40
0.6000000000000002
 40
0.6000000000000002
 40
0.6000000000000002
 40
0.6166666666666669
 40
0.6166666666666669
 40
0.6166666666666669
 40
0.6166666666666669
 40
0.6333333333333336
 40
0.6333333333333336
 40
0.6333333333333336
 40
0.6333333333333336
 40
0.6500000000000004
 40
0.6500000000000004
 40
0.6500000000000004
 40
0.6500000000000004
 40
0.6666666666666671
 40
0.6666666666666671
 40
0.6666666666666671
 40
0.6666666666666671
 40
0.6833333333333338
 40
0.6833333333333338
 40
0.6833333333333338
 40
0.6833333333333338
 40
0.7000000000000005
 40
0.7000000000000005
 40
0.7000000000000005
 40
0.7000000000000005
 40
0.7166666666666672
 40
0.7166666666666672
 40
0.7166666666666672
 40
0.7166666666666672
 40
0.733333333333334
 40
0.733333333333334
 40
0.733333333333334
 40
0.733333333333334
 40
0.7500000000000007
 40
0.7500000000000007
 40
0.7500000000000007
 40
0.7500000000000007
 40
0.7666666666666674
 40
0.7666666666666674
 40
0.7666666666666674
 40
0.7666666666666674
 40
0.7833333333333341
 40
0.7833333333333341
 40
0.7833333333333341
 40
0.7833333333333341
 40
0.8000000000000008
 40
0.8000000000000008
 40
0.8000000000000008
 40
0.8000000000000008
 40
0.8166666666666675
 40
0.8166666666666675
 40
0.8166666666666675
 40
0.8166666666666675
 40
0.8333333333333343
 40
0.8333333333333343
 40
0.8333333333333343
 40
0.8333333333333343
 40
0.850000000000001
 40
0.850000000000001
 40
0.850000000000001
 40
0.850000000000001
 40
0.8666666666666677
 40
0.8666666666666677
 40
0.8666666666666677
 40
0.8666666666666677
 40
0.8833333333333344
 40
0.8833333333333344
 40
0.8833333333333344
 40
0.8833333333333344
 40
0.9000000000000011
 40
0.9000000000000011
 40
0.9000000000000011
 40
0.9000000000000011
 40
0.9166666666666679
 40
0.9166666666666679
 40
0.9166666666666679
 40
0.9166666666666679
 40
0.9333333333333346
 40
0.9333333333333346
 40
0.9333333333333346
 40
0.9333333333333346
 40
0.9500000000000013
 40
0.9500000000000013
 40
0.9500000000000013
 40
0.9500000000000013
 40
0.966666666666668
 40
0.966666666666668
 40
0.966666666666668
 40
0.966666666666668
 40
0.9833333333333347
 40
0.9833333333333347
 40
0.9833333333333347
 40
0.9833333333333347
 40
1.0
 40
1.0
 40
1.0
 40
1.0
 10
-1.00569
 20
-2.9596600000000004
 30
0.0
 10
-1.00569
 20
-2.9698200000000003
 30
0.0
 10
-1.0666500000000001
 20
-3.0866600000000002
 30
0.0
 10
-1.00569
 20
-3.1400000000000001
 30
0.0
 10
-1.00569
 20
-3.1400000000000001
 30
0.0
 10
-1.03363
 20
-3.4219400000000002
 30
0.0
 10
-0.76185
 20
-3.6962600000000001
 30
0.0
 10
-0.9142500000000001
 20
-3.9401000000000002
 30
0.0
 10
-0.9142500000000001
 20
-3.9401000000000002
 30
0.0
 10
-0.99299
 20
-3.7521400000000003
 30
0.0
 10
-1.4146300000000001
 20
-2.4745200000000001
 30
0.0
 10
-1.1758700000000002
 20
-3.4346400000000004
 30
0.0
 10
-1.1758700000000002
 20
-3.4346400000000004
 30
0.0
 10
-1.1758700000000002
 20
-3.4346400000000004
 30
0.0
 10
-1.0691900000000001
 20
-3.8639000000000001
 30
0.0
 10
-1.0691900000000001
 20
-3.8639000000000001
 30
0.0
 10
-1.0691900000000001
 20
-3.8639000000000001
 30
0.0
 10
-1.2241300000000002
 20
-3.8359600000000005
 30
0.0
 10
-1.29271
 20
-3.9401000000000002
 30
0.0
 10
-1.3079500000000002
 20
-4.0620200000000004
 30
0.0
 10
-1.3079500000000002
 20
-4.0620200000000004
 30
0.0
 10
-1.4044700000000001
 20
-3.9705800000000004
 30
0.0
 10
-1.4730500000000002
 20
-3.9553400000000005
 30
0.0
 10
-1.5822700000000001
 20
-3.9731200000000002
 30
0.0
 10
-1.5822700000000001
 20
-3.9731200000000002
 30
0.0
 10
-1.6533900000000001
 20
-3.9858200000000004
 30
0.0
 10
-1.6889500000000002
 20
-4.1356800000000007
 30
0.0
 10
-1.75499
 20
-4.0925000000000002
 30
0.0
 10
-1.75499
 20
-4.0925000000000002
 30
0.0
 10
-1.9302500000000002
 20
-3.9756600000000004
 30
0.0
 10
-2.5017500000000004
 20
-4.1204400000000003
 30
0.0
 10
-2.4611100000000001
 20
-3.8715200000000003
 30
0.0
 10
-2.4611100000000001
 20
-3.8715200000000003
 30
0.0
 10
-2.3264900000000002
 20
-3.9477200000000003
 30
0.0
 10
-2.2121900000000001
 20
-3.9553400000000005
 30
0.0
 10
-2.1385300000000003
 20
-3.8867600000000002
 30
0.0
 10
-2.1385300000000003
 20
-3.8867600000000002
 30
0.0
 10
-2.0064500000000001
 20
-4.0163000000000002
 30
0.0
 10
-1.7905500000000001
 20
-3.8816800000000002
 30
0.0
 10
-1.6254500000000001
 20
-3.8867600000000002
 30
0.0
 10
-1.6254500000000001
 20
-3.8867600000000002
 30
0.0
 10
-1.6254500000000001
 20
-3.8867600000000002
 30
0.0
 10
-1.4070100000000001
 20
-3.8359600000000005
 30
0.0
 10
-1.4070100000000001
 20
-3.8359600000000005
 30
0.0
 10
-1.4070100000000001
 20
-3.8359600000000005
 30
0.0
 10
-1.33589
 20
-3.0485600000000002
 30
0.0
 10
-2.5322300000000002
 20
-2.3526000000000002
 30
0.0
 10
-2.4941300000000002
 20
-3.4448000000000003
 30
0.0
 10
-2.4941300000000002
 20
-3.4448000000000003
 30
0.0
 10
-2.6770100000000001
 20
-3.0333200000000002
 30
0.0
 10
-2.6414500000000003
 20
-2.56596
 30
0.0
 10
-2.86497
 20
-2.1875
 30
0.0
 10
-2.86497
 20
-2.1875
 30
0.0
 10
-2.8090900000000003
 20
-1.8547600000000002
 30
0.0
 10
-2.61097
 20
-2.69042
 30
0.0
 10
-2.4788900000000003
 20
-2.7615400000000001
 30
0.0
 10
-2.4788900000000003
 20
-2.7615400000000001
 30
0.0
 10
-2.3493500000000003
 20
-2.7082000000000002
 30
0.0
 10
-2.5652500000000003
 20
-2.2535400000000001
 30
0.0
 10
-2.3595100000000002
 20
-2.4110200000000002
 30
0.0
 10
-2.3595100000000002
 20
-2.4110200000000002
 30
0.0
 10
-2.2198100000000003
 20
-2.5202400000000003
 30
0.0
 10
-2.0724900000000002
 20
-2.6447000000000003
 30
0.0
 10
-1.9277100000000003
 20
-2.7285200000000001
 30
0.0
 10
-1.9277100000000003
 20
-2.7285200000000001
 30
0.0
 10
-1.9099300000000001
 20
-2.2281400000000002
 30
0.0
 10
-1.4349500000000002
 20
-1.8242800000000001
 30
0.0
 10
-1.4070100000000001
 20
-1.4026400000000001
 30
0.0
 10
-1.4070100000000001
 20
-1.4026400000000001
 30
0.0
 10
-1.1403100000000002
 20
-1.7531600000000001
 30
0.0
 10
-1.2241300000000002
 20
-1.4407400000000001
 30
0.0
 10
-1.41971
 20
-1.2299200000000001
 30
0.0
 10
-1.41971
 20
-1.2299200000000001
 30
0.0
 10
-1.9556500000000001
 20
-1.07498
 30
0.0
 10
-2.0775700000000001
 20
-0.8286000000000001
 30
0.0
 10
-1.5848100000000001
 20
-0.4374400000000001
 30
0.0
 10
-1.5848100000000001
 20
-0.4374400000000001
 30
0.0
 10
-1.7702300000000002
 20
-0.4272800000000001
 30
0.0
 10
-1.7753100000000002
 20
-0.4780800000000001
 30
0.0
 10
-1.9404100000000002
 20
-0.5593600000000001
 30
0.0
 10
-1.9404100000000002
 20
-0.5593600000000001
 30
0.0
 10
-2.02677
 20
-0.6812800000000001
 30
0.0
 10
-2.1613900000000004
 20
-0.84384
 30
0.0
 10
-2.1588500000000002
 20
-1.0064000000000002
 30
0.0
 10
-2.1588500000000002
 20
-1.0064000000000002
 30
0.0
 10
-2.05471
 20
-1.3366
 30
0.0
 10
-2.3696700000000002
 20
-1.5931400000000002
 30
0.0
 10
-2.5652500000000003
 20
-1.8319000000000001
 30
0.0
 10
-2.5652500000000003
 20
-1.8319000000000001
 30
0.0
 10
-3.2535900000000004
 20
-1.1892800000000001
 30
0.0
 10
-2.7278100000000003
 20
-0.1428
 30
0.0
 10
-2.0826500000000001
 20
0.28899
 30
0.0
 10
-2.0826500000000001
 20
0.28899
 30
0.0
 10
-2.7557500000000004
 20
-0.17582
 30
0.0
 10
-3.2180300000000002
 20
1.40659
 30
0.0
 10
-3.7565100000000005
 20
0.8985900000000001
 30
0.0
 10
-3.7565100000000005
 20
0.8985900000000001
 30
0.0
 10
-3.8174700000000001
 20
1.0560700000000001
 30
0.0
 10
-3.8835100000000002
 20
1.2160900000000001
 30
0.0
 10
-3.9571700000000005
 20
1.3710300000000002
 30
0.0
 10
-3.9571700000000005
 20
1.3710300000000002
 30
0.0
 10
-3.9673300000000005
 20
1.48533
 30
0.0
 10
-3.9546300000000003
 20
1.5945500000000001
 30
0.0
 10
-3.8962100000000004
 20
1.6910700000000001
 30
0.0
 10
-3.8962100000000004
 20
1.6910700000000001
 30
0.0
 10
-3.1977100000000003
 20
2.1609700000000003
 30
0.0
 10
-3.4999700000000002
 20
3.2201500000000003
 30
0.0
 10
-2.9614900000000004
 20
3.8526100000000003
 30
0.0
 10
-2.9614900000000004
 20
3.8526100000000003
 30
0.0
 10
-2.8827500000000001
 20
3.2912700000000004
 30
0.0
 10
-2.44333
 20
2.8696300000000003
 30
0.0
 10
-1.9835900000000002
 20
2.5622900000000004
 30
0.0
 10
-1.9835900000000002
 20
2.5622900000000004
 30
0.0
 10
-1.7499100000000001
 20
2.37941
 30
0.0
 10
-1.5213100000000002
 20
2.1558900000000003
 30
0.0
 10
-1.41971
 20
1.8891900000000001
 30
0.0
 10
-1.41971
 20
1.8891900000000001
 30
0.0
 10
-1.3638300000000001
 20
2.4886300000000001
 30
0.0
 10
-1.0133100000000002
 20
1.78251
 30
0.0
 10
-1.4451100000000001
 20
1.5869300000000002
 30
0.0
 10
-1.4451100000000001
 20
1.5869300000000002
 30
0.0
 10
-1.16317
 20
1.4827900000000001
 30
0.0
 10
-1.1377700000000002
 20
1.7571100000000002
 30
0.0
 10
-1.0082300000000002
 20
1.7317100000000001
 30
0.0
 10
-1.0082300000000002
 20
1.7317100000000001
 30
0.0
 10
-0.6500900000000001
 20
1.6656700000000002
 30
0.0
 10
-0.28433
 20
1.40405
 30
0.0
 10
0.06364
 20
1.5081900000000001
 30
0.0
 10
0.06364
 20
1.5081900000000001
 30
0.0
 10
0.06364
 20
1.5081900000000001
 30
0.0
 10
-0.3122700000000001
 20
1.1297300000000001
 30
0.0
 10
-0.3122700000000001
 20
1.1297300000000001
 30
0.0
 10
-0.3122700000000001
 20
1.1297300000000001
 30
0.0
 10
-0.6500900000000001
 20
0.8630300000000001
 30
0.0
 10
-1.0691900000000001
 20
-0.10978
 30
0.0
 10
-1.50607
 20
0.42869
 30
0.0
 10
-1.50607
 20
0.42869
 30
0.0
 10
-1.8515100000000002
 20
0.05785
 30
0.0
 10
-2.0394700000000001
 20
0.7385700000000001
 30
0.0
 10
-2.10805
 20
0.9925700000000001
 30
0.0
 10
-2.10805
 20
0.9925700000000001
 30
0.0
 10
-2.1385300000000003
 20
0.72587
 30
0.0
 10
-2.1639300000000001
 20
0.20517
 30
0.0
 10
-1.7422900000000001
 20
0.22041
 30
0.0
 10
-1.7422900000000001
 20
0.22041
 30
0.0
 10
-1.3917700000000002
 20
0.22549
 30
0.0
 10
-1.0564900000000002
 20
0.03753
 30
0.0
 10
-1.33589
 20
-0.3104400000000001
 30
0.0
 10
-1.33589
 20
-0.3104400000000001
 30
0.0
 10
-1.20889
 20
-0.3942600000000001
 30
0.0
 10
-1.1403100000000002
 20
0.06039
 30
0.0
 10
-1.0285500000000001
 20
0.13659
 30
0.0
 10
-1.0285500000000001
 20
0.13659
 30
0.0
 10
-0.45197
 20
-0.05898
 30
0.0
 10
0.0484
 20
-0.59492
 30
0.0
 10
0.7367400000000001
 20
-0.44506
 30
0.0
 10
0.7367400000000001
 20
-0.44506
 30
0.0
 10
0.6249800000000001
 20
-0.35108
 30
0.0
 10
0.37098
 20
-0.5009400000000001
 30
0.0
 10
0.24652
 20
-0.3333
 30
0.0
 10
0.24652
 20
-0.3333
 30
0.0
 10
0.8637400000000001
 20
-0.09708
 30
0.0
 10
1.5343000000000002
 20
0.01721
 30
0.0
 10
2.05246
 20
0.49219
 30
0.0
 10
2.05246
 20
0.49219
 30
0.0
 10
2.0829400000000002
 20
0.6674500000000001
 30
0.0
 10
1.7451200000000002
 20
0.39313
 30
0.0
 10
1.6054200000000001
 20
0.4210700000000001
 30
0.0
 10
1.6054200000000001
 20
0.4210700000000001
 30
0.0
 10
1.6333600000000001
 20
0.74619
 30
0.0
 10
1.4504800000000002
 20
1.03067
 30
0.0
 10
1.3666600000000002
 20
1.3253100000000002
 30
0.0
 10
1.3666600000000002
 20
1.3253100000000002
 30
0.0
 10
1.5901800000000001
 20
1.3862700000000001
 30
0.0
 10
1.9280000000000002
 20
0.9036700000000001
 30
0.0
 10
1.9686400000000002
 20
1.0890900000000001
 30
0.0
 10
1.9686400000000002
 20
1.0890900000000001
 30
0.0
 10
1.9686400000000002
 20
1.0890900000000001
 30
0.0
 10
1.8441800000000002
 20
1.3049900000000001
 30
0.0
 10
1.8441800000000002
 20
1.3049900000000001
 30
0.0
 10
1.8441800000000002
 20
1.3049900000000001
 30
0.0
 10
1.6206600000000002
 20
1.7774300000000001
 30
0.0
 10
2.3623400000000001
 20
0.8630300000000001
 30
0.0
 10
2.37758
 20
1.0382900000000002
 30
0.0
 10
2.37758
 20
1.0382900000000002
 30
0.0
 10
2.3344
 20
1.1602100000000002
 30
0.0
 10
2.2632800000000004
 20
1.2694300000000001
 30
0.0
 10
2.1947000000000001
 20
1.3811900000000001
 30
0.0
 10
2.1947000000000001
 20
1.3811900000000001
 30
0.0
 10
2.6849200000000004
 20
1.2465700000000002
 30
0.0
 10
2.8957400000000004
 20
0.22549
 30
0.0
 10
3.1599000000000004
 20
0.28137
 30
0.0
 10
3.1599000000000004
 20
0.28137
 30
0.0
 10
3.1599000000000004
 20
0.28137
 30
0.0
 10
2.7814400000000004
 20
1.3532500000000001
 30
0.0
 10
2.7814400000000004
 20
1.3532500000000001
 30
0.0
 10
2.7814400000000004
 20
1.3532500000000001
 30
0.0
 10
3.5663000000000005
 20
0.6242700000000001
 30
0.0
 10
3.8761800000000002
 20
-1.2324600000000001
 30
0.0
 10
2.4029800000000003
 20
-1.2324600000000001
 30
0.0
 10
2.4029800000000003
 20
-1.2324600000000001
 30
0.0
 10
2.2785200000000003
 20
-1.2578600000000002
 30
0.0
 10
2.1947000000000001
 20
-1.3518400000000002
 30
0.0
 10
2.0829400000000002
 20
-1.42042
 30
0.0
 10
2.0829400000000002
 20
-1.42042
 30
0.0
 10
1.6206600000000002
 20
-1.7938000000000001
 30
0.0
 10
0.7926200000000001
 20
-0.9784600000000001
 30
0.0
 10
0.68086
 20
-1.5372600000000001
 30
0.0
 10
0.68086
 20
-1.5372600000000001
 30
0.0
 10
0.5386200000000001
 20
-1.5906000000000002
 30
0.0
 10
0.3989200000000001
 20
-1.6922000000000001
 30
0.0
 10
0.25922
 20
-1.6083800000000001
 30
0.0
 10
0.25922
 20
-1.6083800000000001
 30
0.0
 10
0.1754
 20
-1.4636
 30
0.0
 10
0.02046
 20
-1.3112000000000001
 30
0.0
 10
0.09158
 20
-1.12578
 30
0.0
 10
0.09158
 20
-1.12578
 30
0.0
 10
0.63768
 20
-0.7752600000000001
 30
0.0
 10
1.6282800000000002
 20
-0.7778000000000001
 30
0.0
 10
2.2277200000000001
 20
-0.40696
 30
0.0
 10
2.2277200000000001
 20
-0.40696
 30
0.0
 10
2.4436200000000001
 20
-0.27488
 30
0.0
 10
2.7230200000000004
 20
0.05531
 30
0.0
 10
2.6290400000000003
 20
0.17723
 30
0.0
 10
2.6290400000000003
 20
0.17723
 30
0.0
 10
2.0677000000000003
 20
-0.78288
 30
0.0
 10
0.59704
 20
-0.4907800000000001
 30
0.0
 10
-0.12939
 20
-1.08006
 30
0.0
 10
-0.12939
 20
-1.08006
 30
0.0
 10
-0.12939
 20
-1.08006
 30
0.0
 10
0.06364
 20
-1.5144000000000002
 30
0.0
 10
0.06364
 20
-1.5144000000000002
 30
0.0
 10
0.06364
 20
-1.5144000000000002
 30
0.0
 10
0.0484
 20
-1.6439400000000002
 30
0.0
 10
-0.00493
 20
-1.7633200000000002
 30
0.0
 10
-0.07351
 20
-1.8598400000000002
 30
0.0
 10
-0.07351
 20
-1.8598400000000002
 30
0.0
 10
-0.6907300000000001
 20
-1.9157200000000001
 30
0.0
 10
-1.62799
 20
-2.3094200000000003
 30
0.0
 10
-1.00569
 20
-2.9596600000000004
 30
0.0
  0
SPLINE
  5
2A
100
AcDbEntity
  8
Ebene 1
100
AcDbSpline
210
0.0
220
0.0
230
1.0
 70
     1
 71
     3
 72
    16
 73
    12
 74
     0
 42
0.0000000001
 43
0.0000000001
 40
0.0
 40
0.0
 40
0.0
 40
0.0
 40
0.3333333333333333
 40
0.3333333333333333
 40
0.3333333333333333
 40
0.3333333333333333
 40
0.6666666666666666
 40
0.6666666666666666
 40
0.6666666666666666
 40
0.6666666666666666
 40
1.0
 40
1.0
 40
1.0
 40
1.0
 10
-3.1011900000000003
 20
2.1279500000000002
 30
0.0
 10
-2.8852900000000004
 20
1.8485500000000001
 30
0.0
 10
-2.5474700000000001
 20
1.7164700000000002
 30
0.0
 10
-2.3341100000000004
 20
1.4167500000000002
 30
0.0
 10
-2.3341100000000004
 20
1.4167500000000002
 30
0.0
 10
-2.60589
 20
1.5107300000000001
 30
0.0
 10
-2.8116300000000001
 20
1.7723500000000001
 30
0.0
 10
-3.0834100000000002
 20
1.8942700000000001
 30
0.0
 10
-3.0834100000000002
 20
1.8942700000000001
 30
0.0
 10
-3.0986500000000001
 20
1.9704700000000002
 30
0.0
 10
-3.1316700000000002
 20
2.0517500000000002
 30
0.0
 10
-3.1011900000000003
 20
2.1279500000000002
 30
0.0
  0
SPLINE
  5
2B
100
AcDbEntity
  8
Ebene 1
100
AcDbSpline
210
0.0
220
0.0
230
1.0
 70
     1
 71
     3
 72
    12
 73
     8
 74
     0
 42
0.0000000001
 43
0.0000000001
 40
0.0
 40
0.0
 40
0.0
 40
0.0
 40
0.5
 40
0.5
 40
0.5
 40
0.5
 40
1.0
 40
1.0
 40
1.0
 40
1.0
 10
-1.9378700000000002
 20
1.6504300000000001
 30
0.0
 10
-1.8921500000000002
 20
1.5437500000000002
 30
0.0
 10
-1.9658100000000001
 20
1.3862700000000001
 30
0.0
 10
-2.0191500000000002
 20
1.27705
 30
0.0
 10
-2.0191500000000002
 20
1.27705
 30
0.0
 10
-2.0470900000000003
 20
1.3964300000000001
 30
0.0
 10
-2.0293100000000002
 20
1.5513700000000001
 30
0.0
 10
-1.9378700000000002
 20
1.6504300000000001
 30
0.0
  0
SPLINE
  5
2C
100
AcDbEntity
  8
Ebene 1
 62
     7
100
AcDbSpline
210
0.0
220
0.0
230
1.0
 70
     1
 71
     3
 72
    24
 73
    20
 74
     0
 42
0.0000000001
 43
0.0000000001
 40
0.0
 40
0.0
 40
0.0
 40
0.0
 40
0.2
 40
0.2
 40
0.2
 40
0.2
 40
0.4
 40
0.4
 40
0.4
 40
0.4
 40
0.6000000000000001
 40
0.6000000000000001
 40
0.6000000000000001
 40
0.6000000000000001
 40
0.8
 40
0.8
 40
0.8
 40
0.8
 40
1.0
 40
1.0
 40
1.0
 40
1.0
 10
-3.6066500000000001
 20
0.9239900000000001
 30
0.0
 10
-3.5837900000000005
 20
0.9265300000000001
 30
0.0
 10
-3.5558500000000004
 20
0.9214500000000001
 30
0.0
 10
-3.5507700000000004
 20
0.89351
 30
0.0
 10
-3.5507700000000004
 20
0.89351
 30
0.0
 10
-3.6955500000000003
 20
0.6115700000000001
 30
0.0
 10
-3.4466300000000003
 20
0.27883
 30
0.0
 10
-3.5253700000000001
 20
-0.02342
 30
0.0
 10
-3.5253700000000001
 20
-0.02342
 30
0.0
 10
-3.5685500000000001
 20
0.07309
 30
0.0
 10
-3.5914100000000002
 20
0.20263
 30
0.0
 10
-3.6777700000000002
 20
0.29153
 30
0.0
 10
-3.6777700000000002
 20
0.29153
 30
0.0
 10
-3.6777700000000002
 20
0.29153
 30
0.0
 10
-3.7158700000000002
 20
0.80715
 30
0.0
 10
-3.7158700000000002
 20
0.80715
 30
0.0
 10
-3.7158700000000002
 20
0.80715
 30
0.0
 10
-3.7158700000000002
 20
0.80715
 30
0.0
 10
-3.6066500000000001
 20
0.9239900000000001
 30
0.0
 10
-3.6066500000000001
 20
0.9239900000000001
 30
0.0
  0
SPLINE
  5
2D
100
AcDbEntity
  8
Ebene 1
 62
     7
100
AcDbSpline
210
0.0
220
0.0
230
1.0
 70
     1
 71
     3
 72
    24
 73
    20
 74
     0
 42
0.0000000001
 43
0.0000000001
 40
0.0
 40
0.0
 40
0.0
 40
0.0
 40
0.2
 40
0.2
 40
0.2
 40
0.2
 40
0.4
 40
0.4
 40
0.4
 40
0.4
 40
0.6000000000000001
 40
0.6000000000000001
 40
0.6000000000000001
 40
0.6000000000000001
 40
0.8
 40
0.8
 40
0.8
 40
0.8
 40
1.0
 40
1.0
 40
1.0
 40
1.0
 10
-3.6091900000000003
 20
-0.11232
 30
0.0
 10
-3.5152100000000002
 20
-0.18852
 30
0.0
 10
-3.6041100000000004
 20
-0.50602
 30
0.0
 10
-3.4974300000000005
 20
-0.2698
 30
0.0
 10
-3.4974300000000005
 20
-0.2698
 30
0.0
 10
-3.4009100000000001
 20
-0.41966
 30
0.0
 10
-3.3018500000000004
 20
-0.5847600000000001
 30
0.0
 10
-3.1240500000000004
 20
-0.6203200000000001
 30
0.0
 10
-3.1240500000000004
 20
-0.6203200000000001
 30
0.0
 10
-2.9792700000000001
 20
-0.7524000000000001
 30
0.0
 10
-3.0478500000000004
 20
-0.9124200000000001
 30
0.0
 10
-3.0986500000000001
 20
-1.07498
 30
0.0
 10
-3.0986500000000001
 20
-1.07498
 30
0.0
 10
-3.0986500000000001
 20
-1.07498
 30
0.0
 10
-3.6320500000000004
 20
-0.7524000000000001
 30
0.0
 10
-3.6320500000000004
 20
-0.7524000000000001
 30
0.0
 10
-3.6320500000000004
 20
-0.7524000000000001
 30
0.0
 10
-3.7666700000000004
 20
-0.55428
 30
0.0
 10
-3.6422100000000004
 20
-0.32822
 30
0.0
 10
-3.6091900000000003
 20
-0.11232
 30
0.0
  0
SPLINE
  5
2E
100
AcDbEntity
  8
Ebene 1
 62
     7
100
AcDbSpline
210
0.0
220
0.0
230
1.0
 70
     1
 71
     3
 72
    16
 73
    12
 74
     0
 42
0.0000000001
 43
0.0000000001
 40
0.0
 40
0.0
 40
0.0
 40
0.0
 40
0.3333333333333333
 40
0.3333333333333333
 40
0.3333333333333333
 40
0.3333333333333333
 40
0.6666666666666666
 40
0.6666666666666666
 40
0.6666666666666666
 40
0.6666666666666666
 40
1.0
 40
1.0
 40
1.0
 40
1.0
 10
0.02046
 20
-1.9614400000000001
 30
0.0
 10
0.02046
 20
-1.9614400000000001
 30
0.0
 10
0.3024
 20
-2.3678400000000002
 30
0.0
 10
0.3024
 20
-2.3678400000000002
 30
0.0
 10
0.3024
 20
-2.3678400000000002
 30
0.0
 10
0.3024
 20
-2.3678400000000002
 30
0.0
 10
0.1881
 20
-2.6066000000000003
 30
0.0
 10
0.1881
 20
-2.6066000000000003
 30
0.0
 10
0.1881
 20
-2.6066000000000003
 30
0.0
 10
0.07634
 20
-2.4237200000000003
 30
0.0
 10
-0.04557
 20
-2.18242
 30
0.0
 10
0.02046
 20
-1.9614400000000001
 30
0.0
  0
SPLINE
  5
2F
100
AcDbEntity
  8
Ebene 1
 62
     7
100
AcDbSpline
210
0.0
220
0.0
230
1.0
 70
     1
 71
     3
 72
    20
 73
    16
 74
     0
 42
0.0000000001
 43
0.0000000001
 40
0.0
 40
0.0
 40
0.0
 40
0.0
 40
0.25
 40
0.25
 40
0.25
 40
0.25
 40
0.5
 40
0.5
 40
0.5
 40
0.5
 40
0.75
 40
0.75
 40
0.75
 40
0.75
 40
1.0
 40
1.0
 40
1.0
 40
1.0
 10
-0.18781
 20
-2.1163800000000004
 30
0.0
 10
-0.03287
 20
-2.2560800000000003
 30
0.0
 10
0.02046
 20
-2.5202400000000003
 30
0.0
 10
0.1881
 20
-2.6599400000000002
 30
0.0
 10
0.1881
 20
-2.6599400000000002
 30
0.0
 10
0.1881
 20
-2.6599400000000002
 30
0.0
 10
0.07634
 20
-2.65232
 30
0.0
 10
0.07634
 20
-2.65232
 30
0.0
 10
0.07634
 20
-2.65232
 30
0.0
 10
0.07634
 20
-2.65232
 30
0.0
 10
-0.03287
 20
-2.8047200000000001
 30
0.0
 10
-0.03287
 20
-2.8047200000000001
 30
0.0
 10
-0.03287
 20
-2.8047200000000001
 30
0.0
 10
-0.18781
 20
-2.6218400000000002
 30
0.0
 10
-0.27163
 20
-2.3526000000000002
 30
0.0
 10
-0.18781
 20
-2.1163800000000004
 30
0.0
  0
SPLINE
  5
30
100
AcDbEntity
  8
Ebene 1
 62
     7
100
AcDbSpline
210
0.0
220
0.0
230
1.0
 70
     1
 71
     3
 72
    80
 73
    76
 74
     0
 42
0.0000000001
 43
0.0000000001
 40
0.0
 40
0.0
 40
0.0
 40
0.0
 40
0.0526315789473684
 40
0.0526315789473684
 40
0.0526315789473684
 40
0.0526315789473684
 40
0.1052631578947368
 40
0.1052631578947368
 40
0.1052631578947368
 40
0.1052631578947368
 40
0.1578947368421053
 40
0.1578947368421053
 40
0.1578947368421053
 40
0.1578947368421053
 40
0.2105263157894737
 40
0.2105263157894737
 40
0.2105263157894737
 40
0.2105263157894737
 40
0.2631578947368421
 40
0.2631578947368421
 40
0.2631578947368421
 40
0.2631578947368421
 40
0.3157894736842105
 40
0.3157894736842105
 40
0.3157894736842105
 40
0.3157894736842105
 40
0.3684210526315789
 40
0.3684210526315789
 40
0.3684210526315789
 40
0.3684210526315789
 40
0.4210526315789474
 40
0.4210526315789474
 40
0.4210526315789474
 40
0.4210526315789474
 40
0.4736842105263158
 40
0.4736842105263158
 40
0.4736842105263158
 40
0.4736842105263158
 40
0.5263157894736842
 40
0.5263157894736842
 40
0.5263157894736842
 40
0.5263157894736842
 40
0.5789473684210527
 40
0.5789473684210527
 40
0.5789473684210527
 40
0.5789473684210527
 40
0.631578947368421
 40
0.631578947368421
 40
0.631578947368421
 40
0.631578947368421
 40
0.6842105263157894
 40
0.6842105263157894
 40
0.6842105263157894
 40
0.6842105263157894
 40
0.7368421052631577
 40
0.7368421052631577
 40
0.7368421052631577
 40
0.7368421052631577
 40
0.7894736842105261
 40
0.7894736842105261
 40
0.7894736842105261
 40
0.7894736842105261
 40
0.8421052631578945
 40
0.8421052631578945
 40
0.8421052631578945
 40
0.8421052631578945
 40
0.8947368421052628
 40
0.8947368421052628
 40
0.8947368421052628
 40
0.8947368421052628
 40
0.9473684210526312
 40
0.9473684210526312
 40
0.9473684210526312
 40
0.9473684210526312
 40
1.0
 40
1.0
 40
1.0
 40
1.0
 10
-0.73899
 20
-3.1146000000000003
 30
0.0
 10
-0.69581
 20
-3.3025600000000002
 30
0.0
 10
-0.55357
 20
-3.5413200000000002
 30
0.0
 10
-0.6069100000000001
 20
-3.7394400000000001
 30
0.0
 10
-0.6069100000000001
 20
-3.7394400000000001
 30
0.0
 10
-0.6069100000000001
 20
-3.7394400000000001
 30
0.0
 10
-0.7059700000000001
 20
-3.8131000000000004
 30
0.0
 10
-0.7059700000000001
 20
-3.8131000000000004
 30
0.0
 10
-0.7059700000000001
 20
-3.8131000000000004
 30
0.0
 10
-0.8126500000000001
 20
-3.6327600000000002
 30
0.0
 10
-1.12253
 20
-2.5456400000000001
 30
0.0
 10
-0.97267
 20
-2.3678400000000002
 30
0.0
 10
-0.97267
 20
-2.3678400000000002
 30
0.0
 10
-0.9447300000000001
 20
-2.5050000000000003
 30
0.0
 10
-0.7059700000000001
 20
-3.0282400000000003
 30
0.0
 10
-0.8177300000000001
 20
-2.6497800000000002
 30
0.0
 10
-0.8177300000000001
 20
-2.6497800000000002
 30
0.0
 10
-0.8177300000000001
 20
-2.4973800000000002
 30
0.0
 10
-0.97267
 20
-2.2916400000000001
 30
0.0
 10
-0.8177300000000001
 20
-2.1722600000000001
 30
0.0
 10
-0.8177300000000001
 20
-2.1722600000000001
 30
0.0
 10
-0.8177300000000001
 20
-2.1722600000000001
 30
0.0
 10
-0.71867
 20
-2.4110200000000002
 30
0.0
 10
-0.71867
 20
-2.4110200000000002
 30
0.0
 10
-0.71867
 20
-2.4110200000000002
 30
0.0
 10
-0.71867
 20
-2.4110200000000002
 30
0.0
 10
-0.6907300000000001
 20
-2.5202400000000003
 30
0.0
 10
-0.6907300000000001
 20
-2.5202400000000003
 30
0.0
 10
-0.6907300000000001
 20
-2.5202400000000003
 30
0.0
 10
-0.6907300000000001
 20
-2.5913600000000003
 30
0.0
 10
-0.6069100000000001
 20
-2.5862800000000004
 30
0.0
 10
-0.6069100000000001
 20
-2.6599400000000002
 30
0.0
 10
-0.6069100000000001
 20
-2.6599400000000002
 30
0.0
 10
-0.5230900000000001
 20
-2.5380200000000004
 30
0.0
 10
-0.7466100000000001
 20
-2.2586200000000001
 30
0.0
 10
-0.6069100000000001
 20
-2.14432
 30
0.0
 10
-0.6069100000000001
 20
-2.14432
 30
0.0
 10
-0.6069100000000001
 20
-2.14432
 30
0.0
 10
-0.50785
 20
-2.4211800000000001
 30
0.0
 10
-0.50785
 20
-2.4211800000000001
 30
0.0
 10
-0.50785
 20
-2.4211800000000001
 30
0.0
 10
-0.49515
 20
-2.43642
 30
0.0
 10
-0.4824500000000001
 20
-2.5075400000000001
 30
0.0
 10
-0.45197
 20
-2.4669000000000003
 30
0.0
 10
-0.45197
 20
-2.4669000000000003
 30
0.0
 10
-0.45197
 20
-2.3653000000000004
 30
0.0
 10
-0.50785
 20
-2.2560800000000003
 30
0.0
 10
-0.45197
 20
-2.1621000000000001
 30
0.0
 10
-0.45197
 20
-2.1621000000000001
 30
0.0
 10
-0.34021
 20
-2.4694400000000001
 30
0.0
 10
-0.01763
 20
-2.7691600000000003
 30
0.0
 10
-0.12939
 20
-3.0968200000000001
 30
0.0
 10
-0.12939
 20
-3.0968200000000001
 30
0.0
 10
-0.22845
 20
-3.0561800000000003
 30
0.0
 10
-0.25639
 20
-2.9520400000000002
 30
0.0
 10
-0.3122700000000001
 20
-2.8758400000000002
 30
0.0
 10
-0.3122700000000001
 20
-2.8758400000000002
 30
0.0
 10
-0.35545
 20
-2.8377400000000002
 30
0.0
 10
-0.42403
 20
-2.6345400000000003
 30
0.0
 10
-0.4392700000000001
 20
-2.7183600000000001
 30
0.0
 10
-0.4392700000000001
 20
-2.7183600000000001
 30
0.0
 10
-0.38339
 20
-2.9317200000000003
 30
0.0
 10
-0.07351
 20
-3.1273000000000004
 30
0.0
 10
-0.34021
 20
-3.2949400000000004
 30
0.0
 10
-0.34021
 20
-3.2949400000000004
 30
0.0
 10
-0.42403
 20
-3.1806400000000004
 30
0.0
 10
-0.41133
 20
-2.8733000000000004
 30
0.0
 10
-0.50785
 20
-2.8606000000000003
 30
0.0
 10
-0.50785
 20
-2.8606000000000003
 30
0.0
 10
-0.53579
 20
-3.1247600000000002
 30
0.0
 10
-0.24369
 20
-3.4575000000000005
 30
0.0
 10
-0.4824500000000001
 20
-3.6556200000000003
 30
0.0
 10
-0.4824500000000001
 20
-3.6556200000000003
 30
0.0
 10
-0.63231
 20
-3.1654000000000004
 30
0.0
 10
-0.8380500000000001
 20
-2.69042
 30
0.0
 10
-0.73899
 20
-3.1146000000000003
 30
0.0
  0
SPLINE
  5
31
100
AcDbEntity
  8
Ebene 1
 62
     7
100
AcDbSpline
210
0.0
220
0.0
230
1.0
 70
     1
 71
     3
 72
    16
 73
    12
 74
     0
 42
0.0000000001
 43
0.0000000001
 40
0.0
 40
0.0
 40
0.0
 40
0.0
 40
0.3333333333333333
 40
0.3333333333333333
 40
0.3333333333333333
 40
0.3333333333333333
 40
0.6666666666666666
 40
0.6666666666666666
 40
0.6666666666666666
 40
0.6666666666666666
 40
1.0
 40
1.0
 40
1.0
 40
1.0
 10
0.33034
 20
-2.4542000000000002
 30
0.0
 10
0.33034
 20
-2.4542000000000002
 30
0.0
 10
0.5386200000000001
 20
-2.7005800000000004
 30
0.0
 10
0.5386200000000001
 20
-2.7005800000000004
 30
0.0
 10
0.5386200000000001
 20
-2.7005800000000004
 30
0.0
 10
0.4421000000000001
 20
-2.7107400000000004
 30
0.0
 10
0.33034
 20
-2.7056600000000004
 30
0.0
 10
0.24652
 20
-2.6599400000000002
 30
0.0
 10
0.24652
 20
-2.6599400000000002
 30
0.0
 10
0.24652
 20
-2.6599400000000002
 30
0.0
 10
0.33034
 20
-2.4542000000000002
 30
0.0
 10
0.33034
 20
-2.4542000000000002
 30
0.0
  0
SPLINE
  5
32
100
AcDbEntity
  8
Ebene 1
 62
     7
100
AcDbSpline
210
0.0
220
0.0
230
1.0
 70
     1
 71
     3
 72
    16
 73
    12
 74
     0
 42
0.0000000001
 43
0.0000000001
 40
0.0
 40
0.0
 40
0.0
 40
0.0
 40
0.3333333333333333
 40
0.3333333333333333
 40
0.3333333333333333
 40
0.3333333333333333
 40
0.6666666666666666
 40
0.6666666666666666
 40
0.6666666666666666
 40
0.6666666666666666
 40
1.0
 40
1.0
 40
1.0
 40
1.0
 10
0.09158
 20
-2.7183600000000001
 30
0.0
 10
0.16016
 20
-2.7031200000000002
 30
0.0
 10
0.1881
 20
-2.7691600000000003
 30
0.0
 10
0.20334
 20
-2.8123400000000003
 30
0.0
 10
0.20334
 20
-2.8123400000000003
 30
0.0
 10
0.28716
 20
-2.8275800000000002
 30
0.0
 10
0.34304
 20
-2.9393400000000001
 30
0.0
 10
0.33034
 20
-2.9952200000000002
 30
0.0
 10
0.33034
 20
-2.9952200000000002
 30
0.0
 10
0.1881
 20
-2.9952200000000002
 30
0.0
 10
-0.08875
 20
-2.8682200000000004
 30
0.0
 10
0.09158
 20
-2.7183600000000001
 30
0.0
  0
SPLINE
  5
33
100
AcDbEntity
  8
Ebene 1
 62
     7
100
AcDbSpline
210
0.0
220
0.0
230
1.0
 70
     1
 71
     3
 72
    12
 73
     8
 74
     0
 42
0.0000000001
 43
0.0000000001
 40
0.0
 40
0.0
 40
0.0
 40
0.0
 40
0.5
 40
0.5
 40
0.5
 40
0.5
 40
1.0
 40
1.0
 40
1.0
 40
1.0
 10
-0.06081
 20
-2.9850600000000003
 30
0.0
 10
-0.00493
 20
-3.0206200000000001
 30
0.0
 10
0.14746
 20
-3.1450800000000001
 30
0.0
 10
0.20334
 20
-3.4016200000000003
 30
0.0
 10
0.20334
 20
-3.4016200000000003
 30
0.0
 10
0.00776
 20
-3.3432000000000004
 30
0.0
 10
-0.04811
 20
-3.1781000000000001
 30
0.0
 10
-0.06081
 20
-2.9850600000000003
 30
0.0
  0
SPLINE
  5
34
100
AcDbEntity
  8
Ebene 1
 62
     7
100
AcDbSpline
210
0.0
220
0.0
230
1.0
 70
     1
 71
     3
 72
    16
 73
    12
 74
     0
 42
0.0000000001
 43
0.0000000001
 40
0.0
 40
0.0
 40
0.0
 40
0.0
 40
0.3333333333333333
 40
0.3333333333333333
 40
0.3333333333333333
 40
0.3333333333333333
 40
0.6666666666666666
 40
0.6666666666666666
 40
0.6666666666666666
 40
0.6666666666666666
 40
1.0
 40
1.0
 40
1.0
 40
1.0
 10
-0.21575
 20
-3.2238200000000004
 30
0.0
 10
-0.21575
 20
-3.2238200000000004
 30
0.0
 10
-0.15733
 20
-3.2263600000000001
 30
0.0
 10
-0.15733
 20
-3.2263600000000001
 30
0.0
 10
-0.15733
 20
-3.2263600000000001
 30
0.0
 10
-0.03287
 20
-3.3940000000000001
 30
0.0
 10
0.06364
 20
-3.5768800000000005
 30
0.0
 10
0.09158
 20
-3.7800800000000003
 30
0.0
 10
0.09158
 20
-3.7800800000000003
 30
0.0
 10
-0.07351
 20
-3.6556200000000003
 30
0.0
 10
-0.38339
 20
-3.4702000000000002
 30
0.0
 10
-0.21575
 20
-3.2238200000000004
 30
0.0
  0
SPLINE
  5
35
100
AcDbEntity
  8
Ebene 1
 62
     7
100
AcDbSpline
210
0.0
220
0.0
230
1.0
 70
     1
 71
     3
 72
    12
 73
     8
 74
     0
 42
0.0000000001
 43
0.0000000001
 40
0.0
 40
0.0
 40
0.0
 40
0.0
 40
0.5
 40
0.5
 40
0.5
 40
0.5
 40
1.0
 40
1.0
 40
1.0
 40
1.0
 10
-0.35545
 20
-3.6175200000000003
 30
0.0
 10
-0.3122700000000001
 20
-3.6708600000000002
 30
0.0
 10
-0.27163
 20
-3.7419800000000003
 30
0.0
 10
-0.25639
 20
-3.8080200000000004
 30
0.0
 10
-0.25639
 20
-3.8080200000000004
 30
0.0
 10
-0.3122700000000001
 20
-3.7470600000000003
 30
0.0
 10
-0.4824500000000001
 20
-3.7013400000000005
 30
0.0
 10
-0.35545
 20
-3.6175200000000003
 30
0.0
  0
SPLINE
  5
36
100
AcDbEntity
  8
Ebene 1
 62
     7
100
AcDbSpline
210
0.0
220
0.0
230
1.0
 70
     1
 71
     3
 72
    16
 73
    12
 74
     0
 42
0.0000000001
 43
0.0000000001
 40
0.0
 40
0.0
 40
0.0
 40
0.0
 40
0.3333333333333333
 40
0.3333333333333333
 40
0.3333333333333333
 40
0.3333333333333333
 40
0.6666666666666666
 40
0.6666666666666666
 40
0.6666666666666666
 40
0.6666666666666666
 40
1.0
 40
1.0
 40
1.0
 40
1.0
 10
-0.5662700000000001
 20
-3.7851600000000003
 30
0.0
 10
-0.38339
 20
-3.8943800000000004
 30
0.0
 10
-0.41133
 20
-4.1814
 30
0.0
 10
-0.42403
 20
-4.3693600000000004
 30
0.0
 10
-0.42403
 20
-4.3693600000000004
 30
0.0
 10
-0.42403
 20
-4.3693600000000004
 30
0.0
 10
-0.6907300000000001
 20
-3.8867600000000002
 30
0.0
 10
-0.6907300000000001
 20
-3.8867600000000002
 30
0.0
 10
-0.6907300000000001
 20
-3.8867600000000002
 30
0.0
 10
-0.6627900000000001
 20
-3.8359600000000005
 30
0.0
 10
-0.6069100000000001
 20
-3.8105600000000002
 30
0.0
 10
-0.5662700000000001
 20
-3.7851600000000003
 30
0.0
  0
SPLINE
  5
37
100
AcDbEntity
  8
Ebene 1
 62
     7
100
AcDbSpline
210
0.0
220
0.0
230
1.0
 70
     1
 71
     3
 72
    20
 73
    16
 74
     0
 42
0.0000000001
 43
0.0000000001
 40
0.0
 40
0.0
 40
0.0
 40
0.0
 40
0.25
 40
0.25
 40
0.25
 40
0.25
 40
0.5
 40
0.5
 40
0.5
 40
0.5
 40
0.75
 40
0.75
 40
0.75
 40
0.75
 40
1.0
 40
1.0
 40
1.0
 40
1.0
 10
-1.1809500000000002
 20
-3.9248600000000002
 30
0.0
 10
-1.1809500000000002
 20
-3.9248600000000002
 30
0.0
 10
-1.0971300000000002
 20
-3.9274000000000004
 30
0.0
 10
-1.0971300000000002
 20
-3.9274000000000004
 30
0.0
 10
-1.0971300000000002
 20
-3.9274000000000004
 30
0.0
 10
-0.92949
 20
-4.1001200000000004
 30
0.0
 10
-0.8380500000000001
 20
-4.2347400000000004
 30
0.0
 10
-0.82535
 20
-4.4633400000000005
 30
0.0
 10
-0.82535
 20
-4.4633400000000005
 30
0.0
 10
-0.82535
 20
-4.4633400000000005
 30
0.0
 10
-0.8405900000000001
 20
-4.6335200000000007
 30
0.0
 10
-0.8405900000000001
 20
-4.6335200000000007
 30
0.0
 10
-0.8405900000000001
 20
-4.6335200000000007
 30
0.0
 10
-0.95235
 20
-4.43032
 30
0.0
 10
-1.3638300000000001
 20
-4.1636200000000008
 30
0.0
 10
-1.1809500000000002
 20
-3.9248600000000002
 30
0.0
  0
SPLINE
  5
38
100
AcDbEntity
  8
Ebene 1
 62
     7
100
AcDbSpline
210
0.0
220
0.0
230
1.0
 70
     1
 71
     3
 72
    12
 73
     8
 74
     0
 42
0.0000000001
 43
0.0000000001
 40
0.0
 40
0.0
 40
0.0
 40
0.0
 40
0.5
 40
0.5
 40
0.5
 40
0.5
 40
1.0
 40
1.0
 40
1.0
 40
1.0
 10
-2.48651
 20
-4.0239200000000004
 30
0.0
 10
-2.36205
 20
-4.1382200000000005
 30
0.0
 10
-2.44333
 20
-4.3084000000000007
 30
0.0
 10
-2.4941300000000002
 20
-4.4252400000000005
 30
0.0
 10
-2.4941300000000002
 20
-4.4252400000000005
 30
0.0
 10
-2.5398500000000004
 20
-4.2957000000000001
 30
0.0
 10
-2.4992100000000002
 20
-4.1534599999999999
 30
0.0
 10
-2.48651
 20
-4.0239200000000004
 30
0.0
  0
SPLINE
  5
39
100
AcDbEntity
  8
Ebene 1
 62
     7
100
AcDbSpline
210
0.0
220
0.0
230
1.0
 70
     1
 71
     3
 72
    16
 73
    12
 74
     0
 42
0.0000000001
 43
0.0000000001
 40
0.0
 40
0.0
 40
0.0
 40
0.0
 40
0.3333333333333333
 40
0.3333333333333333
 40
0.3333333333333333
 40
0.3333333333333333
 40
0.6666666666666666
 40
0.6666666666666666
 40
0.6666666666666666
 40
0.6666666666666666
 40
1.0
 40
1.0
 40
1.0
 40
1.0
 10
-1.5187700000000002
 20
-4.0239200000000004
 30
0.0
 10
-1.5187700000000002
 20
-4.0239200000000004
 30
0.0
 10
-1.4501900000000001
 20
-4.0264600000000002
 30
0.0
 10
-1.4501900000000001
 20
-4.0264600000000002
 30
0.0
 10
-1.4501900000000001
 20
-4.0264600000000002
 30
0.0
 10
-1.25207
 20
-4.2499800000000008
 30
0.0
 10
-1.08443
 20
-4.5674800000000007
 30
0.0
 10
-1.1809500000000002
 20
-4.8595800000000002
 30
0.0
 10
-1.1809500000000002
 20
-4.8595800000000002
 30
0.0
 10
-1.33589
 20
-4.6208200000000001
 30
0.0
 10
-1.7854700000000001
 20
-4.3185600000000006
 30
0.0
 10
-1.5187700000000002
 20
-4.0239200000000004
 30
0.0
  0
SPLINE
  5
3A
100
AcDbEntity
  8
Ebene 1
 62
     7
100
AcDbSpline
210
0.0
220
0.0
230
1.0
 70
     1
 71
     3
 72
    12
 73
     8
 74
     0
 42
0.0000000001
 43
0.0000000001
 40
0.0
 40
0.0
 40
0.0
 40
0.0
 40
0.5
 40
0.5
 40
0.5
 40
0.5
 40
1.0
 40
1.0
 40
1.0
 40
1.0
 10
-2.3595100000000002
 20
-4.09504
 30
0.0
 10
-2.1283700000000003
 20
-4.1966400000000004
 30
0.0
 10
-2.23759
 20
-4.5243000000000002
 30
0.0
 10
-2.31379
 20
-4.6919400000000007
 30
0.0
 10
-2.31379
 20
-4.6919400000000007
 30
0.0
 10
-2.3671300000000004
 20
-4.5065200000000001
 30
0.0
 10
-2.3747500000000001
 20
-4.2855400000000001
 30
0.0
 10
-2.3595100000000002
 20
-4.09504
 30
0.0
  0
SPLINE
  5
3B
100
AcDbEntity
  8
Ebene 1
 62
     7
100
AcDbSpline
210
0.0
220
0.0
230
1.0
 70
     1
 71
     3
 72
    16
 73
    12
 74
     0
 42
0.0000000001
 43
0.0000000001
 40
0.0
 40
0.0
 40
0.0
 40
0.0
 40
0.3333333333333333
 40
0.3333333333333333
 40
0.3333333333333333
 40
0.3333333333333333
 40
0.6666666666666666
 40
0.6666666666666666
 40
0.6666666666666666
 40
0.6666666666666666
 40
1.0
 40
1.0
 40
1.0
 40
1.0
 10
-1.8819900000000001
 20
-4.1204400000000003
 30
0.0
 10
-1.8819900000000001
 20
-4.1204400000000003
 30
0.0
 10
-1.8159500000000002
 20
-4.1382200000000005
 30
0.0
 10
-1.8159500000000002
 20
-4.1382200000000005
 30
0.0
 10
-1.8159500000000002
 20
-4.1382200000000005
 30
0.0
 10
-1.6381500000000002
 20
-4.40238
 30
0.0
 10
-1.4908300000000001
 20
-4.7503600000000006
 30
0.0
 10
-1.5644900000000002
 20
-5.0704000000000002
 30
0.0
 10
-1.5644900000000002
 20
-5.0704000000000002
 30
0.0
 10
-1.7422900000000001
 20
-4.7960800000000008
 30
0.0
 10
-1.9581900000000001
 20
-4.4658800000000003
 30
0.0
 10
-1.8819900000000001
 20
-4.1204400000000003
 30
0.0
  0
SPLINE
  5
3C
100
AcDbEntity
  8
Ebene 1
 62
     7
100
AcDbSpline
210
0.0
220
0.0
230
1.0
 70
     1
 71
     3
 72
    12
 73
     8
 74
     0
 42
0.0000000001
 43
0.0000000001
 40
0.0
 40
0.0
 40
0.0
 40
0.0
 40
0.5
 40
0.5
 40
0.5
 40
0.5
 40
1.0
 40
1.0
 40
1.0
 40
1.0
 10
-2.1766300000000003
 20
-4.1636200000000008
 30
0.0
 10
-2.05979
 20
-4.26776
 30
0.0
 10
-2.0928100000000001
 20
-4.4582600000000001
 30
0.0
 10
-2.1436100000000002
 20
-4.5801800000000004
 30
0.0
 10
-2.1436100000000002
 20
-4.5801800000000004
 30
0.0
 10
-2.1817100000000003
 20
-4.4506399999999999
 30
0.0
 10
-2.18425
 20
-4.2906200000000005
 30
0.0
 10
-2.1766300000000003
 20
-4.1636200000000008
 30
0.0
  0
SPLINE
  5
3D
100
AcDbEntity
  8
Ebene 1
 62
     7
100
AcDbSpline
210
0.0
220
0.0
230
1.0
 70
     1
 71
     3
 72
    16
 73
    12
 74
     0
 42
0.0000000001
 43
0.0000000001
 40
0.0
 40
0.0
 40
0.0
 40
0.0
 40
0.3333333333333333
 40
0.3333333333333333
 40
0.3333333333333333
 40
0.3333333333333333
 40
0.6666666666666666
 40
0.6666666666666666
 40
0.6666666666666666
 40
0.6666666666666666
 40
1.0
 40
1.0
 40
1.0
 40
1.0
 10
-2.0369300000000004
 20
-4.2068000000000003
 30
0.0
 10
-2.0369300000000004
 20
-4.2068000000000003
 30
0.0
 10
-1.9962900000000001
 20
-4.2068000000000003
 30
0.0
 10
-1.9962900000000001
 20
-4.2068000000000003
 30
0.0
 10
-1.9962900000000001
 20
-4.2068000000000003
 30
0.0
 10
-1.9556500000000001
 20
-4.4633400000000005
 30
0.0
 10
-1.8083300000000002
 20
-4.73766
 30
0.0
 10
-1.9632700000000001
 20
-4.9713400000000005
 30
0.0
 10
-1.9632700000000001
 20
-4.9713400000000005
 30
0.0
 10
-1.9632700000000001
 20
-4.9713400000000005
 30
0.0
 10
-2.0369300000000004
 20
-4.2068000000000003
 30
0.0
 10
-2.0369300000000004
 20
-4.2068000000000003
 30
0.0
  0
ENDSEC
  0
SECTION
  2
OBJECTS
  0
DICTIONARY
  5
19
100
AcDbDictionary
280
     0
281
     1
  3
ACAD_GROUP
350
1A
  3
ACAD_MLINESTYLE
350
1B
  3
ACAD_LAYOUT
350
1E
  3
ACAD_PLOTSETTINGS
350
22
  3
ACAD_PLOTSTYLENAME
350
1F
  3
ACAD_WIPEOUT_VARS
350
23
  0
DICTIONARY
  5
1A
102
{ACAD_REACTORS
330
19
102
}
100
AcDbDictionary
280
     0
281
     1
  0
DICTIONARY
  5
1B
102
{ACAD_REACTORS
330
19
102
}
100
AcDbDictionary
280
     0
281
     1
  3
Standard
350
1C
  0
MLINESTYLE
  5
1C
102
{ACAD_REACTORS
330
1B
102
}
100
AcDbMlineStyle
  2
Standard
 70
     0
  3

 62
     0
 51
90.0
 52
90.0
 71
     2
 49
0.5
 62
   256
  6
BYLAYER
 49
-0.5
 62
   256
  6
BYLAYER
  0
ACDBDICTIONARYWDFLT
  5
1F
102
{ACAD_REACTORS
330
19
102
}
100
AcDbDictionary
281
     1
  3
Normal
350
1D
100
AcDbDictionaryWithDefault
340
1D
  0
ACDBPLACEHOLDER
  5
1D
102
{ACAD_REACTORS
330
1F
102
}
  0
LAYOUT
  5
20
102
{ACAD_REACTORS
330
1E
102
}
100
AcDbPlotSettings
  1

  2

  4

  6

 40
0.0
 41
0.0
 42
0.0
 43
0.0
 44
0.0
 45
0.0
 46
0.0
 47
0.0
 48
0.0
 49
0.0
140
0.0
141
0.0
142
1.0
143
1.0
 70
  1024
 72
     0
 73
     0
 74
     0
  7

 75
     0
147
1.0
148
0.0
149
0.0
100
AcDbLayout
  1
Model
 70
     0
 71
     0
 10
0.0
 20
0.0
 11
0.0
 21
0.0
 12
0.0
 22
0.0
 32
0.0
 14
0.0
 24
0.0
 34
0.0
 15
0.0
 25
0.0
 35
0.0
146
0.0
 13
0.0
 23
0.0
 33
0.0
 16
0.0
 26
0.0
 36
0.0
 17
0.0
 27
0.0
 37
0.0
 76
     0
330
A
331
0
345
0
346
0
  0
LAYOUT
  5
21
102
{ACAD_REACTORS
330
1E
102
}
100
AcDbPlotSettings
  1

  2

  4

  6

 40
0.0
 41
0.0
 42
0.0
 43
0.0
 44
0.0
 45
0.0
 46
0.0
 47
0.0
 48
0.0
 49
0.0
140
0.0
141
0.0
142
1.0
143
1.0
 70
     0
 72
     0
 73
     0
 74
     0
  7

 75
     0
147
1.0
148
0.0
149
0.0
100
AcDbLayout
  1
Layout1
 70
     0
 71
     0
 10
0.0
 20
0.0
 11
0.0
 21
0.0
 12
0.0
 22
0.0
 32
0.0
 14
0.0
 24
0.0
 34
0.0
 15
0.0
 25
0.0
 35
0.0
146
0.0
 13
0.0
 23
0.0
 33
0.0
 16
0.0
 26
0.0
 36
0.0
 17
0.0
 27
0.0
 37
0.0
 76
     0
330
B
331
0
345
0
346
0
  0
DICTIONARY
  5
1E
102
{ACAD_REACTORS
330
19
102
}
100
AcDbDictionary
280
     0
281
     1
  3
Layout1
350
21
  3
Model
350
20
  0
DICTIONARY
  5
22
102
{ACAD_REACTORS
330
19
102
}
100
AcDbDictionary
280
     0
281
     1
  0
WIPEOUTVARIABLES
  5
23
100
AcDbWipeoutVariables
 70
     1
  0
ENDSEC
  0
EOF
