  0
SECTION
  2
HEADER
  9
$ACADVER
  1
AC1015
  9
$ACADMAINTVER
 70
     6
  9
$DWGCODEPAGE
  3
DOS850
  9
$INSBASE
 10
0.0
 20
0.0
 30
0.0
  9
$EXTMIN
 10
-5.13646
 20
-7.09478
 30
1.000000E+20
  9
$EXTMAX
 10
5.1411
 20
7.08857
 30
-1.000000E+20
  9
$LIMMIN
 10
0.0
 20
0.0
  9
$LIMMAX
 10
0.0
 20
0.0
  9
$ORTHOMODE
 70
     0
  9
$REGENMODE
 70
     1
  9
$FILLMODE
 70
     1
  9
$QTEXTMODE
 70
     0
  9
$MIRRTEXT
 70
     1
  9
$LTSCALE
 40
1.0
  9
$ATTMODE
 70
     1
  9
$TEXTSIZE
 40
0.2
  9
$TRACEWID
 40
0.05
  9
$TEXTSTYLE
  7
Standard
  9
$CLAYER
  8
0
  9
$CELTYPE
  6
Continuous
  9
$CECOLOR
 62
   256
  9
$CELTSCALE
 40
1.0
  9
$DISPSILH
 70
     0
  9
$DIMSCALE
 40
1.0
  9
$DIMASZ
 40
0.18
  9
$DIMEXO
 40
0.0625
  9
$DIMDLI
 40
0.38
  9
$DIMRND
 40
0.0
  9
$DIMDLE
 40
0.0
  9
$DIMEXE
 40
0.18
  9
$DIMTP
 40
0.0
  9
$DIMTM
 40
0.0
  9
$DIMTXT
 40
0.18
  9
$DIMCEN
 40
0.09
  9
$DIMTSZ
 40
0.0
  9
$DIMTOL
 70
     0
  9
$DIMLIM
 70
     0
  9
$DIMTIH
 70
     1
  9
$DIMTOH
 70
     1
  9
$DIMSE1
 70
     0
  9
$DIMSE2
 70
     0
  9
$DIMTAD
 70
     0
  9
$DIMZIN
 70
     0
  9
$DIMBLK
  1

  9
$DIMASO
 70
     1
  9
$DIMSHO
 70
     1
  9
$DIMPOST
  1

  9
$DIMAPOST
  1

  9
$DIMALT
 70
     0
  9
$DIMALTD
 70
     2
  9
$DIMALTF
 40
25.4
  9
$DIMLFAC
 40
1.0
  9
$DIMTOFL
 70
     0
  9
$DIMTVP
 40
0.0
  9
$DIMTIX
 70
     0
  9
$DIMSOXD
 70
     0
  9
$DIMSAH
 70
     0
  9
$DIMBLK1
  1

  9
$DIMBLK2
  1

  9
$DIMSTYLE
  2
Standard
  9
$DIMCLRD
 70
     0
  9
$DIMCLRE
 70
     0
  9
$DIMCLRT
 70
     0
  9
$DIMTFAC
 40
1.0
  9
$DIMGAP
 40
0.09
  9
$DIMJUST
 70
     0
  9
$DIMSD1
 70
     0
  9
$DIMSD2
 70
     0
  9
$DIMTOLJ
 70
     1
  9
$DIMTZIN
 70
     0
  9
$DIMALTZ
 70
     0
  9
$DIMALTTZ
 70
     0
  9
$DIMUPT
 70
     0
  9
$DIMDEC
 70
     4
  9
$DIMTDEC
 70
     4
  9
$DIMALTU
 70
     2
  9
$DIMALTTD
 70
     2
  9
$DIMTXSTY
  7
Standard
  9
$DIMAUNIT
 70
     0
  9
$DIMADEC
 70
     0
  9
$DIMALTRND
 40
0.0
  9
$DIMAZIN
 70
     0
  9
$DIMDSEP
 70
     0
  9
$DIMATFIT
 70
     3
  9
$DIMFRAC
 70
     0
  9
$DIMLDRBLK
  1

  9
$DIMLUNIT
 70
     2
  9
$DIMLWD
 70
     0
  9
$DIMLWE
 70
     0
  9
$DIMTMOVE
 70
     0
  9
$LUNITS
 70
     2
  9
$LUPREC
 70
     4
  9
$SKETCHINC
 40
0.1
  9
$FILLETRAD
 40
0.0
  9
$AUNITS
 70
     0
  9
$AUPREC
 70
     0
  9
$MENU
  1
acad
  9
$ELEVATION
 40
0.0
  9
$PELEVATION
 40
0.0
  9
$THICKNESS
 40
0.0
  9
$LIMCHECK
 70
     0
  9
$CHAMFERA
 40
0.0
  9
$CHAMFERB
 40
0.0
  9
$CHAMFERC
 40
0.0
  9
$CHAMFERD
 40
0.0
  9
$SKPOLY
 70
     0
  9
$TDCREATE
 40
0.000000000
  9
$TDUCREATE
 40
0.000000000
  9
$TDUPDATE
 40
0.000000000
  9
$TDUUPDATE
 40
0.000000000
  9
$TDINDWG
 40
0.0000000000
  9
$TDUSRTIMER
 40
0.0000000000
  9
$USRTIMER
 70
     1
  9
$ANGBASE
 50
0.0
  9
$ANGDIR
 70
     0
  9
$PDMODE
 70
     0
  9
$PDSIZE
 40
0.0
  9
$PLINEWID
 40
0.0
  9
$SPLFRAME
 70
     0
  9
$SPLINETYPE
 70
     6
  9
$SPLINESEGS
 70
     8
  9
$HANDSEED
  5
4F
  9
$SURFTAB1
 70
     6
  9
$SURFTAB2
 70
     6
  9
$SURFTYPE
 70
     6
  9
$SURFU
 70
     6
  9
$SURFV
 70
     6
  9
$UCSBASE
  2

  9
$UCSNAME
  2

  9
$UCSORG
 10
0.0
 20
0.0
 30
0.0
  9
$UCSXDIR
 10
1.0
 20
0.0
 30
0.0
  9
$UCSYDIR
 10
0.0
 20
1.0
 30
0.0
  9
$UCSORTHOREF
  2

  9
$UCSORTHOVIEW
 70
     0
  9
$UCSORGTOP
 10
0.0
 20
0.0
 30
0.0
  9
$UCSORGBOTTOM
 10
0.0
 20
0.0
 30
0.0
  9
$UCSORGLEFT
 10
0.0
 20
0.0
 30
0.0
  9
$UCSORGRIGHT
 10
0.0
 20
0.0
 30
0.0
  9
$UCSORGFRONT
 10
0.0
 20
0.0
 30
0.0
  9
$UCSORGBACK
 10
0.0
 20
0.0
 30
0.0
  9
$PUCSBASE
  2

  9
$PUCSNAME
  2

  9
$PUCSORG
 10
0.0
 20
0.0
 30
0.0
  9
$PUCSXDIR
 10
1.0
 20
0.0
 30
0.0
  9
$PUCSYDIR
 10
0.0
 20
1.0
 30
0.0
  9
$PUCSORTHOREF
  2

  9
$PUCSORTHOVIEW
 70
     0
  9
$PUCSORGTOP
 10
0.0
 20
0.0
 30
0.0
  9
$PUCSORGBOTTOM
 10
0.0
 20
0.0
 30
0.0
  9
$PUCSORGLEFT
 10
0.0
 20
0.0
 30
0.0
  9
$PUCSORGRIGHT
 10
0.0
 20
0.0
 30
0.0
  9
$PUCSORGFRONT
 10
0.0
 20
0.0
 30
0.0
  9
$PUCSORGBACK
 10
0.0
 20
0.0
 30
0.0
  9
$USERI1
 70
     0
  9
$USERI2
 70
     0
  9
$USERI3
 70
     0
  9
$USERI4
 70
     0
  9
$USERI5
 70
     0
  9
$USERR1
 40
0.0
  9
$USERR2
 40
0.0
  9
$USERR3
 40
0.0
  9
$USERR4
 40
0.0
  9
$USERR5
 40
0.0
  9
$WORLDVIEW
 70
     1
  9
$SHADEDGE
 70
     3
  9
$SHADEDIF
 70
    70
  9
$TILEMODE
 70
     1
  9
$MAXACTVP
 70
    16
  9
$PINSBASE
 10
0.0
 20
0.0
 30
0.0
  9
$PLIMCHECK
 70
     0
  9
$PEXTMIN
 10
1.000000E+20
 20
1.000000E+20
 30
1.000000E+20
  9
$PEXTMAX
 10
-1.000000E+20
 20
-1.000000E+20
 30
-1.000000E+20
  9
$PLIMMIN
 10
0.0
 20
0.0
  9
$PLIMMAX
 10
12.0
 20
9.0
  9
$UNITMODE
 70
     0
  9
$VISRETAIN
 70
     0
  9
$PLINEGEN
 70
     1
  9
$PSLTSCALE
 70
     0
  9
$TREEDEPTH
 70
  3020
  9
$CMLSTYLE
  2
Standard
  9
$CMLJUST
 70
     0
  9
$CMLSCALE
 40
1.0
  9
$PROXYGRAPHICS
 70
     0
  9
$MEASUREMENT
 70
     0
  9
$CELWEIGHT
370
     0
  9
$ENDCAPS
280
     0
  9
$JOINSTYLE
280
     0
  9
$LWDISPLAY
290
     0
  9
$INSUNITS
 70
     5
  9
$HYPERLINKBASE
  1

  9
$XEDIT
290
     1
  9
$CEPSNTYPE
380
     0
  9
$PSTYLEMODE
290
     1
  9
$FINGERPRINTGUID
  2

  9
$VERSIONGUID
  2

  9
$EXTNAMES
290
     1
  9
$PSVPSCALE
 40
0.0
  0
ENDSEC
  0
SECTION
  2
CLASSES
  0
CLASS
  1
LWPOLYLINE
  2
AcDbPolyline
  3
AutoCAD 2000
 90
    32768
280
     0
281
     1
  0
CLASS
  1
IMAGE
  2
AcDbRasterImage
  3
ISM
 90
    32895
280
     0
281
     1
  0
CLASS
  1
OLE2FRAME
  2
AcDbOle2Frame
  3
AutoCAD 2000
 90
    32768
280
     0
281
     1
  0
CLASS
  1
HATCH
  2
AcDbHatch
  3
AutoCAD 2000
 90
    32768
280
     0
281
     1
  0
CLASS
  1
DICTIONARYVAR
  2
AcDbDictionaryVar
  3
AutoCAD 2000
 90
    32768
280
     0
281
     0
  0
CLASS
  1
RASTERVARIABLES
  2
AcDbRasterVariables
  3
ISM
 90
    32768
280
     0
281
     0
  0
CLASS
  1
IMAGEDEF
  2
AcDbRasterImageDef
  3
ISM
 90
    32768
280
     0
281
     0
  0
CLASS
  1
IMAGEDEF_REACTOR
  2
AcDbRasterImageDefReactor
  3
ISM
 90
    32769
280
     0
281
     0
  0
CLASS
  1
IDBUFFER
  2
AcDbIdBuffer
  3
AutoCAD 2000
 90
    32768
280
     0
281
     0
  0
CLASS
  1
SPATIAL_FILTER
  2
AcDbSpatialFilter
  3
AutoCAD 2000
 90
    32768
280
     0
281
     0
  0
CLASS
  1
XRECORD
  2
AcDbXrecord
  3
AutoCAD 2000
 90
    32768
280
     0
281
     0
  0
CLASS
  1
SORTENTSTABLE
  2
AcDbSortentsTable
  3
AutoCAD 2000
 90
    32768
280
     0
281
     0
  0
CLASS
  1
LAYER_INDEX
  2
AcDbLayerIndex
  3
AutoCAD 2000
 90
    32768
280
     0
281
     0
  0
CLASS
  1
SPATIAL_INDEX
  2
AcDbSpatialIndex
  3
AutoCAD 2000
 90
    32768
280
     0
281
     0
  0
CLASS
  1
OBJECT_PTR
  2
CAseDLPNTableRecord
  3
"ASE-LPNTableRecord"
 90
    32769
280
     0
281
     0
  0
CLASS
  1
LAYOUT
  2
AcDbLayout
  3
AutoCAD 2000
 90
        0
280
     0
281
     0
  0
CLASS
  1
PLOTSETTINGS
  2
AcDbPlotSettings
  3
AutoCAD 2000
 90
    32768
280
     0
281
     0
  0
CLASS
  1
ACDBDICTIONARYWDFLT
  2
AcDbDictionaryWithDefault
  3
AutoCAD 2000
 90
        0
280
     0
281
     0
  0
CLASS
  1
ACDBPLACEHOLDER
  2
AcDbPlaceHolder
  3
AutoCAD 2000
 90
        0
280
     0
281
     0
  0
CLASS
  1
VBA_PROJECT
  2
AcDbVbaProject
  3
acadvba
 90
    32768
280
     0
281
     0
  0
CLASS
  1
WIPEOUT
  2
AcDbWipeout
  3
WipeOut|AutoCAD Express Tool|expresstools@autodesk.com
 90
    32895
280
     0
281
     1
  0
CLASS
  1
WIPEOUTVARIABLES
  2
AcDbWipeoutVariables
  3
WipeOut|AutoCAD Express Tool|expresstools@autodesk.com
 90
        0
280
     0
281
     0
  0
CLASS
  1
RTEXT
  2
RText
  3
RText|AutoCAD Express Tool|expresstools@autodesk.com
 90
    32768
280
     0
281
     1
  0
CLASS
  1
ARCALIGNEDTEXT
  2
AcDbArcAlignedText
  3
ATEXT|AutoCAD Express Tool|expresstools@autodesk.com
 90
    32768
280
     0
281
     1
  0
ENDSEC
  0
SECTION
  2
TABLES
  0
TABLE
  2
VPORT
  5
7
100
AcDbSymbolTable
 70
     1
  0
VPORT
  5
15
100
AcDbSymbolTableRecord
100
AcDbViewportTableRecord
  2
*ACTIVE
 70
     0
 10
0.0
 20
0.0
 11
1.0
 21
1.0
 12
6.591288
 22
4.579184
 13
0.0
 23
0.0
 14
1.0
 24
1.0
 15
0.0
 25
0.0
 16
0.0
 26
0.0
 36
1.0
 17
0.0
 27
0.0
 37
0.0
 40
9.158369
 41
0.688564
 42
50.0
 43
0.0
 44
0.0
 50
0.0
 51
0.0
 71
     0
 72
   100
 73
     1
 74
     1
 75
     0
 76
     0
 77
     0
 78
     0
281
     0
 65
     0
110
0.0
120
0.0
130
0.0
111
1.0
121
0.0
131
0.0
112
0.0
122
1.0
132
0.0
345
0
346
0
 79
     0
146
0.0
  0
ENDTAB
  0
TABLE
  2
LTYPE
  5
4
100
AcDbSymbolTable
 70
     3
  0
LTYPE
  5
11
100
AcDbSymbolTableRecord
100
AcDbLinetypeTableRecord
  2
ByBlock
 70
    64
  3

 72
    65
 73
     0
 40
0.0
  0
LTYPE
  5
12
100
AcDbSymbolTableRecord
100
AcDbLinetypeTableRecord
  2
ByLayer
 70
    64
  3

 72
    65
 73
     0
 40
0.0
  0
LTYPE
  5
13
100
AcDbSymbolTableRecord
100
AcDbLinetypeTableRecord
  2
Continuous
 70
    64
  3
Solid line
 72
    65
 73
     0
 40
0.0
  0
ENDTAB
  0
TABLE
  2
LAYER
  5
2
100
AcDbSymbolTable
 70
     2
  0
LAYER
  5
14
100
AcDbSymbolTableRecord
100
AcDbLayerTableRecord
  2
0
 70
     0
 62
     7
  6
Continuous
290
     1
370
    -3
390
1D
  0
LAYER
  5
24
100
AcDbSymbolTableRecord
100
AcDbLayerTableRecord
  2
Ebene 1
 70
     0
 62
     7
  6
Continuous
290
     1
370
    -3
390
1F
  0
ENDTAB
  0
TABLE
  2
STYLE
  5
3
100
AcDbSymbolTable
 70
     1
  0
STYLE
  5
17
100
AcDbSymbolTableRecord
100
AcDbTextStyleTableRecord
  2
Standard
 70
     0
 40
0.0
 41
1.0
 50
0.0
 71
     0
 42
0.0
  3
txt
  4

  0
ENDTAB
  0
TABLE
  2
VIEW
  5
5
100
AcDbSymbolTable
 70
     0
  0
ENDTAB
  0
TABLE
  2
UCS
  5
6
100
AcDbSymbolTable
 70
     0
  0
ENDTAB
  0
TABLE
  2
APPID
  5
8
100
AcDbSymbolTable
 70
     1
  0
APPID
  5
16
100
AcDbSymbolTableRecord
100
AcDbRegAppTableRecord
  2
ACAD
 70
     0
  0
ENDTAB
  0
TABLE
  2
DIMSTYLE
  5
9
100
AcDbSymbolTable
 70
     1
100
AcDbDimStyleTable
 71
     0
  0
DIMSTYLE
105
18
100
AcDbSymbolTableRecord
100
AcDbDimStyleTableRecord
  2
Standard
 70
     0
  3

  4

 40
1.0
 41
0.18
 42
0.0625
 43
0.38
 44
0.18
 45
0.0
 46
0.0
 47
0.0
 48
0.0
 71
     0
 72
     0
 73
     1
 74
     1
 75
     0
 76
     0
 77
     0
 78
     0
 79
     0
140
0.18
141
0.09
142
0.0
143
25.4
144
1.0
145
0.0
146
1.0
147
0.09
148
0.0
170
     0
171
     2
172
     0
173
     0
174
     0
175
     0
176
     0
177
     0
178
     0
179
     0
271
     4
272
     4
273
     2
274
     2
275
     0
276
     0
277
     2
278
    46
279
     0
280
     0
281
     0
282
     0
283
     1
284
     0
285
     0
286
     0
288
     0
340
17
341
0
342
0
343
0
344
0
371
    -2
372
    -2
  0
ENDTAB
  0
TABLE
  2
BLOCK_RECORD
  5
1
100
AcDbSymbolTable
 70
     0
  0
BLOCK_RECORD
  5
A
100
AcDbSymbolTableRecord
100
AcDbBlockTableRecord
  2
*MODEL_SPACE
340
20
  0
BLOCK_RECORD
  5
B
100
AcDbSymbolTableRecord
100
AcDbBlockTableRecord
  2
*PAPER_SPACE
340
21
  0
ENDTAB
  0
ENDSEC
  0
SECTION
  2
BLOCKS
  0
BLOCK
  5
D
100
AcDbEntity
  8
0
100
AcDbBlockBegin
  2
*MODEL_SPACE
 70
     0
 10
0.0
 20
0.0
 30
0.0
  3
*MODEL_SPACE
  1

  0
ENDBLK
  5
E
100
AcDbEntity
  8
0
100
AcDbBlockEnd
  0
BLOCK
  5
F
100
AcDbEntity
 67
     1
  8
0
100
AcDbBlockBegin
  2
*PAPER_SPACE
 70
     0
 10
0.0
 20
0.0
 30
0.0
  3
*PAPER_SPACE
  1

  0
ENDBLK
  5
10
100
AcDbEntity
 67
     1
  8
0
100
AcDbBlockEnd
  0
ENDSEC
  0
SECTION
  2
ENTITIES
  0
SPLINE
  5
25
100
AcDbEntity
  8
Ebene 1
100
AcDbSpline
210
0.0
220
0.0
230
1.0
 70
     1
 71
     3
 72
   172
 73
   168
 74
     0
 42
0.0000000001
 43
0.0000000001
 40
0.0
 40
0.0
 40
0.0
 40
0.0
 40
0.0238095238095238
 40
0.0238095238095238
 40
0.0238095238095238
 40
0.0238095238095238
 40
0.0476190476190476
 40
0.0476190476190476
 40
0.0476190476190476
 40
0.0476190476190476
 40
0.0714285714285714
 40
0.0714285714285714
 40
0.0714285714285714
 40
0.0714285714285714
 40
0.0952380952380952
 40
0.0952380952380952
 40
0.0952380952380952
 40
0.0952380952380952
 40
0.119047619047619
 40
0.119047619047619
 40
0.119047619047619
 40
0.119047619047619
 40
0.1428571428571429
 40
0.1428571428571429
 40
0.1428571428571429
 40
0.1428571428571429
 40
0.1666666666666667
 40
0.1666666666666667
 40
0.1666666666666667
 40
0.1666666666666667
 40
0.1904761904761905
 40
0.1904761904761905
 40
0.1904761904761905
 40
0.1904761904761905
 40
0.2142857142857143
 40
0.2142857142857143
 40
0.2142857142857143
 40
0.2142857142857143
 40
0.2380952380952381
 40
0.2380952380952381
 40
0.2380952380952381
 40
0.2380952380952381
 40
0.2619047619047619
 40
0.2619047619047619
 40
0.2619047619047619
 40
0.2619047619047619
 40
0.2857142857142857
 40
0.2857142857142857
 40
0.2857142857142857
 40
0.2857142857142857
 40
0.3095238095238095
 40
0.3095238095238095
 40
0.3095238095238095
 40
0.3095238095238095
 40
0.3333333333333334
 40
0.3333333333333334
 40
0.3333333333333334
 40
0.3333333333333334
 40
0.3571428571428572
 40
0.3571428571428572
 40
0.3571428571428572
 40
0.3571428571428572
 40
0.380952380952381
 40
0.380952380952381
 40
0.380952380952381
 40
0.380952380952381
 40
0.4047619047619049
 40
0.4047619047619049
 40
0.4047619047619049
 40
0.4047619047619049
 40
0.4285714285714287
 40
0.4285714285714287
 40
0.4285714285714287
 40
0.4285714285714287
 40
0.4523809523809526
 40
0.4523809523809526
 40
0.4523809523809526
 40
0.4523809523809526
 40
0.4761904761904764
 40
0.4761904761904764
 40
0.4761904761904764
 40
0.4761904761904764
 40
0.5000000000000002
 40
0.5000000000000002
 40
0.5000000000000002
 40
0.5000000000000002
 40
0.5238095238095241
 40
0.5238095238095241
 40
0.5238095238095241
 40
0.5238095238095241
 40
0.5476190476190479
 40
0.5476190476190479
 40
0.5476190476190479
 40
0.5476190476190479
 40
0.5714285714285717
 40
0.5714285714285717
 40
0.5714285714285717
 40
0.5714285714285717
 40
0.5952380952380956
 40
0.5952380952380956
 40
0.5952380952380956
 40
0.5952380952380956
 40
0.6190476190476194
 40
0.6190476190476194
 40
0.6190476190476194
 40
0.6190476190476194
 40
0.6428571428571432
 40
0.6428571428571432
 40
0.6428571428571432
 40
0.6428571428571432
 40
0.6666666666666671
 40
0.6666666666666671
 40
0.6666666666666671
 40
0.6666666666666671
 40
0.6904761904761909
 40
0.6904761904761909
 40
0.6904761904761909
 40
0.6904761904761909
 40
0.7142857142857148
 40
0.7142857142857148
 40
0.7142857142857148
 40
0.7142857142857148
 40
0.7380952380952386
 40
0.7380952380952386
 40
0.7380952380952386
 40
0.7380952380952386
 40
0.7619047619047624
 40
0.7619047619047624
 40
0.7619047619047624
 40
0.7619047619047624
 40
0.7857142857142863
 40
0.7857142857142863
 40
0.7857142857142863
 40
0.7857142857142863
 40
0.8095238095238101
 40
0.8095238095238101
 40
0.8095238095238101
 40
0.8095238095238101
 40
0.8333333333333339
 40
0.8333333333333339
 40
0.8333333333333339
 40
0.8333333333333339
 40
0.8571428571428578
 40
0.8571428571428578
 40
0.8571428571428578
 40
0.8571428571428578
 40
0.8809523809523816
 40
0.8809523809523816
 40
0.8809523809523816
 40
0.8809523809523816
 40
0.9047619047619054
 40
0.9047619047619054
 40
0.9047619047619054
 40
0.9047619047619054
 40
0.9285714285714293
 40
0.9285714285714293
 40
0.9285714285714293
 40
0.9285714285714293
 40
0.9523809523809531
 40
0.9523809523809531
 40
0.9523809523809531
 40
0.9523809523809531
 40
0.9761904761904769
 40
0.9761904761904769
 40
0.9761904761904769
 40
0.9761904761904769
 40
1.0
 40
1.0
 40
1.0
 40
1.0
 10
-0.09891
 20
7.0885700000000007
 30
0.0
 10
0.27446
 20
6.2859300000000005
 30
0.0
 10
0.20842
 20
5.2369100000000008
 30
0.0
 10
0.4929000000000001
 20
4.37331
 30
0.0
 10
0.4929000000000001
 20
4.37331
 30
0.0
 10
0.88914
 20
4.3377500000000007
 30
0.0
 10
1.2625200000000001
 20
3.9770700000000003
 30
0.0
 10
1.5952600000000001
 20
4.0888300000000006
 30
0.0
 10
1.5952600000000001
 20
4.0888300000000006
 30
0.0
 10
1.9584800000000002
 20
3.4690700000000003
 30
0.0
 10
2.4512400000000003
 20
2.2625700000000002
 30
0.0
 10
3.5586800000000003
 20
2.76295
 30
0.0
 10
3.5586800000000003
 20
2.76295
 30
0.0
 10
4.87948
 20
3.3039700000000001
 30
0.0
 10
3.8101400000000005
 20
4.8940100000000006
 30
0.0
 10
2.7839800000000001
 20
5.0286300000000006
 30
0.0
 10
2.7839800000000001
 20
5.0286300000000006
 30
0.0
 10
4.0006400000000006
 20
5.2369100000000008
 30
0.0
 10
5.1309400000000007
 20
4.0964499999999999
 30
0.0
 10
5.1411000000000007
 20
3.14141
 30
0.0
 10
5.1411000000000007
 20
3.14141
 30
0.0
 10
5.0014000000000003
 20
2.0288900000000001
 30
0.0
 10
3.5510600000000001
 20
1.5996300000000001
 30
0.0
 10
2.4080600000000003
 20
1.5869300000000002
 30
0.0
 10
2.4080600000000003
 20
1.5869300000000002
 30
0.0
 10
2.3318600000000003
 20
0.37789
 30
0.0
 10
2.4360000000000004
 20
-0.8082800000000001
 30
0.0
 10
2.2759800000000001
 20
-1.9868400000000002
 30
0.0
 10
2.2759800000000001
 20
-1.9868400000000002
 30
0.0
 10
2.1439000000000004
 20
-1.9665200000000003
 30
0.0
 10
2.17184
 20
-1.62616
 30
0.0
 10
2.0702400000000001
 20
-1.6795000000000002
 30
0.0
 10
2.0702400000000001
 20
-1.6795000000000002
 30
0.0
 10
2.0702400000000001
 20
-1.6795000000000002
 30
0.0
 10
2.1261200000000002
 20
-3.3660600000000005
 30
0.0
 10
2.1261200000000002
 20
-3.3660600000000005
 30
0.0
 10
2.1261200000000002
 20
-3.3660600000000005
 30
0.0
 10
1.9762600000000001
 20
-3.3228800000000001
 30
0.0
 10
1.9788000000000001
 20
-2.8555200000000003
 30
0.0
 10
1.8187800000000001
 20
-2.9266400000000004
 30
0.0
 10
1.8187800000000001
 20
-2.9266400000000004
 30
0.0
 10
1.8187800000000001
 20
-3.5718000000000001
 30
0.0
 10
2.04738
 20
-4.2068000000000003
 30
0.0
 10
1.9229200000000002
 20
-4.8367200000000006
 30
0.0
 10
1.9229200000000002
 20
-4.8367200000000006
 30
0.0
 10
1.9229200000000002
 20
-4.8367200000000006
 30
0.0
 10
1.8010000000000002
 20
-4.5700200000000004
 30
0.0
 10
1.8010000000000002
 20
-4.5700200000000004
 30
0.0
 10
1.8010000000000002
 20
-4.5700200000000004
 30
0.0
 10
1.8010000000000002
 20
-4.5700200000000004
 30
0.0
 10
1.6867000000000001
 20
-4.8265600000000006
 30
0.0
 10
1.6867000000000001
 20
-4.8265600000000006
 30
0.0
 10
1.6867000000000001
 20
-4.8265600000000006
 30
0.0
 10
2.0677000000000003
 20
-5.5911000000000008
 30
0.0
 10
1.8619600000000001
 20
-6.3912000000000004
 30
0.0
 10
1.7883000000000002
 20
-7.094780000000001
 30
0.0
 10
1.7883000000000002
 20
-7.094780000000001
 30
0.0
 10
1.7908400000000002
 20
-6.5309000000000008
 30
0.0
 10
1.65368
 20
-5.8451000000000004
 30
0.0
 10
1.4631800000000001
 20
-5.3167800000000005
 30
0.0
 10
1.4631800000000001
 20
-5.3167800000000005
 30
0.0
 10
1.2498200000000002
 20
-4.7173400000000001
 30
0.0
 10
1.0009000000000001
 20
-4.2728400000000004
 30
0.0
 10
1.4352400000000001
 20
-3.5540200000000004
 30
0.0
 10
1.4352400000000001
 20
-3.5540200000000004
 30
0.0
 10
1.3742800000000002
 20
-3.4448000000000003
 30
0.0
 10
1.3438000000000001
 20
-3.3152600000000003
 30
0.0
 10
1.3361800000000001
 20
-3.19842
 30
0.0
 10
1.3361800000000001
 20
-3.19842
 30
0.0
 10
1.2625200000000001
 20
-3.3051000000000004
 30
0.0
 10
1.3514200000000001
 20
-3.5057600000000004
 30
0.0
 10
1.19648
 20
-3.5540200000000004
 30
0.0
 10
1.19648
 20
-3.5540200000000004
 30
0.0
 10
1.0974200000000001
 20
-3.1044400000000003
 30
0.0
 10
1.1761600000000001
 20
-2.5939000000000001
 30
0.0
 10
1.15076
 20
-2.1265400000000003
 30
0.0
 10
1.15076
 20
-2.1265400000000003
 30
0.0
 10
1.0085200000000001
 20
-2.2027400000000004
 30
0.0
 10
0.78754
 20
-2.0503400000000003
 30
0.0
 10
0.6859400000000001
 20
-2.3424400000000003
 30
0.0
 10
0.6859400000000001
 20
-2.3424400000000003
 30
0.0
 10
0.6072000000000001
 20
-2.1646400000000003
 30
0.0
 10
0.7392800000000001
 20
-1.4559800000000001
 30
0.0
 10
0.41416
 20
-1.8522200000000002
 30
0.0
 10
0.41416
 20
-1.8522200000000002
 30
0.0
 10
0.39384
 20
-1.6668000000000001
 30
0.0
 10
0.05094
 20
-1.6744200000000002
 30
0.0
 10
-0.09637
 20
-1.7684000000000002
 30
0.0
 10
-0.09637
 20
-1.7684000000000002
 30
0.0
 10
-0.53325
 20
-2.2103600000000001
 30
0.0
 10
-0.14209
 20
-2.8783800000000004
 30
0.0
 10
-0.5408700000000001
 20
-3.3457400000000002
 30
0.0
 10
-0.5408700000000001
 20
-3.3457400000000002
 30
0.0
 10
-0.76185
 20
-3.9832800000000002
 30
0.0
 10
-0.7364500000000001
 20
-2.9164800000000004
 30
0.0
 10
-0.67549
 20
-2.6777200000000003
 30
0.0
 10
-0.67549
 20
-2.6777200000000003
 30
0.0
 10
-0.8380500000000001
 20
-2.1646400000000003
 30
0.0
 10
-0.9447300000000001
 20
-1.5372600000000001
 30
0.0
 10
-1.4247900000000002
 20
-1.2756400000000001
 30
0.0
 10
-1.4247900000000002
 20
-1.2756400000000001
 30
0.0
 10
-1.4247900000000002
 20
-1.2756400000000001
 30
0.0
 10
-1.3866900000000002
 20
-1.8115800000000002
 30
0.0
 10
-1.3866900000000002
 20
-1.8115800000000002
 30
0.0
 10
-1.3866900000000002
 20
-1.8115800000000002
 30
0.0
 10
-1.4882900000000001
 20
-1.7658600000000002
 30
0.0
 10
-1.6229100000000001
 20
-2.0274800000000002
 30
0.0
 10
-1.7346700000000002
 20
-1.7811000000000001
 30
0.0
 10
-1.7346700000000002
 20
-1.7811000000000001
 30
0.0
 10
-1.7880100000000001
 20
-1.9563600000000001
 30
0.0
 10
-1.8438900000000003
 20
-2.1290800000000001
 30
0.0
 10
-1.8286500000000001
 20
-2.3195800000000002
 30
0.0
 10
-1.8286500000000001
 20
-2.3195800000000002
 30
0.0
 10
-1.8159500000000002
 20
-2.4973800000000002
 30
0.0
 10
-1.7448300000000001
 20
-2.2916400000000001
 30
0.0
 10
-1.6533900000000001
 20
-2.3348200000000001
 30
0.0
 10
-1.6533900000000001
 20
-2.3348200000000001
 30
0.0
 10
-1.4451100000000001
 20
-3.5413200000000002
 30
0.0
 10
-1.8235700000000001
 20
-4.0518600000000005
 30
0.0
 10
-1.7194300000000002
 20
-5.1796200000000008
 30
0.0
 10
-1.7194300000000002
 20
-5.1796200000000008
 30
0.0
 10
-1.9327900000000002
 20
-4.9230800000000006
 30
0.0
 10
-1.9353300000000002
 20
-3.8334200000000003
 30
0.0
 10
-2.18933
 20
-4.5598600000000005
 30
0.0
 10
-2.18933
 20
-4.5598600000000005
 30
0.0
 10
-2.18933
 20
-4.5598600000000005
 30
0.0
 10
-2.2121900000000001
 20
-4.34396
 30
0.0
 10
-2.2121900000000001
 20
-4.34396
 30
0.0
 10
-2.2121900000000001
 20
-4.34396
 30
0.0
 10
-2.15123
 20
-3.6073600000000003
 30
0.0
 10
-2.2858500000000004
 20
-2.8250400000000004
 30
0.0
 10
-2.2579100000000003
 20
-2.0757400000000001
 30
0.0
 10
-2.2579100000000003
 20
-2.0757400000000001
 30
0.0
 10
-2.3315700000000001
 20
-2.1163800000000004
 30
0.0
 10
-2.3899900000000001
 20
-2.3449800000000001
 30
0.0
 10
-2.4636500000000003
 20
-2.1849600000000002
 30
0.0
 10
-2.4636500000000003
 20
-2.1849600000000002
 30
0.0
 10
-2.4661900000000001
 20
-1.92334
 30
0.0
 10
-2.48143
 20
-1.7023600000000001
 30
0.0
 10
-2.6389100000000001
 20
-1.5804400000000001
 30
0.0
 10
-2.6389100000000001
 20
-1.5804400000000001
 30
0.0
 10
-2.5855700000000001
 20
-0.45268
 30
0.0
 10
-2.7836900000000004
 20
0.3270900000000001
 30
0.0
 10
-2.7760700000000003
 20
1.5843900000000002
 30
0.0
 10
-2.7760700000000003
 20
1.5843900000000002
 30
0.0
 10
-3.1088100000000001
 20
1.6758300000000002
 30
0.0
 10
-3.4644100000000004
 20
1.7190100000000001
 30
0.0
 10
-3.7641300000000002
 20
1.8815700000000002
 30
0.0
 10
-3.7641300000000002
 20
1.8815700000000002
 30
0.0
 10
-5.9282100000000009
 20
2.2625700000000002
 30
0.0
 10
-5.3871900000000004
 20
5.3004100000000003
 30
0.0
 10
-3.1596100000000003
 20
4.9422700000000006
 30
0.0
 10
-3.1596100000000003
 20
4.9422700000000006
 30
0.0
 10
-4.4651700000000005
 20
4.8559100000000006
 30
0.0
 10
-5.0011100000000006
 20
2.8924900000000004
 30
0.0
 10
-3.3805900000000002
 20
2.7070700000000003
 30
0.0
 10
-3.3805900000000002
 20
2.7070700000000003
 30
0.0
 10
-2.6389100000000001
 20
2.5876900000000003
 30
0.0
 10
-2.0140700000000002
 20
3.5173300000000003
 30
0.0
 10
-1.9988300000000001
 20
4.0278700000000001
 30
0.0
 10
-1.9988300000000001
 20
4.0278700000000001
 30
0.0
 10
-1.54417
 20
3.8399100000000002
 30
0.0
 10
-1.1123700000000001
 20
4.3377500000000007
 30
0.0
 10
-0.6196100000000001
 20
4.3606100000000003
 30
0.0
 10
-0.6196100000000001
 20
4.3606100000000003
 30
0.0
 10
-0.19543
 20
5.1759500000000003
 30
0.0
 10
-0.40117
 20
6.2122700000000002
 30
0.0
 10
-0.09891
 20
7.0885700000000007
 30
0.0
  0
SPLINE
  5
26
100
AcDbEntity
  8
Ebene 1
 62
     7
100
AcDbSpline
210
0.0
220
0.0
230
1.0
 70
     1
 71
     3
 72
    44
 73
    40
 74
     0
 42
0.0000000001
 43
0.0000000001
 40
0.0
 40
0.0
 40
0.0
 40
0.0
 40
0.1
 40
0.1
 40
0.1
 40
0.1
 40
0.2
 40
0.2
 40
0.2
 40
0.2
 40
0.3
 40
0.3
 40
0.3
 40
0.3
 40
0.4
 40
0.4
 40
0.4
 40
0.4
 40
0.5
 40
0.5
 40
0.5
 40
0.5
 40
0.6
 40
0.6
 40
0.6
 40
0.6
 40
0.7
 40
0.7
 40
0.7
 40
0.7
 40
0.7999999999999999
 40
0.7999999999999999
 40
0.7999999999999999
 40
0.7999999999999999
 40
0.8999999999999999
 40
0.8999999999999999
 40
0.8999999999999999
 40
0.8999999999999999
 40
1.0
 40
1.0
 40
1.0
 40
1.0
 10
-0.08367
 20
6.5221500000000008
 30
0.0
 10
0.06872
 20
6.0141500000000008
 30
0.0
 10
0.15
 20
5.5823500000000008
 30
0.0
 10
0.28208
 20
5.0413300000000003
 30
0.0
 10
0.28208
 20
5.0413300000000003
 30
0.0
 10
0.14746
 20
4.9422700000000006
 30
0.0
 10
0.2135
 20
4.6222300000000001
 30
0.0
 10
0.19064
 20
4.3987100000000003
 30
0.0
 10
0.19064
 20
4.3987100000000003
 30
0.0
 10
0.19064
 20
4.3987100000000003
 30
0.0
 10
-0.00493
 20
4.2513900000000007
 30
0.0
 10
-0.00493
 20
4.2513900000000007
 30
0.0
 10
-0.00493
 20
4.2513900000000007
 30
0.0
 10
-0.13701
 20
4.3606100000000003
 30
0.0
 10
-0.15479
 20
4.5231700000000004
 30
0.0
 10
-0.14209
 20
4.67049
 30
0.0
 10
-0.14209
 20
4.67049
 30
0.0
 10
-0.16749
 20
4.80511
 30
0.0
 10
-0.06589
 20
4.96767
 30
0.0
 10
-0.17257
 20
5.0768900000000006
 30
0.0
 10
-0.17257
 20
5.0768900000000006
 30
0.0
 10
-0.27671
 20
4.92957
 30
0.0
 10
-0.23353
 20
4.7085900000000001
 30
0.0
 10
-0.31735
 20
4.5485700000000007
 30
0.0
 10
-0.31735
 20
4.5485700000000007
 30
0.0
 10
-0.35291
 20
4.80511
 30
0.0
 10
-0.33767
 20
5.0641900000000009
 30
0.0
 10
-0.27925
 20
5.31311
 30
0.0
 10
-0.27925
 20
5.31311
 30
0.0
 10
-0.27925
 20
5.31311
 30
0.0
 10
-0.26147
 20
5.1505500000000008
 30
0.0
 10
-0.26147
 20
5.1505500000000008
 30
0.0
 10
-0.26147
 20
5.1505500000000008
 30
0.0
 10
-0.25893
 20
5.1149900000000006
 30
0.0
 10
-0.27417
 20
4.9803700000000006
 30
0.0
 10
-0.23353
 20
5.0641900000000009
 30
0.0
 10
-0.23353
 20
5.0641900000000009
 30
0.0
 10
-0.21575
 20
5.5594900000000003
 30
0.0
 10
-0.14209
 20
6.0268500000000005
 30
0.0
 10
-0.08367
 20
6.5221500000000008
 30
0.0
  0
SPLINE
  5
27
100
AcDbEntity
  8
Ebene 1
100
AcDbSpline
210
0.0
220
0.0
230
1.0
 70
     1
 71
     3
 72
    16
 73
    12
 74
     0
 42
0.0000000001
 43
0.0000000001
 40
0.0
 40
0.0
 40
0.0
 40
0.0
 40
0.3333333333333333
 40
0.3333333333333333
 40
0.3333333333333333
 40
0.3333333333333333
 40
0.6666666666666666
 40
0.6666666666666666
 40
0.6666666666666666
 40
0.6666666666666666
 40
1.0
 40
1.0
 40
1.0
 40
1.0
 10
-0.02017
 20
5.4401100000000007
 30
0.0
 10
0.07126
 20
5.1657900000000003
 30
0.0
 10
0.1246
 20
4.7543100000000003
 30
0.0
 10
0.14238
 20
4.5053900000000002
 30
0.0
 10
0.14238
 20
4.5053900000000002
 30
0.0
 10
0.15
 20
4.4139500000000007
 30
0.0
 10
0.09412
 20
4.4139500000000007
 30
0.0
 10
0.01538
 20
4.3504500000000004
 30
0.0
 10
0.01538
 20
4.3504500000000004
 30
0.0
 10
0.03824
 20
4.6222300000000001
 30
0.0
 10
-0.02525
 20
5.1708700000000007
 30
0.0
 10
-0.02017
 20
5.4401100000000007
 30
0.0
  0
SPLINE
  5
28
100
AcDbEntity
  8
Ebene 1
 62
     7
100
AcDbSpline
210
0.0
220
0.0
230
1.0
 70
     1
 71
     3
 72
    40
 73
    36
 74
     0
 42
0.0000000001
 43
0.0000000001
 40
0.0
 40
0.0
 40
0.0
 40
0.0
 40
0.1111111111111111
 40
0.1111111111111111
 40
0.1111111111111111
 40
0.1111111111111111
 40
0.2222222222222222
 40
0.2222222222222222
 40
0.2222222222222222
 40
0.2222222222222222
 40
0.3333333333333333
 40
0.3333333333333333
 40
0.3333333333333333
 40
0.3333333333333333
 40
0.4444444444444444
 40
0.4444444444444444
 40
0.4444444444444444
 40
0.4444444444444444
 40
0.5555555555555556
 40
0.5555555555555556
 40
0.5555555555555556
 40
0.5555555555555556
 40
0.6666666666666667
 40
0.6666666666666667
 40
0.6666666666666667
 40
0.6666666666666667
 40
0.7777777777777779
 40
0.7777777777777779
 40
0.7777777777777779
 40
0.7777777777777779
 40
0.8888888888888891
 40
0.8888888888888891
 40
0.8888888888888891
 40
0.8888888888888891
 40
1.0
 40
1.0
 40
1.0
 40
1.0
 10
3.5307400000000002
 20
4.88131
 30
0.0
 10
4.8667800000000003
 20
4.58413
 30
0.0
 10
5.6821200000000003
 20
2.9128100000000003
 30
0.0
 10
4.3943400000000006
 20
2.16859
 30
0.0
 10
4.3943400000000006
 20
2.16859
 30
0.0
 10
4.4654600000000002
 20
2.2854300000000003
 30
0.0
 10
4.7016800000000005
 20
2.5191100000000004
 30
0.0
 10
4.6153200000000005
 20
2.5826100000000003
 30
0.0
 10
4.6153200000000005
 20
2.5826100000000003
 30
0.0
 10
4.29528
 20
2.0542899999999999
 30
0.0
 10
3.6552000000000002
 20
1.69615
 30
0.0
 10
2.9313000000000002
 20
1.7875900000000002
 30
0.0
 10
2.9313000000000002
 20
1.7875900000000002
 30
0.0
 10
3.2843600000000004
 20
1.9450700000000001
 30
0.0
 10
3.7669600000000001
 20
1.9907900000000001
 30
0.0
 10
4.0489000000000006
 20
2.2651100000000004
 30
0.0
 10
4.0489000000000006
 20
2.2651100000000004
 30
0.0
 10
4.0743
 20
2.2879700000000001
 30
0.0
 10
4.0336600000000002
 20
2.34131
 30
0.0
 10
3.9955600000000002
 20
2.3235300000000003
 30
0.0
 10
3.9955600000000002
 20
2.3235300000000003
 30
0.0
 10
3.6145600000000004
 20
2.0415900000000002
 30
0.0
 10
3.1218000000000004
 20
1.9399900000000001
 30
0.0
 10
2.6341200000000002
 20
1.9120500000000002
 30
0.0
 10
2.6341200000000002
 20
1.9120500000000002
 30
0.0
 10
2.4944200000000003
 20
2.0669900000000001
 30
0.0
 10
2.6290400000000003
 20
2.2803500000000003
 30
0.0
 10
2.67984
 20
2.4479900000000003
 30
0.0
 10
2.67984
 20
2.4479900000000003
 30
0.0
 10
2.8068400000000002
 20
2.5114900000000002
 30
0.0
 10
2.9770200000000004
 20
2.4683100000000002
 30
0.0
 10
3.1192600000000001
 20
2.5368900000000001
 30
0.0
 10
3.1192600000000001
 20
2.5368900000000001
 30
0.0
 10
4.5823
 20
2.6435700000000004
 30
0.0
 10
4.5010200000000005
 20
4.2513900000000007
 30
0.0
 10
3.5307400000000002
 20
4.88131
 30
0.0
  0
SPLINE
  5
29
100
AcDbEntity
  8
Ebene 1
 62
     7
100
AcDbSpline
210
0.0
220
0.0
230
1.0
 70
     1
 71
     3
 72
    44
 73
    40
 74
     0
 42
0.0000000001
 43
0.0000000001
 40
0.0
 40
0.0
 40
0.0
 40
0.0
 40
0.1
 40
0.1
 40
0.1
 40
0.1
 40
0.2
 40
0.2
 40
0.2
 40
0.2
 40
0.3
 40
0.3
 40
0.3
 40
0.3
 40
0.4
 40
0.4
 40
0.4
 40
0.4
 40
0.5
 40
0.5
 40
0.5
 40
0.5
 40
0.6
 40
0.6
 40
0.6
 40
0.6
 40
0.7
 40
0.7
 40
0.7
 40
0.7
 40
0.7999999999999999
 40
0.7999999999999999
 40
0.7999999999999999
 40
0.7999999999999999
 40
0.8999999999999999
 40
0.8999999999999999
 40
0.8999999999999999
 40
0.8999999999999999
 40
1.0
 40
1.0
 40
1.0
 40
1.0
 10
-4.0714700000000006
 20
4.71875
 30
0.0
 10
-3.9470100000000001
 20
4.7314500000000006
 30
0.0
 10
-4.0536900000000005
 20
4.6831900000000006
 30
0.0
 10
-4.0765500000000001
 20
4.63239
 30
0.0
 10
-4.0765500000000001
 20
4.63239
 30
0.0
 10
-4.4981900000000001
 20
4.2640900000000004
 30
0.0
 10
-4.5947100000000001
 20
3.7002100000000002
 30
0.0
 10
-4.3915100000000002
 20
3.2303100000000002
 30
0.0
 10
-4.3915100000000002
 20
3.2303100000000002
 30
0.0
 10
-4.1197300000000006
 20
2.8264500000000004
 30
0.0
 10
-3.5685500000000001
 20
2.6232500000000001
 30
0.0
 10
-3.0376900000000004
 20
2.5978500000000002
 30
0.0
 10
-3.0376900000000004
 20
2.5978500000000002
 30
0.0
 10
-3.0376900000000004
 20
2.5978500000000002
 30
0.0
 10
-2.86497
 20
2.4733900000000002
 30
0.0
 10
-2.86497
 20
2.4733900000000002
 30
0.0
 10
-2.86497
 20
2.4733900000000002
 30
0.0
 10
-2.8116300000000001
 20
2.3336900000000003
 30
0.0
 10
-2.81671
 20
2.16859
 30
0.0
 10
-2.8802100000000004
 20
2.0339700000000001
 30
0.0
 10
-2.8802100000000004
 20
2.0339700000000001
 30
0.0
 10
-3.3145500000000001
 20
1.8206100000000001
 30
0.0
 10
-3.8631900000000003
 20
1.9984100000000002
 30
0.0
 10
-4.22133
 20
2.2651100000000004
 30
0.0
 10
-4.22133
 20
2.2651100000000004
 30
0.0
 10
-4.14513
 20
2.3311500000000001
 30
0.0
 10
-3.7260300000000002
 20
2.2955900000000002
 30
0.0
 10
-3.8682700000000003
 20
2.38449
 30
0.0
 10
-3.8682700000000003
 20
2.38449
 30
0.0
 10
-4.4016700000000002
 20
2.3133700000000004
 30
0.0
 10
-4.90205
 20
2.7096100000000001
 30
0.0
 10
-4.9528500000000006
 20
3.1388700000000003
 30
0.0
 10
-4.9528500000000006
 20
3.1388700000000003
 30
0.0
 10
-4.8664900000000006
 20
3.0906100000000003
 30
0.0
 10
-4.77759
 20
2.7959700000000001
 30
0.0
 10
-4.6963100000000004
 20
2.9280500000000003
 30
0.0
 10
-4.6963100000000004
 20
2.9280500000000003
 30
0.0
 10
-5.3059100000000008
 20
3.4843100000000002
 30
0.0
 10
-4.8436300000000001
 20
4.45967
 30
0.0
 10
-4.0714700000000006
 20
4.71875
 30
0.0
  0
SPLINE
  5
2A
100
AcDbEntity
  8
Ebene 1
 62
     7
100
AcDbSpline
210
0.0
220
0.0
230
1.0
 70
     1
 71
     3
 72
    84
 73
    80
 74
     0
 42
0.0000000001
 43
0.0000000001
 40
0.0
 40
0.0
 40
0.0
 40
0.0
 40
0.05
 40
0.05
 40
0.05
 40
0.05
 40
0.1
 40
0.1
 40
0.1
 40
0.1
 40
0.15
 40
0.15
 40
0.15
 40
0.15
 40
0.2
 40
0.2
 40
0.2
 40
0.2
 40
0.25
 40
0.25
 40
0.25
 40
0.25
 40
0.3
 40
0.3
 40
0.3
 40
0.3
 40
0.35
 40
0.35
 40
0.35
 40
0.35
 40
0.4
 40
0.4
 40
0.4
 40
0.4
 40
0.45
 40
0.45
 40
0.45
 40
0.45
 40
0.4999999999999999
 40
0.4999999999999999
 40
0.4999999999999999
 40
0.4999999999999999
 40
0.5499999999999999
 40
0.5499999999999999
 40
0.5499999999999999
 40
0.5499999999999999
 40
0.6
 40
0.6
 40
0.6
 40
0.6
 40
0.65
 40
0.65
 40
0.65
 40
0.65
 40
0.7000000000000001
 40
0.7000000000000001
 40
0.7000000000000001
 40
0.7000000000000001
 40
0.7500000000000001
 40
0.7500000000000001
 40
0.7500000000000001
 40
0.7500000000000001
 40
0.8000000000000002
 40
0.8000000000000002
 40
0.8000000000000002
 40
0.8000000000000002
 40
0.8500000000000002
 40
0.8500000000000002
 40
0.8500000000000002
 40
0.8500000000000002
 40
0.9000000000000002
 40
0.9000000000000002
 40
0.9000000000000002
 40
0.9000000000000002
 40
0.9500000000000003
 40
0.9500000000000003
 40
0.9500000000000003
 40
0.9500000000000003
 40
1.0
 40
1.0
 40
1.0
 40
1.0
 10
0.3557400000000001
 20
4.4495100000000001
 30
0.0
 10
0.43702
 20
4.4368100000000004
 30
0.0
 10
0.39384
 20
4.3377500000000007
 30
0.0
 10
0.38368
 20
4.28695
 30
0.0
 10
0.38368
 20
4.28695
 30
0.0
 10
-0.18527
 20
3.7992700000000004
 30
0.0
 10
0.023
 20
3.2049100000000004
 30
0.0
 10
-0.00493
 20
2.55213
 30
0.0
 10
-0.00493
 20
2.55213
 30
0.0
 10
0.1119
 20
2.4759300000000004
 30
0.0
 10
0.14492
 20
2.6308700000000003
 30
0.0
 10
0.20588
 20
2.6461100000000002
 30
0.0
 10
0.20588
 20
2.6461100000000002
 30
0.0
 10
0.20588
 20
2.6461100000000002
 30
0.0
 10
0.22874
 20
2.4784700000000002
 30
0.0
 10
0.22874
 20
2.4784700000000002
 30
0.0
 10
0.22874
 20
2.4784700000000002
 30
0.0
 10
0.76722
 20
2.1609700000000003
 30
0.0
 10
1.3463400000000001
 20
2.2193900000000002
 30
0.0
 10
1.8314800000000002
 20
2.4835500000000001
 30
0.0
 10
1.8314800000000002
 20
2.4835500000000001
 30
0.0
 10
1.8314800000000002
 20
2.2346300000000001
 30
0.0
 10
1.4073000000000002
 20
2.1863700000000001
 30
0.0
 10
1.35904
 20
1.9806300000000001
 30
0.0
 10
1.35904
 20
1.9806300000000001
 30
0.0
 10
1.23204
 20
2.0720700000000001
 30
0.0
 10
0.6529200000000001
 20
2.2320900000000004
 30
0.0
 10
0.18302
 20
2.0034900000000002
 30
0.0
 10
0.18302
 20
2.0034900000000002
 30
0.0
 10
0.18302
 20
2.0034900000000002
 30
0.0
 10
-0.12939
 20
1.3405500000000001
 30
0.0
 10
-0.12939
 20
1.3405500000000001
 30
0.0
 10
-0.12939
 20
1.3405500000000001
 30
0.0
 10
-0.12939
 20
1.3405500000000001
 30
0.0
 10
-0.45705
 20
2.0517500000000002
 30
0.0
 10
-0.45705
 20
2.0517500000000002
 30
0.0
 10
-0.45705
 20
2.0517500000000002
 30
0.0
 10
-0.8939300000000001
 20
2.12541
 30
0.0
 10
-1.3587500000000001
 20
2.08731
 30
0.0
 10
-1.7676900000000002
 20
1.9679300000000002
 30
0.0
 10
-1.7676900000000002
 20
1.9679300000000002
 30
0.0
 10
-1.8667500000000001
 20
2.13557
 30
0.0
 10
-2.1105900000000002
 20
2.21177
 30
0.0
 10
-2.2071100000000001
 20
2.37941
 30
0.0
 10
-2.2071100000000001
 20
2.37941
 30
0.0
 10
-2.1283700000000003
 20
2.37941
 30
0.0
 10
-2.0445500000000001
 20
2.3108300000000002
 30
0.0
 10
-1.9912100000000001
 20
2.4124300000000001
 30
0.0
 10
-1.9912100000000001
 20
2.4124300000000001
 30
0.0
 10
-1.8794500000000001
 20
2.3108300000000002
 30
0.0
 10
-1.6787900000000002
 20
2.1914500000000001
 30
0.0
 10
-1.54925
 20
2.3235300000000003
 30
0.0
 10
-1.54925
 20
2.3235300000000003
 30
0.0
 10
-1.20635
 20
2.1939900000000003
 30
0.0
 10
-0.7110500000000001
 20
2.3641700000000001
 30
0.0
 10
-0.35291
 20
2.4784700000000002
 30
0.0
 10
-0.35291
 20
2.4784700000000002
 30
0.0
 10
-0.35291
 20
2.4784700000000002
 30
0.0
 10
-0.33005
 20
2.63341
 30
0.0
 10
-0.33005
 20
2.63341
 30
0.0
 10
-0.33005
 20
2.63341
 30
0.0
 10
-0.27925
 20
2.5978500000000002
 30
0.0
 10
-0.20305
 20
2.4962500000000003
 30
0.0
 10
-0.13193
 20
2.5648300000000002
 30
0.0
 10
-0.13193
 20
2.5648300000000002
 30
0.0
 10
-0.03033
 20
2.8645500000000004
 30
0.0
 10
-0.13193
 20
3.2074500000000001
 30
0.0
 10
-0.17257
 20
3.5097100000000001
 30
0.0
 10
-0.17257
 20
3.5097100000000001
 30
0.0
 10
0.00268
 20
3.5325700000000002
 30
0.0
 10
-0.14971
 20
3.9516700000000005
 30
0.0
 10
-0.34529
 20
4.0939100000000002
 30
0.0
 10
-0.34529
 20
4.0939100000000002
 30
0.0
 10
-0.34529
 20
4.0939100000000002
 30
0.0
 10
-0.34529
 20
4.2386900000000001
 30
0.0
 10
-0.34529
 20
4.2386900000000001
 30
0.0
 10
-0.34529
 20
4.2386900000000001
 30
0.0
 10
-0.10399
 20
4.1650300000000007
 30
0.0
 10
0.19064
 20
4.2132900000000006
 30
0.0
 10
0.3557400000000001
 20
4.4495100000000001
 30
0.0
  0
SPLINE
  5
2B
100
AcDbEntity
  8
Ebene 1
 62
     7
100
AcDbSpline
210
0.0
220
0.0
230
1.0
 70
     1
 71
     3
 72
    56
 73
    52
 74
     0
 42
0.0000000001
 43
0.0000000001
 40
0.0
 40
0.0
 40
0.0
 40
0.0
 40
0.0769230769230769
 40
0.0769230769230769
 40
0.0769230769230769
 40
0.0769230769230769
 40
0.1538461538461539
 40
0.1538461538461539
 40
0.1538461538461539
 40
0.1538461538461539
 40
0.2307692307692308
 40
0.2307692307692308
 40
0.2307692307692308
 40
0.2307692307692308
 40
0.3076923076923077
 40
0.3076923076923077
 40
0.3076923076923077
 40
0.3076923076923077
 40
0.3846153846153846
 40
0.3846153846153846
 40
0.3846153846153846
 40
0.3846153846153846
 40
0.4615384615384616
 40
0.4615384615384616
 40
0.4615384615384616
 40
0.4615384615384616
 40
0.5384615384615386
 40
0.5384615384615386
 40
0.5384615384615386
 40
0.5384615384615386
 40
0.6153846153846154
 40
0.6153846153846154
 40
0.6153846153846154
 40
0.6153846153846154
 40
0.6923076923076923
 40
0.6923076923076923
 40
0.6923076923076923
 40
0.6923076923076923
 40
0.7692307692307692
 40
0.7692307692307692
 40
0.7692307692307692
 40
0.7692307692307692
 40
0.846153846153846
 40
0.846153846153846
 40
0.846153846153846
 40
0.846153846153846
 40
0.9230769230769229
 40
0.9230769230769229
 40
0.9230769230769229
 40
0.9230769230769229
 40
1.0
 40
1.0
 40
1.0
 40
1.0
 10
0.5614800000000001
 20
4.2031300000000007
 30
0.0
 10
1.8162400000000001
 20
4.0151700000000003
 30
0.0
 10
2.4614000000000003
 20
2.8569300000000002
 30
0.0
 10
2.2302600000000004
 20
1.8993500000000001
 30
0.0
 10
2.2302600000000004
 20
1.8993500000000001
 30
0.0
 10
2.0727800000000003
 20
1.9272900000000002
 30
0.0
 10
2.0626200000000003
 20
1.5869300000000002
 30
0.0
 10
1.8340200000000002
 20
1.5615300000000001
 30
0.0
 10
1.8340200000000002
 20
1.5615300000000001
 30
0.0
 10
1.6714600000000002
 20
1.6428100000000001
 30
0.0
 10
1.7273400000000001
 20
1.8510900000000001
 30
0.0
 10
1.5876400000000002
 20
1.9120500000000002
 30
0.0
 10
1.5876400000000002
 20
1.9120500000000002
 30
0.0
 10
1.5241400000000001
 20
2.2524100000000002
 30
0.0
 10
2.45886
 20
2.50895
 30
0.0
 10
1.8365600000000002
 20
2.8366100000000003
 30
0.0
 10
1.8365600000000002
 20
2.8366100000000003
 30
0.0
 10
1.78068
 20
2.8518500000000002
 30
0.0
 10
1.7197200000000001
 20
2.9331300000000002
 30
0.0
 10
1.6613000000000002
 20
2.8924900000000004
 30
0.0
 10
1.6613000000000002
 20
2.8924900000000004
 30
0.0
 10
1.69686
 20
2.7832700000000004
 30
0.0
 10
1.7756000000000001
 20
2.6562700000000001
 30
0.0
 10
1.7121000000000002
 20
2.5394300000000003
 30
0.0
 10
1.7121000000000002
 20
2.5394300000000003
 30
0.0
 10
1.5952600000000001
 20
2.5216500000000002
 30
0.0
 10
1.5571600000000001
 20
2.6842100000000002
 30
0.0
 10
1.4250800000000001
 20
2.6461100000000002
 30
0.0
 10
1.4250800000000001
 20
2.6461100000000002
 30
0.0
 10
1.3920600000000001
 20
2.5673700000000004
 30
0.0
 10
1.4733400000000001
 20
2.4810100000000004
 30
0.0
 10
1.3869800000000001
 20
2.4048100000000003
 30
0.0
 10
1.3869800000000001
 20
2.4048100000000003
 30
0.0
 10
1.3082400000000001
 20
2.3387700000000002
 30
0.0
 10
1.23712
 20
2.4810100000000004
 30
0.0
 10
1.1380600000000001
 20
2.4505300000000001
 30
0.0
 10
1.1380600000000001
 20
2.4505300000000001
 30
0.0
 10
1.0821800000000001
 20
2.4149700000000003
 30
0.0
 10
1.1380600000000001
 20
2.3336900000000003
 30
0.0
 10
1.06186
 20
2.3057500000000002
 30
0.0
 10
1.06186
 20
2.3057500000000002
 30
0.0
 10
0.69864
 20
2.3387700000000002
 30
0.0
 10
0.21604
 20
2.4251300000000002
 30
0.0
 10
0.27954
 20
2.8162900000000004
 30
0.0
 10
0.27954
 20
2.8162900000000004
 30
0.0
 10
0.25414
 20
2.8975700000000004
 30
0.0
 10
0.15762
 20
2.8645500000000004
 30
0.0
 10
0.10936
 20
2.8366100000000003
 30
0.0
 10
0.10936
 20
2.8366100000000003
 30
0.0
 10
0.05348
 20
3.2785700000000002
 30
0.0
 10
0.03062
 20
3.9770700000000003
 30
0.0
 10
0.5614800000000001
 20
4.2031300000000007
 30
0.0
  0
SPLINE
  5
2C
100
AcDbEntity
  8
Ebene 1
 62
     7
100
AcDbSpline
210
0.0
220
0.0
230
1.0
 70
     1
 71
     3
 72
    68
 73
    64
 74
     0
 42
0.0000000001
 43
0.0000000001
 40
0.0
 40
0.0
 40
0.0
 40
0.0
 40
0.0625
 40
0.0625
 40
0.0625
 40
0.0625
 40
0.125
 40
0.125
 40
0.125
 40
0.125
 40
0.1875
 40
0.1875
 40
0.1875
 40
0.1875
 40
0.25
 40
0.25
 40
0.25
 40
0.25
 40
0.3125
 40
0.3125
 40
0.3125
 40
0.3125
 40
0.375
 40
0.375
 40
0.375
 40
0.375
 40
0.4375
 40
0.4375
 40
0.4375
 40
0.4375
 40
0.5
 40
0.5
 40
0.5
 40
0.5
 40
0.5625
 40
0.5625
 40
0.5625
 40
0.5625
 40
0.625
 40
0.625
 40
0.625
 40
0.625
 40
0.6875
 40
0.6875
 40
0.6875
 40
0.6875
 40
0.75
 40
0.75
 40
0.75
 40
0.75
 40
0.8125
 40
0.8125
 40
0.8125
 40
0.8125
 40
0.875
 40
0.875
 40
0.875
 40
0.875
 40
0.9375
 40
0.9375
 40
0.9375
 40
0.9375
 40
1.0
 40
1.0
 40
1.0
 40
1.0
 10
-0.9701300000000001
 20
4.1523300000000001
 30
0.0
 10
-0.06081
 20
4.28695
 30
0.0
 10
-0.23353
 20
3.3090500000000005
 30
0.0
 10
-0.27925
 20
2.8366100000000003
 30
0.0
 10
-0.27925
 20
2.8366100000000003
 30
0.0
 10
-0.33767
 20
2.84423
 30
0.0
 10
-0.44181
 20
2.9610700000000003
 30
0.0
 10
-0.46721
 20
2.84423
 30
0.0
 10
-0.46721
 20
2.84423
 30
0.0
 10
-0.46721
 20
2.84423
 30
0.0
 10
-0.5002300000000001
 20
2.4911700000000003
 30
0.0
 10
-0.5002300000000001
 20
2.4911700000000003
 30
0.0
 10
-0.5002300000000001
 20
2.4911700000000003
 30
0.0
 10
-0.7999500000000001
 20
2.4403700000000002
 30
0.0
 10
-1.3993900000000001
 20
2.1838300000000004
 30
0.0
 10
-1.4908300000000001
 20
2.4733900000000002
 30
0.0
 10
-1.4908300000000001
 20
2.4733900000000002
 30
0.0
 10
-1.6991100000000001
 20
2.3235300000000003
 30
0.0
 10
-1.8743700000000001
 20
2.34131
 30
0.0
 10
-1.8997700000000002
 20
2.5724500000000003
 30
0.0
 10
-1.8997700000000002
 20
2.5724500000000003
 30
0.0
 10
-2.01153
 20
2.5800700000000001
 30
0.0
 10
-2.05471
 20
2.4911700000000003
 30
0.0
 10
-2.1182100000000004
 20
2.4403700000000002
 30
0.0
 10
-2.1182100000000004
 20
2.4403700000000002
 30
0.0
 10
-2.3214100000000002
 20
2.51403
 30
0.0
 10
-2.0826500000000001
 20
2.9940900000000004
 30
0.0
 10
-2.3264900000000002
 20
2.8162900000000004
 30
0.0
 10
-2.3264900000000002
 20
2.8162900000000004
 30
0.0
 10
-2.3264900000000002
 20
2.8162900000000004
 30
0.0
 10
-2.4026900000000002
 20
2.5851500000000001
 30
0.0
 10
-2.4026900000000002
 20
2.5851500000000001
 30
0.0
 10
-2.4026900000000002
 20
2.5851500000000001
 30
0.0
 10
-2.5322300000000002
 20
2.22193
 30
0.0
 10
-1.7067300000000001
 20
2.1812900000000002
 30
0.0
 10
-1.9759700000000002
 20
1.8333100000000002
 30
0.0
 10
-1.9759700000000002
 20
1.8333100000000002
 30
0.0
 10
-1.9759700000000002
 20
1.8333100000000002
 30
0.0
 10
-2.0039100000000003
 20
1.6732900000000002
 30
0.0
 10
-2.0039100000000003
 20
1.6732900000000002
 30
0.0
 10
-2.0039100000000003
 20
1.6732900000000002
 30
0.0
 10
-1.9988300000000001
 20
1.3913500000000001
 30
0.0
 10
-2.1004300000000002
 20
1.6250300000000002
 30
0.0
 10
-2.1105900000000002
 20
1.7698100000000001
 30
0.0
 10
-2.1105900000000002
 20
1.7698100000000001
 30
0.0
 10
-2.3061700000000003
 20
1.6504300000000001
 30
0.0
 10
-2.2121900000000001
 20
1.9349100000000001
 30
0.0
 10
-2.2858500000000004
 20
2.0314300000000003
 30
0.0
 10
-2.2858500000000004
 20
2.0314300000000003
 30
0.0
 10
-2.2833100000000002
 20
2.0644500000000003
 30
0.0
 10
-2.2782300000000002
 20
2.1406500000000004
 30
0.0
 10
-2.3391900000000003
 20
2.1279500000000002
 30
0.0
 10
-2.3391900000000003
 20
2.1279500000000002
 30
0.0
 10
-2.3899900000000001
 20
2.0339700000000001
 30
0.0
 10
-2.3214100000000002
 20
1.9095100000000003
 30
0.0
 10
-2.3899900000000001
 20
1.82315
 30
0.0
 10
-2.3899900000000001
 20
1.82315
 30
0.0
 10
-2.3899900000000001
 20
1.82315
 30
0.0
 10
-2.5017500000000004
 20
1.8993500000000001
 30
0.0
 10
-2.5017500000000004
 20
1.8993500000000001
 30
0.0
 10
-2.5017500000000004
 20
1.8993500000000001
 30
0.0
 10
-2.7481300000000002
 20
2.8315300000000003
 30
0.0
 10
-2.0801100000000003
 20
3.8729300000000002
 30
0.0
 10
-0.9701300000000001
 20
4.1523300000000001
 30
0.0
  0
SPLINE
  5
2D
100
AcDbEntity
  8
Ebene 1
100
AcDbSpline
210
0.0
220
0.0
230
1.0
 70
     1
 71
     3
 72
    16
 73
    12
 74
     0
 42
0.0000000001
 43
0.0000000001
 40
0.0
 40
0.0
 40
0.0
 40
0.0
 40
0.3333333333333333
 40
0.3333333333333333
 40
0.3333333333333333
 40
0.3333333333333333
 40
0.6666666666666666
 40
0.6666666666666666
 40
0.6666666666666666
 40
0.6666666666666666
 40
1.0
 40
1.0
 40
1.0
 40
1.0
 10
-1.4146300000000001
 20
3.9059500000000003
 30
0.0
 10
-1.1987300000000001
 20
3.8348300000000002
 30
0.0
 10
-0.9777500000000001
 20
3.4843100000000002
 30
0.0
 10
-1.29525
 20
3.3877900000000003
 30
0.0
 10
-1.29525
 20
3.3877900000000003
 30
0.0
 10
-1.3689100000000001
 20
3.3928700000000003
 30
0.0
 10
-1.4374900000000002
 20
3.4157300000000004
 30
0.0
 10
-1.4984500000000001
 20
3.4538300000000004
 30
0.0
 10
-1.4984500000000001
 20
3.4538300000000004
 30
0.0
 10
-1.5136900000000002
 20
3.6113100000000005
 30
0.0
 10
-1.4755900000000002
 20
3.7611700000000003
 30
0.0
 10
-1.4146300000000001
 20
3.9059500000000003
 30
0.0
  0
SPLINE
  5
2E
100
AcDbEntity
  8
Ebene 1
100
AcDbSpline
210
0.0
220
0.0
230
1.0
 70
     1
 71
     3
 72
    16
 73
    12
 74
     0
 42
0.0000000001
 43
0.0000000001
 40
0.0
 40
0.0
 40
0.0
 40
0.0
 40
0.3333333333333333
 40
0.3333333333333333
 40
0.3333333333333333
 40
0.3333333333333333
 40
0.6666666666666666
 40
0.6666666666666666
 40
0.6666666666666666
 40
0.6666666666666666
 40
1.0
 40
1.0
 40
1.0
 40
1.0
 10
1.0364600000000002
 20
3.9059500000000003
 30
0.0
 10
1.0720200000000002
 20
3.9084900000000005
 30
0.0
 10
1.10504
 20
3.9059500000000003
 30
0.0
 10
1.1355200000000001
 20
3.8907100000000003
 30
0.0
 10
1.1355200000000001
 20
3.8907100000000003
 30
0.0
 10
1.2269600000000001
 20
3.7281500000000003
 30
0.0
 10
1.3920600000000001
 20
3.4258900000000003
 30
0.0
 10
1.0771000000000002
 20
3.3674700000000004
 30
0.0
 10
1.0771000000000002
 20
3.3674700000000004
 30
0.0
 10
0.7265800000000001
 20
3.4233500000000001
 30
0.0
 10
0.9602600000000001
 20
3.7357700000000005
 30
0.0
 10
1.0364600000000002
 20
3.9059500000000003
 30
0.0
  0
SPLINE
  5
2F
100
AcDbEntity
  8
Ebene 1
 62
     7
100
AcDbSpline
210
0.0
220
0.0
230
1.0
 70
     1
 71
     3
 72
    12
 73
     8
 74
     0
 42
0.0000000001
 43
0.0000000001
 40
0.0
 40
0.0
 40
0.0
 40
0.0
 40
0.5
 40
0.5
 40
0.5
 40
0.5
 40
1.0
 40
1.0
 40
1.0
 40
1.0
 10
-1.3257300000000001
 20
3.7713300000000003
 30
0.0
 10
-1.2800100000000001
 20
3.7179900000000004
 30
0.0
 10
-1.1784100000000002
 20
3.6341700000000001
 30
0.0
 10
-1.2241300000000002
 20
3.5630500000000005
 30
0.0
 10
-1.2241300000000002
 20
3.5630500000000005
 30
0.0
 10
-1.3536700000000002
 20
3.5503500000000003
 30
0.0
 10
-1.3181100000000001
 20
3.7002100000000002
 30
0.0
 10
-1.3257300000000001
 20
3.7713300000000003
 30
0.0
  0
SPLINE
  5
30
100
AcDbEntity
  8
Ebene 1
 62
     7
100
AcDbSpline
210
0.0
220
0.0
230
1.0
 70
     1
 71
     3
 72
    12
 73
     8
 74
     0
 42
0.0000000001
 43
0.0000000001
 40
0.0
 40
0.0
 40
0.0
 40
0.0
 40
0.5
 40
0.5
 40
0.5
 40
0.5
 40
1.0
 40
1.0
 40
1.0
 40
1.0
 10
1.1253600000000001
 20
3.7332300000000003
 30
0.0
 10
1.1837800000000001
 20
3.6849700000000003
 30
0.0
 10
1.2218800000000001
 20
3.5351100000000004
 30
0.0
 10
1.1380600000000001
 20
3.4995500000000002
 30
0.0
 10
1.1380600000000001
 20
3.4995500000000002
 30
0.0
 10
1.1380600000000001
 20
3.4995500000000002
 30
0.0
 10
1.1253600000000001
 20
3.7332300000000003
 30
0.0
 10
1.1253600000000001
 20
3.7332300000000003
 30
0.0
  0
SPLINE
  5
31
100
AcDbEntity
  8
Ebene 1
100
AcDbSpline
210
0.0
220
0.0
230
1.0
 70
     1
 71
     3
 72
    16
 73
    12
 74
     0
 42
0.0000000001
 43
0.0000000001
 40
0.0
 40
0.0
 40
0.0
 40
0.0
 40
0.3333333333333333
 40
0.3333333333333333
 40
0.3333333333333333
 40
0.3333333333333333
 40
0.6666666666666666
 40
0.6666666666666666
 40
0.6666666666666666
 40
0.6666666666666666
 40
1.0
 40
1.0
 40
1.0
 40
1.0
 10
0.68086
 20
3.2760300000000004
 30
0.0
 10
0.68086
 20
3.2760300000000004
 30
0.0
 10
0.7519800000000001
 20
3.2734900000000002
 30
0.0
 10
0.7519800000000001
 20
3.2734900000000002
 30
0.0
 10
0.7519800000000001
 20
3.2734900000000002
 30
0.0
 10
0.82818
 20
3.1617300000000004
 30
0.0
 10
0.9043800000000001
 20
2.9890100000000004
 30
0.0
 10
0.7545200000000001
 20
2.8950300000000002
 30
0.0
 10
0.7545200000000001
 20
2.8950300000000002
 30
0.0
 10
0.4954400000000001
 20
2.9026500000000004
 30
0.0
 10
0.5945
 20
3.1591900000000002
 30
0.0
 10
0.68086
 20
3.2760300000000004
 30
0.0
  0
SPLINE
  5
32
100
AcDbEntity
  8
Ebene 1
100
AcDbSpline
210
0.0
220
0.0
230
1.0
 70
     1
 71
     3
 72
    16
 73
    12
 74
     0
 42
0.0000000001
 43
0.0000000001
 40
0.0
 40
0.0
 40
0.0
 40
0.0
 40
0.3333333333333333
 40
0.3333333333333333
 40
0.3333333333333333
 40
0.3333333333333333
 40
0.6666666666666666
 40
0.6666666666666666
 40
0.6666666666666666
 40
0.6666666666666666
 40
1.0
 40
1.0
 40
1.0
 40
1.0
 10
-1.00061
 20
3.2506300000000001
 30
0.0
 10
-1.00061
 20
3.2506300000000001
 30
0.0
 10
-0.9447300000000001
 20
3.2506300000000001
 30
0.0
 10
-0.9447300000000001
 20
3.2506300000000001
 30
0.0
 10
-0.9447300000000001
 20
3.2506300000000001
 30
0.0
 10
-0.8558300000000001
 20
3.1439500000000002
 30
0.0
 10
-0.74407
 20
2.9102700000000001
 30
0.0
 10
-0.9701300000000001
 20
2.8823300000000001
 30
0.0
 10
-0.9701300000000001
 20
2.8823300000000001
 30
0.0
 10
-1.1885700000000001
 20
2.9331300000000002
 30
0.0
 10
-1.0107700000000002
 20
3.1337900000000003
 30
0.0
 10
-1.00061
 20
3.2506300000000001
 30
0.0
  0
SPLINE
  5
33
100
AcDbEntity
  8
Ebene 1
 62
     7
100
AcDbSpline
210
0.0
220
0.0
230
1.0
 70
     1
 71
     3
 72
    12
 73
     8
 74
     0
 42
0.0000000001
 43
0.0000000001
 40
0.0
 40
0.0
 40
0.0
 40
0.0
 40
0.5
 40
0.5
 40
0.5
 40
0.5
 40
1.0
 40
1.0
 40
1.0
 40
1.0
 10
0.7062600000000001
 20
3.1541100000000002
 30
0.0
 10
0.7773800000000001
 20
3.1439500000000002
 30
0.0
 10
0.7723000000000001
 20
3.0372700000000004
 30
0.0
 10
0.76468
 20
2.9813900000000002
 30
0.0
 10
0.76468
 20
2.9813900000000002
 30
0.0
 10
0.66308
 20
2.9763100000000002
 30
0.0
 10
0.7215
 20
3.1007700000000002
 30
0.0
 10
0.7062600000000001
 20
3.1541100000000002
 30
0.0
  0
SPLINE
  5
34
100
AcDbEntity
  8
Ebene 1
 62
     7
100
AcDbSpline
210
0.0
220
0.0
230
1.0
 70
     1
 71
     3
 72
    28
 73
    24
 74
     0
 42
0.0000000001
 43
0.0000000001
 40
0.0
 40
0.0
 40
0.0
 40
0.0
 40
0.1666666666666667
 40
0.1666666666666667
 40
0.1666666666666667
 40
0.1666666666666667
 40
0.3333333333333333
 40
0.3333333333333333
 40
0.3333333333333333
 40
0.3333333333333333
 40
0.5
 40
0.5
 40
0.5
 40
0.5
 40
0.6666666666666666
 40
0.6666666666666666
 40
0.6666666666666666
 40
0.6666666666666666
 40
0.8333333333333333
 40
0.8333333333333333
 40
0.8333333333333333
 40
0.8333333333333333
 40
1.0
 40
1.0
 40
1.0
 40
1.0
 10
-2.5652500000000003
 20
2.93059
 30
0.0
 10
-2.5271500000000002
 20
2.8493100000000005
 30
0.0
 10
-2.7430500000000002
 20
2.7477100000000001
 30
0.0
 10
-2.7735300000000001
 20
2.6486500000000004
 30
0.0
 10
-2.7735300000000001
 20
2.6486500000000004
 30
0.0
 10
-2.5093700000000001
 20
2.4429100000000004
 30
0.0
 10
-2.6389100000000001
 20
2.0542899999999999
 30
0.0
 10
-2.7455900000000004
 20
1.8002900000000002
 30
0.0
 10
-2.7455900000000004
 20
1.8002900000000002
 30
0.0
 10
-2.7709900000000003
 20
1.7799700000000001
 30
0.0
 10
-2.7913100000000002
 20
1.7494900000000002
 30
0.0
 10
-2.8319500000000004
 20
1.7596500000000002
 30
0.0
 10
-2.8319500000000004
 20
1.7596500000000002
 30
0.0
 10
-2.8319500000000004
 20
1.7596500000000002
 30
0.0
 10
-2.8751300000000004
 20
1.8587100000000001
 30
0.0
 10
-2.8751300000000004
 20
1.8587100000000001
 30
0.0
 10
-2.8751300000000004
 20
1.8587100000000001
 30
0.0
 10
-2.7125700000000004
 20
2.0898500000000002
 30
0.0
 10
-2.69733
 20
2.4302100000000002
 30
0.0
 10
-2.9208500000000002
 20
2.6486500000000004
 30
0.0
 10
-2.9208500000000002
 20
2.6486500000000004
 30
0.0
 10
-2.7582900000000001
 20
2.6892900000000002
 30
0.0
 10
-2.6897100000000003
 20
2.8315300000000003
 30
0.0
 10
-2.5652500000000003
 20
2.93059
 30
0.0
  0
SPLINE
  5
35
100
AcDbEntity
  8
Ebene 1
 62
     7
100
AcDbSpline
210
0.0
220
0.0
230
1.0
 70
     1
 71
     3
 72
    36
 73
    32
 74
     0
 42
0.0000000001
 43
0.0000000001
 40
0.0
 40
0.0
 40
0.0
 40
0.0
 40
0.125
 40
0.125
 40
0.125
 40
0.125
 40
0.25
 40
0.25
 40
0.25
 40
0.25
 40
0.375
 40
0.375
 40
0.375
 40
0.375
 40
0.5
 40
0.5
 40
0.5
 40
0.5
 40
0.625
 40
0.625
 40
0.625
 40
0.625
 40
0.75
 40
0.75
 40
0.75
 40
0.75
 40
0.875
 40
0.875
 40
0.875
 40
0.875
 40
1.0
 40
1.0
 40
1.0
 40
1.0
 10
2.3064600000000004
 20
2.84423
 30
0.0
 10
2.45886
 20
2.7654900000000002
 30
0.0
 10
2.59348
 20
2.6257900000000003
 30
0.0
 10
2.7789000000000001
 20
2.6105500000000004
 30
0.0
 10
2.7789000000000001
 20
2.6105500000000004
 30
0.0
 10
2.7763600000000004
 20
2.5800700000000001
 30
0.0
 10
2.7509600000000001
 20
2.5546700000000002
 30
0.0
 10
2.7230200000000004
 20
2.5343500000000003
 30
0.0
 10
2.7230200000000004
 20
2.5343500000000003
 30
0.0
 10
2.3648800000000003
 20
2.3743300000000001
 30
0.0
 10
2.67476
 20
1.9399900000000001
 30
0.0
 10
2.4080600000000003
 20
1.7596500000000002
 30
0.0
 10
2.4080600000000003
 20
1.7596500000000002
 30
0.0
 10
2.3318600000000003
 20
1.8942700000000001
 30
0.0
 10
2.3344
 20
2.1076300000000003
 30
0.0
 10
2.3801200000000002
 20
2.2524100000000002
 30
0.0
 10
2.3801200000000002
 20
2.2524100000000002
 30
0.0
 10
2.3801200000000002
 20
2.2524100000000002
 30
0.0
 10
2.4385400000000002
 20
2.17875
 30
0.0
 10
2.4385400000000002
 20
2.17875
 30
0.0
 10
2.4385400000000002
 20
2.17875
 30
0.0
 10
2.4715600000000002
 20
2.1711300000000002
 30
0.0
 10
2.4791800000000004
 20
2.2041500000000003
 30
0.0
 10
2.4944200000000003
 20
2.2193900000000002
 30
0.0
 10
2.4944200000000003
 20
2.2193900000000002
 30
0.0
 10
2.5045800000000003
 20
2.3311500000000001
 30
0.0
 10
2.5122
 20
2.4454500000000001
 30
0.0
 10
2.5528400000000002
 20
2.54705
 30
0.0
 10
2.5528400000000002
 20
2.54705
 30
0.0
 10
2.4055200000000001
 20
2.59531
 30
0.0
 10
2.3547200000000004
 20
2.7248500000000004
 30
0.0
 10
2.3064600000000004
 20
2.84423
 30
0.0
  0
SPLINE
  5
36
100
AcDbEntity
  8
Ebene 1
100
AcDbSpline
210
0.0
220
0.0
230
1.0
 70
     1
 71
     3
 72
    36
 73
    32
 74
     0
 42
0.0000000001
 43
0.0000000001
 40
0.0
 40
0.0
 40
0.0
 40
0.0
 40
0.125
 40
0.125
 40
0.125
 40
0.125
 40
0.25
 40
0.25
 40
0.25
 40
0.25
 40
0.375
 40
0.375
 40
0.375
 40
0.375
 40
0.5
 40
0.5
 40
0.5
 40
0.5
 40
0.625
 40
0.625
 40
0.625
 40
0.625
 40
0.75
 40
0.75
 40
0.75
 40
0.75
 40
0.875
 40
0.875
 40
0.875
 40
0.875
 40
1.0
 40
1.0
 40
1.0
 40
1.0
 10
-0.24623
 20
2.3641700000000001
 30
0.0
 10
-0.13447
 20
2.3438500000000002
 30
0.0
 10
-0.21067
 20
2.2295500000000001
 30
0.0
 10
-0.04303
 20
2.2879700000000001
 30
0.0
 10
-0.04303
 20
2.2879700000000001
 30
0.0
 10
-0.00493
 20
2.1533500000000001
 30
0.0
 10
0.03316
 20
2.2727300000000001
 30
0.0
 10
0.00522
 20
2.3489300000000002
 30
0.0
 10
0.00522
 20
2.3489300000000002
 30
0.0
 10
0.023
 20
2.3717900000000003
 30
0.0
 10
0.0611
 20
2.3641700000000001
 30
0.0
 10
0.0865
 20
2.3616300000000003
 30
0.0
 10
0.0865
 20
2.3616300000000003
 30
0.0
 10
0.22366
 20
2.2371700000000003
 30
0.0
 10
0.18048
 20
2.04921
 30
0.0
 10
-0.02017
 20
2.0034900000000002
 30
0.0
 10
-0.02017
 20
2.0034900000000002
 30
0.0
 10
-0.05065
 20
1.9399900000000001
 30
0.0
 10
0.01538
 20
1.8612500000000001
 30
0.0
 10
-0.05573
 20
1.8206100000000001
 30
0.0
 10
-0.05573
 20
1.8206100000000001
 30
0.0
 10
-0.08113
 20
1.82315
 30
0.0
 10
-0.10907
 20
1.8155300000000001
 30
0.0
 10
-0.12431
 20
1.8358500000000002
 30
0.0
 10
-0.12431
 20
1.8358500000000002
 30
0.0
 10
-0.15225
 20
1.8942700000000001
 30
0.0
 10
-0.15479
 20
1.9552300000000002
 30
0.0
 10
-0.15987
 20
2.0161900000000004
 30
0.0
 10
-0.15987
 20
2.0161900000000004
 30
0.0
 10
-0.34783
 20
2.0542899999999999
 30
0.0
 10
-0.44181
 20
2.2905100000000003
 30
0.0
 10
-0.24623
 20
2.3641700000000001
 30
0.0
  0
SPLINE
  5
37
100
AcDbEntity
  8
Ebene 1
 62
     7
100
AcDbSpline
210
0.0
220
0.0
230
1.0
 70
     1
 71
     3
 72
   116
 73
   112
 74
     0
 42
0.0000000001
 43
0.0000000001
 40
0.0
 40
0.0
 40
0.0
 40
0.0
 40
0.0357142857142857
 40
0.0357142857142857
 40
0.0357142857142857
 40
0.0357142857142857
 40
0.0714285714285714
 40
0.0714285714285714
 40
0.0714285714285714
 40
0.0714285714285714
 40
0.1071428571428571
 40
0.1071428571428571
 40
0.1071428571428571
 40
0.1071428571428571
 40
0.1428571428571429
 40
0.1428571428571429
 40
0.1428571428571429
 40
0.1428571428571429
 40
0.1785714285714286
 40
0.1785714285714286
 40
0.1785714285714286
 40
0.1785714285714286
 40
0.2142857142857143
 40
0.2142857142857143
 40
0.2142857142857143
 40
0.2142857142857143
 40
0.2499999999999999
 40
0.2499999999999999
 40
0.2499999999999999
 40
0.2499999999999999
 40
0.2857142857142856
 40
0.2857142857142856
 40
0.2857142857142856
 40
0.2857142857142856
 40
0.3214285714285713
 40
0.3214285714285713
 40
0.3214285714285713
 40
0.3214285714285713
 40
0.357142857142857
 40
0.357142857142857
 40
0.357142857142857
 40
0.357142857142857
 40
0.3928571428571427
 40
0.3928571428571427
 40
0.3928571428571427
 40
0.3928571428571427
 40
0.4285714285714284
 40
0.4285714285714284
 40
0.4285714285714284
 40
0.4285714285714284
 40
0.4642857142857141
 40
0.4642857142857141
 40
0.4642857142857141
 40
0.4642857142857141
 40
0.4999999999999998
 40
0.4999999999999998
 40
0.4999999999999998
 40
0.4999999999999998
 40
0.5357142857142856
 40
0.5357142857142856
 40
0.5357142857142856
 40
0.5357142857142856
 40
0.5714285714285713
 40
0.5714285714285713
 40
0.5714285714285713
 40
0.5714285714285713
 40
0.607142857142857
 40
0.607142857142857
 40
0.607142857142857
 40
0.607142857142857
 40
0.6428571428571427
 40
0.6428571428571427
 40
0.6428571428571427
 40
0.6428571428571427
 40
0.6785714285714284
 40
0.6785714285714284
 40
0.6785714285714284
 40
0.6785714285714284
 40
0.7142857142857141
 40
0.7142857142857141
 40
0.7142857142857141
 40
0.7142857142857141
 40
0.7499999999999998
 40
0.7499999999999998
 40
0.7499999999999998
 40
0.7499999999999998
 40
0.7857142857142855
 40
0.7857142857142855
 40
0.7857142857142855
 40
0.7857142857142855
 40
0.8214285714285712
 40
0.8214285714285712
 40
0.8214285714285712
 40
0.8214285714285712
 40
0.8571428571428569
 40
0.8571428571428569
 40
0.8571428571428569
 40
0.8571428571428569
 40
0.8928571428571426
 40
0.8928571428571426
 40
0.8928571428571426
 40
0.8928571428571426
 40
0.9285714285714283
 40
0.9285714285714283
 40
0.9285714285714283
 40
0.9285714285714283
 40
0.964285714285714
 40
0.964285714285714
 40
0.964285714285714
 40
0.964285714285714
 40
1.0
 40
1.0
 40
1.0
 40
1.0
 10
0.31256
 20
2.0187300000000001
 30
0.0
 10
0.47004
 20
2.0161900000000004
 30
0.0
 10
0.63514
 20
2.0288900000000001
 30
0.0
 10
0.785
 20
1.9933300000000003
 30
0.0
 10
0.785
 20
1.9933300000000003
 30
0.0
 10
2.0499200000000002
 20
2.26003
 30
0.0
 10
1.6689200000000002
 20
0.07309
 30
0.0
 10
0.6072000000000001
 20
0.72333
 30
0.0
 10
0.6072000000000001
 20
0.72333
 30
0.0
 10
0.5462400000000001
 20
0.7182500000000001
 30
0.0
 10
0.48528
 20
0.6903100000000001
 30
0.0
 10
0.4421000000000001
 20
0.6522100000000001
 30
0.0
 10
0.4421000000000001
 20
0.6522100000000001
 30
0.0
 10
0.3786000000000001
 20
0.5633100000000001
 30
0.0
 10
0.4929000000000001
 20
0.4744100000000001
 30
0.0
 10
0.47512
 20
0.37789
 30
0.0
 10
0.47512
 20
0.37789
 30
0.0
 10
0.5945
 20
0.21787
 30
0.0
 10
0.49036
 20
0.5429900000000001
 30
0.0
 10
0.53354
 20
0.59887
 30
0.0
 10
0.53354
 20
0.59887
 30
0.0
 10
0.8434200000000001
 20
0.16961
 30
0.0
 10
0.39638
 20
-0.29012
 30
0.0
 10
-0.05573
 20
-0.09962
 30
0.0
 10
-0.05573
 20
-0.09962
 30
0.0
 10
-0.23353
 20
-0.15042
 30
0.0
 10
-0.20813
 20
-0.35108
 30
0.0
 10
-0.31989
 20
-0.12502
 30
0.0
 10
-0.31989
 20
-0.12502
 30
0.0
 10
-0.5789700000000001
 20
-0.27234
 30
0.0
 10
-0.9167900000000001
 20
0.01467
 30
0.0
 10
-0.91171
 20
0.25343
 30
0.0
 10
-0.91171
 20
0.25343
 30
0.0
 10
-0.84821
 20
0.26105
 30
0.0
 10
-0.9142500000000001
 20
0.17723
 30
0.0
 10
-0.8558300000000001
 20
0.17215
 30
0.0
 10
-0.8558300000000001
 20
0.17215
 30
0.0
 10
-0.7948700000000001
 20
0.29153
 30
0.0
 10
-0.69581
 20
0.5887100000000001
 30
0.0
 10
-0.7948700000000001
 20
0.68269
 30
0.0
 10
-0.7948700000000001
 20
0.68269
 30
0.0
 10
-0.8939300000000001
 20
0.72333
 30
0.0
 10
-1.00569
 20
0.68015
 30
0.0
 10
-1.1022100000000001
 20
0.6750700000000001
 30
0.0
 10
-1.1022100000000001
 20
0.6750700000000001
 30
0.0
 10
-1.6457700000000002
 20
0.22041
 30
0.0
 10
-1.8946900000000002
 20
1.0738500000000002
 30
0.0
 10
-1.7930900000000001
 20
1.4243700000000001
 30
0.0
 10
-1.7930900000000001
 20
1.4243700000000001
 30
0.0
 10
-1.5797300000000001
 20
0.8249300000000001
 30
0.0
 10
-0.9625100000000001
 20
1.07131
 30
0.0
 10
-0.48753
 20
1.2694300000000001
 30
0.0
 10
-0.48753
 20
1.2694300000000001
 30
0.0
 10
-0.40117
 20
1.36087
 30
0.0
 10
-0.63231
 20
1.4802500000000001
 30
0.0
 10
-0.46721
 20
1.52597
 30
0.0
 10
-0.46721
 20
1.52597
 30
0.0
 10
-0.43165
 20
1.5437500000000002
 30
0.0
 10
-0.35799
 20
1.5589900000000001
 30
0.0
 10
-0.38339
 20
1.6097900000000001
 30
0.0
 10
-0.38339
 20
1.6097900000000001
 30
0.0
 10
-0.80249
 20
1.3888100000000001
 30
0.0
 10
-1.2876300000000001
 20
2.1558900000000003
 30
0.0
 10
-1.6787900000000002
 20
1.7088500000000002
 30
0.0
 10
-1.6787900000000002
 20
1.7088500000000002
 30
0.0
 10
-1.6559300000000001
 20
1.6605900000000002
 30
0.0
 10
-1.58989
 20
1.7215500000000001
 30
0.0
 10
-1.5644900000000002
 20
1.7012300000000002
 30
0.0
 10
-1.5644900000000002
 20
1.7012300000000002
 30
0.0
 10
-1.6102100000000001
 20
1.6656700000000002
 30
0.0
 10
-1.6533900000000001
 20
1.6301100000000002
 30
0.0
 10
-1.6762500000000002
 20
1.5843900000000002
 30
0.0
 10
-1.6762500000000002
 20
1.5843900000000002
 30
0.0
 10
-1.6762500000000002
 20
1.5843900000000002
 30
0.0
 10
-1.7626100000000002
 20
1.4675500000000001
 30
0.0
 10
-1.7626100000000002
 20
1.4675500000000001
 30
0.0
 10
-1.7626100000000002
 20
1.4675500000000001
 30
0.0
 10
-1.8286500000000001
 20
1.5462900000000002
 30
0.0
 10
-1.8591300000000002
 20
1.6428100000000001
 30
0.0
 10
-1.8362700000000001
 20
1.7444100000000002
 30
0.0
 10
-1.8362700000000001
 20
1.7444100000000002
 30
0.0
 10
-1.2317500000000001
 20
2.2270100000000004
 30
0.0
 10
-0.15479
 20
1.9145900000000002
 30
0.0
 10
-0.16749
 20
1.1703700000000001
 30
0.0
 10
-0.16749
 20
1.1703700000000001
 30
0.0
 10
-0.00239
 20
1.2033900000000002
 30
0.0
 10
-0.04303
 20
1.4599300000000002
 30
0.0
 10
0.07634
 20
1.5615300000000001
 30
0.0
 10
0.07634
 20
1.5615300000000001
 30
0.0
 10
0.07634
 20
1.5615300000000001
 30
0.0
 10
0.2643
 20
1.4726300000000001
 30
0.0
 10
0.2643
 20
1.4726300000000001
 30
0.0
 10
0.2643
 20
1.4726300000000001
 30
0.0
 10
0.13222
 20
1.14497
 30
0.0
 10
0.8129400000000001
 20
1.1195700000000002
 30
0.0
 10
1.0796400000000002
 20
0.9951100000000001
 30
0.0
 10
1.0796400000000002
 20
0.9951100000000001
 30
0.0
 10
1.2625200000000001
 20
1.1576700000000002
 30
0.0
 10
1.6435200000000001
 20
1.3380100000000001
 30
0.0
 10
1.3361800000000001
 20
1.5920100000000001
 30
0.0
 10
1.3361800000000001
 20
1.5920100000000001
 30
0.0
 10
1.1533
 20
2.1025500000000004
 30
0.0
 10
0.46496
 20
1.3380100000000001
 30
0.0
 10
0.09158
 20
1.61233
 30
0.0
 10
0.09158
 20
1.61233
 30
0.0
 10
0.10428
 20
1.6758300000000002
 30
0.0
 10
0.13984
 20
1.7418700000000003
 30
0.0
 10
0.22366
 20
1.7596500000000002
 30
0.0
 10
0.22366
 20
1.7596500000000002
 30
0.0
 10
0.3252600000000001
 20
1.8079100000000001
 30
0.0
 10
0.13222
 20
1.9679300000000002
 30
0.0
 10
0.31256
 20
2.0187300000000001
 30
0.0
  0
SPLINE
  5
38
100
AcDbEntity
  8
Ebene 1
 62
     7
100
AcDbSpline
210
0.0
220
0.0
230
1.0
 70
     1
 71
     3
 72
   136
 73
   132
 74
     0
 42
0.0000000001
 43
0.0000000001
 40
0.0
 40
0.0
 40
0.0
 40
0.0
 40
0.0303030303030303
 40
0.0303030303030303
 40
0.0303030303030303
 40
0.0303030303030303
 40
0.0606060606060606
 40
0.0606060606060606
 40
0.0606060606060606
 40
0.0606060606060606
 40
0.0909090909090909
 40
0.0909090909090909
 40
0.0909090909090909
 40
0.0909090909090909
 40
0.1212121212121212
 40
0.1212121212121212
 40
0.1212121212121212
 40
0.1212121212121212
 40
0.1515151515151515
 40
0.1515151515151515
 40
0.1515151515151515
 40
0.1515151515151515
 40
0.1818181818181818
 40
0.1818181818181818
 40
0.1818181818181818
 40
0.1818181818181818
 40
0.2121212121212121
 40
0.2121212121212121
 40
0.2121212121212121
 40
0.2121212121212121
 40
0.2424242424242424
 40
0.2424242424242424
 40
0.2424242424242424
 40
0.2424242424242424
 40
0.2727272727272727
 40
0.2727272727272727
 40
0.2727272727272727
 40
0.2727272727272727
 40
0.303030303030303
 40
0.303030303030303
 40
0.303030303030303
 40
0.303030303030303
 40
0.3333333333333333
 40
0.3333333333333333
 40
0.3333333333333333
 40
0.3333333333333333
 40
0.3636363636363635
 40
0.3636363636363635
 40
0.3636363636363635
 40
0.3636363636363635
 40
0.3939393939393938
 40
0.3939393939393938
 40
0.3939393939393938
 40
0.3939393939393938
 40
0.4242424242424241
 40
0.4242424242424241
 40
0.4242424242424241
 40
0.4242424242424241
 40
0.4545454545454544
 40
0.4545454545454544
 40
0.4545454545454544
 40
0.4545454545454544
 40
0.4848484848484846
 40
0.4848484848484846
 40
0.4848484848484846
 40
0.4848484848484846
 40
0.5151515151515149
 40
0.5151515151515149
 40
0.5151515151515149
 40
0.5151515151515149
 40
0.5454545454545452
 40
0.5454545454545452
 40
0.5454545454545452
 40
0.5454545454545452
 40
0.5757575757575755
 40
0.5757575757575755
 40
0.5757575757575755
 40
0.5757575757575755
 40
0.6060606060606057
 40
0.6060606060606057
 40
0.6060606060606057
 40
0.6060606060606057
 40
0.636363636363636
 40
0.636363636363636
 40
0.636363636363636
 40
0.636363636363636
 40
0.6666666666666663
 40
0.6666666666666663
 40
0.6666666666666663
 40
0.6666666666666663
 40
0.6969696969696966
 40
0.6969696969696966
 40
0.6969696969696966
 40
0.6969696969696966
 40
0.7272727272727269
 40
0.7272727272727269
 40
0.7272727272727269
 40
0.7272727272727269
 40
0.7575757575757571
 40
0.7575757575757571
 40
0.7575757575757571
 40
0.7575757575757571
 40
0.7878787878787874
 40
0.7878787878787874
 40
0.7878787878787874
 40
0.7878787878787874
 40
0.8181818181818177
 40
0.8181818181818177
 40
0.8181818181818177
 40
0.8181818181818177
 40
0.848484848484848
 40
0.848484848484848
 40
0.848484848484848
 40
0.848484848484848
 40
0.8787878787878782
 40
0.8787878787878782
 40
0.8787878787878782
 40
0.8787878787878782
 40
0.9090909090909085
 40
0.9090909090909085
 40
0.9090909090909085
 40
0.9090909090909085
 40
0.9393939393939388
 40
0.9393939393939388
 40
0.9393939393939388
 40
0.9393939393939388
 40
0.9696969696969691
 40
0.9696969696969691
 40
0.9696969696969691
 40
0.9696969696969691
 40
1.0
 40
1.0
 40
1.0
 40
1.0
 10
-2.5347700000000004
 20
1.7469500000000002
 30
0.0
 10
-2.4484100000000004
 20
1.7037700000000002
 30
0.0
 10
-2.4966700000000004
 20
1.5996300000000001
 30
0.0
 10
-2.4331700000000001
 20
1.5386700000000002
 30
0.0
 10
-2.4331700000000001
 20
1.5386700000000002
 30
0.0
 10
-2.4331700000000001
 20
1.5386700000000002
 30
0.0
 10
-2.4331700000000001
 20
1.2897500000000002
 30
0.0
 10
-2.4331700000000001
 20
1.2897500000000002
 30
0.0
 10
-2.4331700000000001
 20
1.2897500000000002
 30
0.0
 10
-2.4636500000000003
 20
1.2059300000000002
 30
0.0
 10
-2.43825
 20
1.1170300000000002
 30
0.0
 10
-2.4331700000000001
 20
1.03067
 30
0.0
 10
-2.4331700000000001
 20
1.03067
 30
0.0
 10
-2.35189
 20
0.6115700000000001
 30
0.0
 10
-2.3874500000000003
 20
1.9526900000000003
 30
0.0
 10
-2.2731500000000002
 20
1.40405
 30
0.0
 10
-2.2731500000000002
 20
1.40405
 30
0.0
 10
-2.2528300000000003
 20
1.4142100000000002
 30
0.0
 10
-2.2528300000000003
 20
1.4345300000000001
 30
0.0
 10
-2.2553700000000001
 20
1.4523100000000002
 30
0.0
 10
-2.2553700000000001
 20
1.4523100000000002
 30
0.0
 10
-2.2553700000000001
 20
1.4523100000000002
 30
0.0
 10
-2.2502900000000001
 20
1.4980300000000002
 30
0.0
 10
-2.2502900000000001
 20
1.4980300000000002
 30
0.0
 10
-2.2502900000000001
 20
1.4980300000000002
 30
0.0
 10
-2.2096500000000003
 20
1.5335900000000002
 30
0.0
 10
-2.27569
 20
1.5970900000000001
 30
0.0
 10
-2.2401300000000002
 20
1.6224900000000002
 30
0.0
 10
-2.2401300000000002
 20
1.6224900000000002
 30
0.0
 10
-2.1283700000000003
 20
1.35833
 30
0.0
 10
-2.1690100000000001
 20
1.0001900000000001
 30
0.0
 10
-2.10297
 20
0.70301
 30
0.0
 10
-2.10297
 20
0.70301
 30
0.0
 10
-2.0496300000000001
 20
0.7284100000000001
 30
0.0
 10
-2.0572500000000002
 20
0.78683
 30
0.0
 10
-2.06487
 20
0.8350900000000001
 30
0.0
 10
-2.06487
 20
0.8350900000000001
 30
0.0
 10
-2.0826500000000001
 20
1.02051
 30
0.0
 10
-2.0343900000000001
 20
1.11195
 30
0.0
 10
-2.0293100000000002
 20
0.8757300000000001
 30
0.0
 10
-2.0293100000000002
 20
0.8757300000000001
 30
0.0
 10
-1.9937500000000001
 20
0.8325500000000001
 30
0.0
 10
-2.0420100000000003
 20
0.7080900000000001
 30
0.0
 10
-1.9759700000000002
 20
0.72333
 30
0.0
 10
-1.9759700000000002
 20
0.72333
 30
0.0
 10
-1.9759700000000002
 20
0.72333
 30
0.0
 10
-1.9556500000000001
 20
0.9798700000000001
 30
0.0
 10
-1.9556500000000001
 20
0.9798700000000001
 30
0.0
 10
-1.9556500000000001
 20
0.9798700000000001
 30
0.0
 10
-1.8540500000000002
 20
0.53537
 30
0.0
 10
-1.9429500000000002
 20
0.01721
 30
0.0
 10
-1.84135
 20
-0.4222
 30
0.0
 10
-1.84135
 20
-0.4222
 30
0.0
 10
-1.7676900000000002
 20
-0.3841000000000001
 30
0.0
 10
-1.8083300000000002
 20
-0.29774
 30
0.0
 10
-1.79817
 20
-0.23678
 30
0.0
 10
-1.79817
 20
-0.23678
 30
0.0
 10
-1.79817
 20
-0.23678
 30
0.0
 10
-1.7346700000000002
 20
0.4972700000000001
 30
0.0
 10
-1.7346700000000002
 20
0.4972700000000001
 30
0.0
 10
-1.7346700000000002
 20
0.4972700000000001
 30
0.0
 10
-1.7270500000000002
 20
-0.13264
 30
0.0
 10
-1.4857500000000001
 20
-0.88448
 30
0.0
 10
-1.6787900000000002
 20
-1.4458200000000001
 30
0.0
 10
-1.6787900000000002
 20
-1.4458200000000001
 30
0.0
 10
-1.58735
 20
-1.5525000000000002
 30
0.0
 10
-1.5340100000000001
 20
-1.6795000000000002
 30
0.0
 10
-1.5797300000000001
 20
-1.8115800000000002
 30
0.0
 10
-1.5797300000000001
 20
-1.8115800000000002
 30
0.0
 10
-1.6686300000000001
 20
-1.7861800000000001
 30
0.0
 10
-1.7524500000000001
 20
-1.5093200000000002
 30
0.0
 10
-1.8134100000000002
 20
-1.7785600000000001
 30
0.0
 10
-1.8134100000000002
 20
-1.7785600000000001
 30
0.0
 10
-1.8134100000000002
 20
-1.7785600000000001
 30
0.0
 10
-1.8997700000000002
 20
-2.1367000000000003
 30
0.0
 10
-1.8997700000000002
 20
-2.1367000000000003
 30
0.0
 10
-1.8997700000000002
 20
-2.1367000000000003
 30
0.0
 10
-1.8997700000000002
 20
-2.1367000000000003
 30
0.0
 10
-1.8870700000000002
 20
-2.4567400000000004
 30
0.0
 10
-1.8870700000000002
 20
-2.4567400000000004
 30
0.0
 10
-1.8870700000000002
 20
-2.4567400000000004
 30
0.0
 10
-1.8438900000000003
 20
-2.5989800000000001
 30
0.0
 10
-1.7727700000000002
 20
-2.4389600000000002
 30
0.0
 10
-1.6965700000000001
 20
-2.4211800000000001
 30
0.0
 10
-1.6965700000000001
 20
-2.4211800000000001
 30
0.0
 10
-1.6102100000000001
 20
-3.2085800000000004
 30
0.0
 10
-1.75753
 20
-3.8080200000000004
 30
0.0
 10
-1.8159500000000002
 20
-4.5497000000000005
 30
0.0
 10
-1.8159500000000002
 20
-4.5497000000000005
 30
0.0
 10
-1.84135
 20
-4.3846000000000007
 30
0.0
 10
-1.8616700000000002
 20
-4.1102800000000004
 30
0.0
 10
-1.9429500000000002
 20
-4.04678
 30
0.0
 10
-1.9429500000000002
 20
-4.04678
 30
0.0
 10
-1.9937500000000001
 20
-4.0061400000000003
 30
0.0
 10
-2.0140700000000002
 20
-4.1737800000000007
 30
0.0
 10
-2.1486900000000002
 20
-4.26776
 30
0.0
 10
-2.1486900000000002
 20
-4.26776
 30
0.0
 10
-1.9658100000000001
 20
-3.6657800000000003
 30
0.0
 10
-2.27061
 20
-2.8301200000000004
 30
0.0
 10
-2.0928100000000001
 20
-2.3449800000000001
 30
0.0
 10
-2.0928100000000001
 20
-2.3449800000000001
 30
0.0
 10
-2.0928100000000001
 20
-2.3449800000000001
 30
0.0
 10
-2.2121900000000001
 20
-0.92766
 30
0.0
 10
-2.2121900000000001
 20
-0.92766
 30
0.0
 10
-2.2121900000000001
 20
-0.92766
 30
0.0
 10
-2.2909300000000004
 20
-1.12324
 30
0.0
 10
-2.23251
 20
-1.3645400000000001
 30
0.0
 10
-2.2858500000000004
 20
-1.5804400000000001
 30
0.0
 10
-2.2858500000000004
 20
-1.5804400000000001
 30
0.0
 10
-2.3315700000000001
 20
-1.6922000000000001
 30
0.0
 10
-2.2883900000000001
 20
-1.83952
 30
0.0
 10
-2.3544300000000002
 20
-1.9360400000000002
 30
0.0
 10
-2.3544300000000002
 20
-1.9360400000000002
 30
0.0
 10
-2.4230100000000001
 20
-1.5372600000000001
 30
0.0
 10
-2.35189
 20
-1.1435600000000001
 30
0.0
 10
-2.3595100000000002
 20
-0.74224
 30
0.0
 10
-2.3595100000000002
 20
-0.74224
 30
0.0
 10
-2.3595100000000002
 20
-0.74224
 30
0.0
 10
-2.3976100000000002
 20
-0.6838200000000001
 30
0.0
 10
-2.3976100000000002
 20
-0.6838200000000001
 30
0.0
 10
-2.3976100000000002
 20
-0.6838200000000001
 30
0.0
 10
-2.3976100000000002
 20
-0.6838200000000001
 30
0.0
 10
-2.4890500000000002
 20
-1.4534400000000001
 30
0.0
 10
-2.4890500000000002
 20
-1.4534400000000001
 30
0.0
 10
-2.4890500000000002
 20
-1.4534400000000001
 30
0.0
 10
-2.6897100000000003
 20
-0.17836
 30
0.0
 10
-2.18425
 20
-0.2444
 30
0.0
 10
-2.61097
 20
1.01797
 30
0.0
 10
-2.61097
 20
1.01797
 30
0.0
 10
-2.5957300000000001
 20
1.2643500000000001
 30
0.0
 10
-2.6211300000000004
 20
1.5183500000000001
 30
0.0
 10
-2.5347700000000004
 20
1.7469500000000002
 30
0.0
  0
SPLINE
  5
39
100
AcDbEntity
  8
Ebene 1
 62
     7
100
AcDbSpline
210
0.0
220
0.0
230
1.0
 70
     1
 71
     3
 72
   116
 73
   112
 74
     0
 42
0.0000000001
 43
0.0000000001
 40
0.0
 40
0.0
 40
0.0
 40
0.0
 40
0.0357142857142857
 40
0.0357142857142857
 40
0.0357142857142857
 40
0.0357142857142857
 40
0.0714285714285714
 40
0.0714285714285714
 40
0.0714285714285714
 40
0.0714285714285714
 40
0.1071428571428571
 40
0.1071428571428571
 40
0.1071428571428571
 40
0.1071428571428571
 40
0.1428571428571429
 40
0.1428571428571429
 40
0.1428571428571429
 40
0.1428571428571429
 40
0.1785714285714286
 40
0.1785714285714286
 40
0.1785714285714286
 40
0.1785714285714286
 40
0.2142857142857143
 40
0.2142857142857143
 40
0.2142857142857143
 40
0.2142857142857143
 40
0.2499999999999999
 40
0.2499999999999999
 40
0.2499999999999999
 40
0.2499999999999999
 40
0.2857142857142856
 40
0.2857142857142856
 40
0.2857142857142856
 40
0.2857142857142856
 40
0.3214285714285713
 40
0.3214285714285713
 40
0.3214285714285713
 40
0.3214285714285713
 40
0.357142857142857
 40
0.357142857142857
 40
0.357142857142857
 40
0.357142857142857
 40
0.3928571428571427
 40
0.3928571428571427
 40
0.3928571428571427
 40
0.3928571428571427
 40
0.4285714285714284
 40
0.4285714285714284
 40
0.4285714285714284
 40
0.4285714285714284
 40
0.4642857142857141
 40
0.4642857142857141
 40
0.4642857142857141
 40
0.4642857142857141
 40
0.4999999999999998
 40
0.4999999999999998
 40
0.4999999999999998
 40
0.4999999999999998
 40
0.5357142857142856
 40
0.5357142857142856
 40
0.5357142857142856
 40
0.5357142857142856
 40
0.5714285714285713
 40
0.5714285714285713
 40
0.5714285714285713
 40
0.5714285714285713
 40
0.607142857142857
 40
0.607142857142857
 40
0.607142857142857
 40
0.607142857142857
 40
0.6428571428571427
 40
0.6428571428571427
 40
0.6428571428571427
 40
0.6428571428571427
 40
0.6785714285714284
 40
0.6785714285714284
 40
0.6785714285714284
 40
0.6785714285714284
 40
0.7142857142857141
 40
0.7142857142857141
 40
0.7142857142857141
 40
0.7142857142857141
 40
0.7499999999999998
 40
0.7499999999999998
 40
0.7499999999999998
 40
0.7499999999999998
 40
0.7857142857142855
 40
0.7857142857142855
 40
0.7857142857142855
 40
0.7857142857142855
 40
0.8214285714285712
 40
0.8214285714285712
 40
0.8214285714285712
 40
0.8214285714285712
 40
0.8571428571428569
 40
0.8571428571428569
 40
0.8571428571428569
 40
0.8571428571428569
 40
0.8928571428571426
 40
0.8928571428571426
 40
0.8928571428571426
 40
0.8928571428571426
 40
0.9285714285714283
 40
0.9285714285714283
 40
0.9285714285714283
 40
0.9285714285714283
 40
0.964285714285714
 40
0.964285714285714
 40
0.964285714285714
 40
0.964285714285714
 40
1.0
 40
1.0
 40
1.0
 40
1.0
 10
2.0702400000000001
 20
1.5005700000000002
 30
0.0
 10
2.1261200000000002
 20
1.1322700000000001
 30
0.0
 10
2.1007200000000004
 20
0.68015
 30
0.0
 10
2.2175600000000002
 20
0.30423
 30
0.0
 10
2.2175600000000002
 20
0.30423
 30
0.0
 10
2.2455000000000003
 20
0.4515500000000001
 30
0.0
 10
2.2353400000000003
 20
0.6242700000000001
 30
0.0
 10
2.2328000000000001
 20
0.7715900000000001
 30
0.0
 10
2.2328000000000001
 20
0.7715900000000001
 30
0.0
 10
2.2302600000000004
 20
0.7969900000000001
 30
0.0
 10
2.2429600000000001
 20
0.83001
 30
0.0
 10
2.2582
 20
0.8427100000000001
 30
0.0
 10
2.2582
 20
0.8427100000000001
 30
0.0
 10
2.3369400000000002
 20
0.4845700000000001
 30
0.0
 10
2.2759800000000001
 20
0.12389
 30
0.0
 10
2.2886800000000003
 20
-0.2444
 30
0.0
 10
2.2886800000000003
 20
-0.2444
 30
0.0
 10
2.2429600000000001
 20
-0.1936
 30
0.0
 10
2.2683600000000004
 20
-0.10724
 30
0.0
 10
2.2607400000000002
 20
-0.03866
 30
0.0
 10
2.2607400000000002
 20
-0.03866
 30
0.0
 10
2.2404200000000003
 20
0.02991
 30
0.0
 10
2.3140800000000001
 20
0.17723
 30
0.0
 10
2.2023200000000003
 20
0.19247
 30
0.0
 10
2.2023200000000003
 20
0.19247
 30
0.0
 10
2.0956400000000004
 20
-0.31298
 30
0.0
 10
2.20994
 20
-0.84384
 30
0.0
 10
2.1540600000000003
 20
-1.3670800000000001
 30
0.0
 10
2.1540600000000003
 20
-1.3670800000000001
 30
0.0
 10
1.9737200000000001
 20
-1.1003800000000001
 30
0.0
 10
2.1312000000000002
 20
-0.5111
 30
0.0
 10
1.9508600000000003
 20
-0.3714
 30
0.0
 10
1.9508600000000003
 20
-0.3714
 30
0.0
 10
1.9280000000000002
 20
-1.2705600000000001
 30
0.0
 10
2.04738
 20
-2.1773400000000001
 30
0.0
 10
2.0397600000000002
 20
-3.0358600000000004
 30
0.0
 10
2.0397600000000002
 20
-3.0358600000000004
 30
0.0
 10
1.9508600000000003
 20
-2.9952200000000002
 30
0.0
 10
1.9381600000000001
 20
-2.77678
 30
0.0
 10
1.7883000000000002
 20
-2.7539200000000004
 30
0.0
 10
1.7883000000000002
 20
-2.7539200000000004
 30
0.0
 10
1.7451200000000002
 20
-3.3457400000000002
 30
0.0
 10
1.8264000000000002
 20
-3.8867600000000002
 30
0.0
 10
1.9076800000000003
 20
-4.4811200000000007
 30
0.0
 10
1.9076800000000003
 20
-4.4811200000000007
 30
0.0
 10
1.8492600000000001
 20
-4.4074600000000004
 30
0.0
 10
1.69432
 20
-4.3490400000000005
 30
0.0
 10
1.65368
 20
-4.5014400000000006
 30
0.0
 10
1.65368
 20
-4.5014400000000006
 30
0.0
 10
1.5800200000000002
 20
-4.4074600000000004
 30
0.0
 10
1.6486000000000001
 20
-4.2423600000000006
 30
0.0
 10
1.5825600000000002
 20
-4.1458400000000006
 30
0.0
 10
1.5825600000000002
 20
-4.1458400000000006
 30
0.0
 10
1.3666600000000002
 20
-4.6487600000000002
 30
0.0
 10
1.7959200000000002
 20
-5.1872400000000001
 30
0.0
 10
1.8162400000000001
 20
-5.7104800000000004
 30
0.0
 10
1.8162400000000001
 20
-5.7104800000000004
 30
0.0
 10
1.5749400000000002
 20
-5.0856400000000006
 30
0.0
 10
1.10758
 20
-4.4455600000000004
 30
0.0
 10
1.5114400000000001
 20
-3.7673800000000002
 30
0.0
 10
1.5114400000000001
 20
-3.7673800000000002
 30
0.0
 10
1.5520800000000001
 20
-3.8080200000000004
 30
0.0
 10
1.52668
 20
-3.9426400000000004
 30
0.0
 10
1.6384400000000001
 20
-3.9223200000000005
 30
0.0
 10
1.6384400000000001
 20
-3.9223200000000005
 30
0.0
 10
1.6384400000000001
 20
-3.9223200000000005
 30
0.0
 10
1.6816200000000001
 20
-3.7800800000000003
 30
0.0
 10
1.6816200000000001
 20
-3.7800800000000003
 30
0.0
 10
1.6816200000000001
 20
-3.7800800000000003
 30
0.0
 10
1.6816200000000001
 20
-3.7800800000000003
 30
0.0
 10
1.6105
 20
-3.4727400000000004
 30
0.0
 10
1.6105
 20
-3.4727400000000004
 30
0.0
 10
1.6105
 20
-3.4727400000000004
 30
0.0
 10
1.44032
 20
-3.8689800000000005
 30
0.0
 10
1.4504800000000002
 20
-3.2416000000000005
 30
0.0
 10
1.4352400000000001
 20
-3.0358600000000004
 30
0.0
 10
1.4352400000000001
 20
-3.0358600000000004
 30
0.0
 10
1.3057000000000001
 20
-2.8987000000000003
 30
0.0
 10
1.27268
 20
-3.2035000000000005
 30
0.0
 10
1.23204
 20
-3.2670000000000003
 30
0.0
 10
1.23204
 20
-3.2670000000000003
 30
0.0
 10
1.2295
 20
-2.7869400000000004
 30
0.0
 10
1.15076
 20
-2.27894
 30
0.0
 10
1.2142600000000001
 20
-1.8039600000000002
 30
0.0
 10
1.2142600000000001
 20
-1.8039600000000002
 30
0.0
 10
1.2244200000000001
 20
-1.7353800000000001
 30
0.0
 10
1.1837800000000001
 20
-1.3442200000000002
 30
0.0
 10
1.2904600000000002
 20
-1.6083800000000001
 30
0.0
 10
1.2904600000000002
 20
-1.6083800000000001
 30
0.0
 10
1.2549000000000001
 20
-1.8344400000000001
 30
0.0
 10
1.6892400000000001
 20
-1.9157200000000001
 30
0.0
 10
1.6994000000000002
 20
-1.6439400000000002
 30
0.0
 10
1.6994000000000002
 20
-1.6439400000000002
 30
0.0
 10
1.6892400000000001
 20
-1.4051800000000001
 30
0.0
 10
1.8213200000000001
 20
-1.0216400000000001
 30
0.0
 10
1.5089000000000001
 20
-0.92766
 30
0.0
 10
1.5089000000000001
 20
-0.92766
 30
0.0
 10
1.5089000000000001
 20
-0.92766
 30
0.0
 10
1.6308200000000002
 20
0.8198500000000001
 30
0.0
 10
1.6308200000000002
 20
0.8198500000000001
 30
0.0
 10
1.6308200000000002
 20
0.8198500000000001
 30
0.0
 10
1.6308200000000002
 20
0.8198500000000001
 30
0.0
 10
1.7121000000000002
 20
0.9925700000000001
 30
0.0
 10
1.7121000000000002
 20
0.9925700000000001
 30
0.0
 10
1.7121000000000002
 20
0.9925700000000001
 30
0.0
 10
1.7908400000000002
 20
0.6522100000000001
 30
0.0
 10
1.7832200000000002
 20
0.27883
 30
0.0
 10
1.9508600000000003
 20
-0.02596
 30
0.0
 10
1.9508600000000003
 20
-0.02596
 30
0.0
 10
2.0346800000000003
 20
0.42869
 30
0.0
 10
1.7248000000000001
 20
1.1170300000000002
 30
0.0
 10
2.0702400000000001
 20
1.5005700000000002
 30
0.0
  0
SPLINE
  5
3A
100
AcDbEntity
  8
Ebene 1
100
AcDbSpline
210
0.0
220
0.0
230
1.0
 70
     1
 71
     3
 72
    32
 73
    28
 74
     0
 42
0.0000000001
 43
0.0000000001
 40
0.0
 40
0.0
 40
0.0
 40
0.0
 40
0.1428571428571429
 40
0.1428571428571429
 40
0.1428571428571429
 40
0.1428571428571429
 40
0.2857142857142857
 40
0.2857142857142857
 40
0.2857142857142857
 40
0.2857142857142857
 40
0.4285714285714286
 40
0.4285714285714286
 40
0.4285714285714286
 40
0.4285714285714286
 40
0.5714285714285714
 40
0.5714285714285714
 40
0.5714285714285714
 40
0.5714285714285714
 40
0.7142857142857142
 40
0.7142857142857142
 40
0.7142857142857142
 40
0.7142857142857142
 40
0.857142857142857
 40
0.857142857142857
 40
0.857142857142857
 40
0.857142857142857
 40
1.0
 40
1.0
 40
1.0
 40
1.0
 10
-0.11415
 20
1.1297300000000001
 30
0.0
 10
-0.11415
 20
1.1297300000000001
 30
0.0
 10
-0.01255
 20
1.0916300000000001
 30
0.0
 10
-0.01255
 20
1.0916300000000001
 30
0.0
 10
-0.01255
 20
1.0916300000000001
 30
0.0
 10
0.0484
 20
0.8223900000000001
 30
0.0
 10
0.49798
 20
0.4540900000000001
 30
0.0
 10
0.13476
 20
0.24073
 30
0.0
 10
0.13476
 20
0.24073
 30
0.0
 10
0.13476
 20
0.24073
 30
0.0
 10
-0.08113
 20
0.30169
 30
0.0
 10
-0.08113
 20
0.30169
 30
0.0
 10
-0.08113
 20
0.30169
 30
0.0
 10
-0.08113
 20
0.11119
 30
0.0
 10
-0.14463
 20
0.26613
 30
0.0
 10
-0.16749
 20
0.34995
 30
0.0
 10
-0.16749
 20
0.34995
 30
0.0
 10
-0.22845
 20
0.28645
 30
0.0
 10
-0.28941
 20
0.15183
 30
0.0
 10
-0.40371
 20
0.20771
 30
0.0
 10
-0.40371
 20
0.20771
 30
0.0
 10
-0.7262900000000001
 20
0.45663
 30
0.0
 10
-0.46721
 20
0.85033
 30
0.0
 10
-0.27163
 20
1.10433
 30
0.0
 10
-0.27163
 20
1.10433
 30
0.0
 10
-0.27163
 20
1.10433
 30
0.0
 10
-0.11415
 20
1.1297300000000001
 30
0.0
 10
-0.11415
 20
1.1297300000000001
 30
0.0
  0
SPLINE
  5
3B
100
AcDbEntity
  8
Ebene 1
 62
     7
100
AcDbSpline
210
0.0
220
0.0
230
1.0
 70
     1
 71
     3
 72
    16
 73
    12
 74
     0
 42
0.0000000001
 43
0.0000000001
 40
0.0
 40
0.0
 40
0.0
 40
0.0
 40
0.3333333333333333
 40
0.3333333333333333
 40
0.3333333333333333
 40
0.3333333333333333
 40
0.6666666666666666
 40
0.6666666666666666
 40
0.6666666666666666
 40
0.6666666666666666
 40
1.0
 40
1.0
 40
1.0
 40
1.0
 10
-2.6389100000000001
 20
0.8960500000000001
 30
0.0
 10
-2.56779
 20
0.5429900000000001
 30
0.0
 10
-2.5957300000000001
 20
0.16453
 30
0.0
 10
-2.61097
 20
-0.21138
 30
0.0
 10
-2.61097
 20
-0.21138
 30
0.0
 10
-2.6160500000000004
 20
-0.22662
 30
0.0
 10
-2.6338300000000001
 20
-0.24186
 30
0.0
 10
-2.64907
 20
-0.2444
 30
0.0
 10
-2.64907
 20
-0.2444
 30
0.0
 10
-2.6617700000000002
 20
0.13659
 30
0.0
 10
-2.64907
 20
0.5252100000000001
 30
0.0
 10
-2.6389100000000001
 20
0.8960500000000001
 30
0.0
  0
SPLINE
  5
3C
100
AcDbEntity
  8
Ebene 1
 62
     7
100
AcDbSpline
210
0.0
220
0.0
230
1.0
 70
     1
 71
     3
 72
    40
 73
    36
 74
     0
 42
0.0000000001
 43
0.0000000001
 40
0.0
 40
0.0
 40
0.0
 40
0.0
 40
0.1111111111111111
 40
0.1111111111111111
 40
0.1111111111111111
 40
0.1111111111111111
 40
0.2222222222222222
 40
0.2222222222222222
 40
0.2222222222222222
 40
0.2222222222222222
 40
0.3333333333333333
 40
0.3333333333333333
 40
0.3333333333333333
 40
0.3333333333333333
 40
0.4444444444444444
 40
0.4444444444444444
 40
0.4444444444444444
 40
0.4444444444444444
 40
0.5555555555555556
 40
0.5555555555555556
 40
0.5555555555555556
 40
0.5555555555555556
 40
0.6666666666666667
 40
0.6666666666666667
 40
0.6666666666666667
 40
0.6666666666666667
 40
0.7777777777777779
 40
0.7777777777777779
 40
0.7777777777777779
 40
0.7777777777777779
 40
0.8888888888888891
 40
0.8888888888888891
 40
0.8888888888888891
 40
0.8888888888888891
 40
1.0
 40
1.0
 40
1.0
 40
1.0
 10
1.3463400000000001
 20
0.59887
 30
0.0
 10
1.3463400000000001
 20
0.59887
 30
0.0
 10
1.1660000000000001
 20
-0.9124200000000001
 30
0.0
 10
1.1660000000000001
 20
-0.9124200000000001
 30
0.0
 10
1.1660000000000001
 20
-0.9124200000000001
 30
0.0
 10
0.9043800000000001
 20
-1.1740400000000002
 30
0.0
 10
0.55386
 20
-1.4356600000000002
 30
0.0
 10
0.1246
 20
-1.41788
 30
0.0
 10
0.1246
 20
-1.41788
 30
0.0
 10
0.1246
 20
-1.41788
 30
0.0
 10
0.16778
 20
-0.9175000000000001
 30
0.0
 10
0.16778
 20
-0.9175000000000001
 30
0.0
 10
0.16778
 20
-0.9175000000000001
 30
0.0
 10
0.28716
 20
-0.9810000000000001
 30
0.0
 10
0.37098
 20
-0.88448
 30
0.0
 10
0.38368
 20
-0.7930400000000001
 30
0.0
 10
0.38368
 20
-0.7930400000000001
 30
0.0
 10
0.4497200000000001
 20
-0.8667
 30
0.0
 10
0.3252600000000001
 20
-0.9657600000000001
 30
0.0
 10
0.3989200000000001
 20
-1.0267200000000001
 30
0.0
 10
0.3989200000000001
 20
-1.0267200000000001
 30
0.0
 10
0.4090800000000001
 20
-0.7854200000000001
 30
0.0
 10
0.6453000000000001
 20
-0.73716
 30
0.0
 10
0.7697600000000001
 20
-0.5822200000000001
 30
0.0
 10
0.7697600000000001
 20
-0.5822200000000001
 30
0.0
 10
0.7392800000000001
 20
-0.6812800000000001
 30
0.0
 10
0.8383400000000001
 20
-0.76256
 30
0.0
 10
0.9577200000000001
 20
-0.6762
 30
0.0
 10
0.9577200000000001
 20
-0.6762
 30
0.0
 10
1.0974200000000001
 20
-0.2952
 30
0.0
 10
1.15076
 20
0.10103
 30
0.0
 10
1.1279000000000001
 20
0.5226700000000001
 30
0.0
 10
1.1279000000000001
 20
0.5226700000000001
 30
0.0
 10
1.2041000000000002
 20
0.53537
 30
0.0
 10
1.2930000000000001
 20
0.53029
 30
0.0
 10
1.3463400000000001
 20
0.59887
 30
0.0
  0
SPLINE
  5
3D
100
AcDbEntity
  8
Ebene 1
 62
     7
100
AcDbSpline
210
0.0
220
0.0
230
1.0
 70
     1
 71
     3
 72
    68
 73
    64
 74
     0
 42
0.0000000001
 43
0.0000000001
 40
0.0
 40
0.0
 40
0.0
 40
0.0
 40
0.0625
 40
0.0625
 40
0.0625
 40
0.0625
 40
0.125
 40
0.125
 40
0.125
 40
0.125
 40
0.1875
 40
0.1875
 40
0.1875
 40
0.1875
 40
0.25
 40
0.25
 40
0.25
 40
0.25
 40
0.3125
 40
0.3125
 40
0.3125
 40
0.3125
 40
0.375
 40
0.375
 40
0.375
 40
0.375
 40
0.4375
 40
0.4375
 40
0.4375
 40
0.4375
 40
0.5
 40
0.5
 40
0.5
 40
0.5
 40
0.5625
 40
0.5625
 40
0.5625
 40
0.5625
 40
0.625
 40
0.625
 40
0.625
 40
0.625
 40
0.6875
 40
0.6875
 40
0.6875
 40
0.6875
 40
0.75
 40
0.75
 40
0.75
 40
0.75
 40
0.8125
 40
0.8125
 40
0.8125
 40
0.8125
 40
0.875
 40
0.875
 40
0.875
 40
0.875
 40
0.9375
 40
0.9375
 40
0.9375
 40
0.9375
 40
1.0
 40
1.0
 40
1.0
 40
1.0
 10
-1.29525
 20
0.47695
 30
0.0
 10
-1.2393700000000001
 20
0.14167
 30
0.0
 10
-1.2850900000000001
 20
-0.25202
 30
0.0
 10
-1.2165100000000002
 20
-0.6025400000000001
 30
0.0
 10
-1.2165100000000002
 20
-0.6025400000000001
 30
0.0
 10
-1.1352300000000002
 20
-0.65588
 30
0.0
 10
-0.9675900000000001
 20
-0.8514600000000001
 30
0.0
 10
-0.9142500000000001
 20
-0.6711200000000001
 30
0.0
 10
-0.9142500000000001
 20
-0.6711200000000001
 30
0.0
 10
-0.84821
 20
-0.82098
 30
0.0
 10
-0.7923300000000001
 20
-0.8768600000000001
 30
0.0
 10
-0.7516900000000001
 20
-1.0724400000000001
 30
0.0
 10
-0.7516900000000001
 20
-1.0724400000000001
 30
0.0
 10
-0.61707
 20
-0.9225800000000001
 30
0.0
 10
-0.8786900000000001
 20
-0.7066800000000001
 30
0.0
 10
-0.78217
 20
-0.5974600000000001
 30
0.0
 10
-0.78217
 20
-0.5974600000000001
 30
0.0
 10
-0.65771
 20
-0.7244600000000001
 30
0.0
 10
-0.63993
 20
-1.0953000000000002
 30
0.0
 10
-0.57135
 20
-1.1130800000000001
 30
0.0
 10
-0.57135
 20
-1.1130800000000001
 30
0.0
 10
-0.5611900000000001
 20
-1.00132
 30
0.0
 10
-0.6475500000000001
 20
-0.8413000000000001
 30
0.0
 10
-0.49769
 20
-0.7905000000000001
 30
0.0
 10
-0.49769
 20
-0.7905000000000001
 30
0.0
 10
-0.61199
 20
-0.75748
 30
0.0
 10
-0.5611900000000001
 20
-0.6685800000000001
 30
0.0
 10
-0.5408700000000001
 20
-0.59492
 30
0.0
 10
-0.5408700000000001
 20
-0.59492
 30
0.0
 10
-0.38339
 20
-0.61016
 30
0.0
 10
-0.49515
 20
-0.8133600000000001
 30
0.0
 10
-0.41895
 20
-0.8997200000000001
 30
0.0
 10
-0.41895
 20
-0.8997200000000001
 30
0.0
 10
-0.19797
 20
-0.9149600000000001
 30
0.0
 10
-0.22083
 20
-1.1486400000000001
 30
0.0
 10
-0.28687
 20
-1.3112000000000001
 30
0.0
 10
-0.28687
 20
-1.3112000000000001
 30
0.0
 10
-0.28687
 20
-1.3112000000000001
 30
0.0
 10
-0.21321
 20
-1.3670800000000001
 30
0.0
 10
-0.21321
 20
-1.3670800000000001
 30
0.0
 10
-0.21321
 20
-1.3670800000000001
 30
0.0
 10
-0.21321
 20
-1.2350000000000001
 30
0.0
 10
-0.19289
 20
-0.9149600000000001
 30
0.0
 10
-0.01255
 20
-1.1080000000000001
 30
0.0
 10
-0.01255
 20
-1.1080000000000001
 30
0.0
 10
-0.03541
 20
-0.86416
 30
0.0
 10
0.14746
 20
-0.9378200000000001
 30
0.0
 10
0.10428
 20
-1.1359400000000002
 30
0.0
 10
0.10428
 20
-1.1359400000000002
 30
0.0
 10
0.10428
 20
-1.1359400000000002
 30
0.0
 10
0.05856
 20
-1.4280400000000002
 30
0.0
 10
0.05856
 20
-1.4280400000000002
 30
0.0
 10
0.05856
 20
-1.4280400000000002
 30
0.0
 10
-0.5662700000000001
 20
-1.5677400000000001
 30
0.0
 10
-1.03617
 20
-1.11816
 30
0.0
 10
-1.3638300000000001
 20
-0.73716
 30
0.0
 10
-1.3638300000000001
 20
-0.73716
 30
0.0
 10
-1.3993900000000001
 20
-0.3307600000000001
 30
0.0
 10
-1.4247900000000002
 20
0.05785
 30
0.0
 10
-1.5263900000000001
 20
0.44901
 30
0.0
 10
-1.5263900000000001
 20
0.44901
 30
0.0
 10
-1.4578100000000001
 20
0.42615
 30
0.0
 10
-1.3511300000000002
 20
0.41599
 30
0.0
 10
-1.29525
 20
0.47695
 30
0.0
  0
SPLINE
  5
3E
100
AcDbEntity
  8
Ebene 1
 62
     7
100
AcDbSpline
210
0.0
220
0.0
230
1.0
 70
     1
 71
     3
 72
    12
 73
     8
 74
     0
 42
0.0000000001
 43
0.0000000001
 40
0.0
 40
0.0
 40
0.0
 40
0.0
 40
0.5
 40
0.5
 40
0.5
 40
0.5
 40
1.0
 40
1.0
 40
1.0
 40
1.0
 10
0.65546
 20
-0.00818
 30
0.0
 10
0.7367400000000001
 20
0.00705
 30
0.0
 10
0.7392800000000001
 20
-0.08438
 30
0.0
 10
0.74182
 20
-0.12756
 30
0.0
 10
0.74182
 20
-0.12756
 30
0.0
 10
0.69864
 20
-0.11486
 30
0.0
 10
0.63768
 20
-0.05898
 30
0.0
 10
0.65546
 20
-0.00818
 30
0.0
  0
SPLINE
  5
3F
100
AcDbEntity
  8
Ebene 1
 62
     7
100
AcDbSpline
210
0.0
220
0.0
230
1.0
 70
     1
 71
     3
 72
    16
 73
    12
 74
     0
 42
0.0000000001
 43
0.0000000001
 40
0.0
 40
0.0
 40
0.0
 40
0.0
 40
0.3333333333333333
 40
0.3333333333333333
 40
0.3333333333333333
 40
0.3333333333333333
 40
0.6666666666666666
 40
0.6666666666666666
 40
0.6666666666666666
 40
0.6666666666666666
 40
1.0
 40
1.0
 40
1.0
 40
1.0
 10
0.47512
 20
-0.06406
 30
0.0
 10
0.47512
 20
-0.06406
 30
0.0
 10
0.51576
 20
-0.0666
 30
0.0
 10
0.51576
 20
-0.0666
 30
0.0
 10
0.51576
 20
-0.0666
 30
0.0
 10
0.51068
 20
-0.15042
 30
0.0
 10
0.5868800000000001
 20
-0.27742
 30
0.0
 10
0.5030600000000001
 20
-0.33584
 30
0.0
 10
0.5030600000000001
 20
-0.33584
 30
0.0
 10
0.44464
 20
-0.26726
 30
0.0
 10
0.4522600000000001
 20
-0.14788
 30
0.0
 10
0.47512
 20
-0.06406
 30
0.0
  0
SPLINE
  5
40
100
AcDbEntity
  8
Ebene 1
 62
     7
100
AcDbSpline
210
0.0
220
0.0
230
1.0
 70
     1
 71
     3
 72
    12
 73
     8
 74
     0
 42
0.0000000001
 43
0.0000000001
 40
0.0
 40
0.0
 40
0.0
 40
0.0
 40
0.5
 40
0.5
 40
0.5
 40
0.5
 40
1.0
 40
1.0
 40
1.0
 40
1.0
 10
0.26684
 20
-0.15042
 30
0.0
 10
0.33796
 20
-0.13772
 30
0.0
 10
0.33034
 20
-0.219
 30
0.0
 10
0.32272
 20
-0.2571
 30
0.0
 10
0.32272
 20
-0.2571
 30
0.0
 10
0.26938
 20
-0.24186
 30
0.0
 10
0.25922
 20
-0.1936
 30
0.0
 10
0.26684
 20
-0.15042
 30
0.0
  0
SPLINE
  5
41
100
AcDbEntity
  8
Ebene 1
 62
     7
100
AcDbSpline
210
0.0
220
0.0
230
1.0
 70
     1
 71
     3
 72
    20
 73
    16
 74
     0
 42
0.0000000001
 43
0.0000000001
 40
0.0
 40
0.0
 40
0.0
 40
0.0
 40
0.25
 40
0.25
 40
0.25
 40
0.25
 40
0.5
 40
0.5
 40
0.5
 40
0.5
 40
0.75
 40
0.75
 40
0.75
 40
0.75
 40
1.0
 40
1.0
 40
1.0
 40
1.0
 10
-0.06843
 20
-0.16312
 30
0.0
 10
-0.06843
 20
-0.16312
 30
0.0
 10
-0.02779
 20
-0.16566
 30
0.0
 10
-0.02779
 20
-0.16566
 30
0.0
 10
-0.02779
 20
-0.16566
 30
0.0
 10
-0.01001
 20
-0.26726
 30
0.0
 10
0.12714
 20
-0.49332
 30
0.0
 10
-0.06843
 20
-0.50856
 30
0.0
 10
-0.06843
 20
-0.50856
 30
0.0
 10
-0.08367
 20
-0.50602
 30
0.0
 10
-0.09637
 20
-0.49586
 30
0.0
 10
-0.09891
 20
-0.48316
 30
0.0
 10
-0.09891
 20
-0.48316
 30
0.0
 10
-0.09891
 20
-0.48316
 30
0.0
 10
-0.06843
 20
-0.16312
 30
0.0
 10
-0.06843
 20
-0.16312
 30
0.0
  0
SPLINE
  5
42
100
AcDbEntity
  8
Ebene 1
 62
     7
100
AcDbSpline
210
0.0
220
0.0
230
1.0
 70
     1
 71
     3
 72
    12
 73
     8
 74
     0
 42
0.0000000001
 43
0.0000000001
 40
0.0
 40
0.0
 40
0.0
 40
0.0
 40
0.5
 40
0.5
 40
0.5
 40
0.5
 40
1.0
 40
1.0
 40
1.0
 40
1.0
 10
-0.5408700000000001
 20
-0.19868
 30
0.0
 10
-0.42149
 20
-0.25202
 30
0.0
 10
-0.4824500000000001
 20
-0.4145800000000001
 30
0.0
 10
-0.47229
 20
-0.5161800000000001
 30
0.0
 10
-0.47229
 20
-0.5161800000000001
 30
0.0
 10
-0.6297700000000001
 20
-0.49332
 30
0.0
 10
-0.5789700000000001
 20
-0.29012
 30
0.0
 10
-0.5408700000000001
 20
-0.19868
 30
0.0
  0
SPLINE
  5
43
100
AcDbEntity
  8
Ebene 1
 62
     7
100
AcDbSpline
210
0.0
220
0.0
230
1.0
 70
     1
 71
     3
 72
    16
 73
    12
 74
     0
 42
0.0000000001
 43
0.0000000001
 40
0.0
 40
0.0
 40
0.0
 40
0.0
 40
0.3333333333333333
 40
0.3333333333333333
 40
0.3333333333333333
 40
0.3333333333333333
 40
0.6666666666666666
 40
0.6666666666666666
 40
0.6666666666666666
 40
0.6666666666666666
 40
1.0
 40
1.0
 40
1.0
 40
1.0
 10
-0.3656100000000001
 20
-0.19868
 30
0.0
 10
-0.3656100000000001
 20
-0.19868
 30
0.0
 10
-0.33767
 20
-0.20122
 30
0.0
 10
-0.33767
 20
-0.20122
 30
0.0
 10
-0.33767
 20
-0.20122
 30
0.0
 10
-0.3021100000000001
 20
-0.31552
 30
0.0
 10
-0.23353
 20
-0.41966
 30
0.0
 10
-0.24877
 20
-0.5415800000000001
 30
0.0
 10
-0.24877
 20
-0.5415800000000001
 30
0.0
 10
-0.4494300000000001
 20
-0.56952
 30
0.0
 10
-0.4062500000000001
 20
-0.3002800000000001
 30
0.0
 10
-0.3656100000000001
 20
-0.19868
 30
0.0
  0
SPLINE
  5
44
100
AcDbEntity
  8
Ebene 1
 62
     7
100
AcDbSpline
210
0.0
220
0.0
230
1.0
 70
     1
 71
     3
 72
    16
 73
    12
 74
     0
 42
0.0000000001
 43
0.0000000001
 40
0.0
 40
0.0
 40
0.0
 40
0.0
 40
0.3333333333333333
 40
0.3333333333333333
 40
0.3333333333333333
 40
0.3333333333333333
 40
0.6666666666666666
 40
0.6666666666666666
 40
0.6666666666666666
 40
0.6666666666666666
 40
1.0
 40
1.0
 40
1.0
 40
1.0
 10
0.11952
 20
-0.22408
 30
0.0
 10
0.22366
 20
-0.25202
 30
0.0
 10
0.21604
 20
-0.4044200000000001
 30
0.0
 10
0.22112
 20
-0.49332
 30
0.0
 10
0.22112
 20
-0.49332
 30
0.0
 10
0.1246
 20
-0.52888
 30
0.0
 10
0.07634
 20
-0.4476000000000001
 30
0.0
 10
0.11952
 20
-0.3841000000000001
 30
0.0
 10
0.11952
 20
-0.3841000000000001
 30
0.0
 10
0.09412
 20
-0.32822
 30
0.0
 10
0.09158
 20
-0.27996
 30
0.0
 10
0.11952
 20
-0.22408
 30
0.0
  0
SPLINE
  5
45
100
AcDbEntity
  8
Ebene 1
 62
     7
100
AcDbSpline
210
0.0
220
0.0
230
1.0
 70
     1
 71
     3
 72
    12
 73
     8
 74
     0
 42
0.0000000001
 43
0.0000000001
 40
0.0
 40
0.0
 40
0.0
 40
0.0
 40
0.5
 40
0.5
 40
0.5
 40
0.5
 40
1.0
 40
1.0
 40
1.0
 40
1.0
 10
0.3278
 20
-0.29774
 30
0.0
 10
0.3684400000000001
 20
-0.3333
 30
0.0
 10
0.37606
 20
-0.4349
 30
0.0
 10
0.33034
 20
-0.4679200000000001
 30
0.0
 10
0.33034
 20
-0.4679200000000001
 30
0.0
 10
0.33034
 20
-0.4679200000000001
 30
0.0
 10
0.3278
 20
-0.29774
 30
0.0
 10
0.3278
 20
-0.29774
 30
0.0
  0
SPLINE
  5
46
100
AcDbEntity
  8
Ebene 1
 62
     7
100
AcDbSpline
210
0.0
220
0.0
230
1.0
 70
     1
 71
     3
 72
    12
 73
     8
 74
     0
 42
0.0000000001
 43
0.0000000001
 40
0.0
 40
0.0
 40
0.0
 40
0.0
 40
0.5
 40
0.5
 40
0.5
 40
0.5
 40
1.0
 40
1.0
 40
1.0
 40
1.0
 10
0.6961000000000001
 20
-0.3587
 30
0.0
 10
0.7900800000000001
 20
-0.39934
 30
0.0
 10
0.7088000000000001
 20
-0.55428
 30
0.0
 10
0.65546
 20
-0.6025400000000001
 30
0.0
 10
0.65546
 20
-0.6025400000000001
 30
0.0
 10
0.63768
 20
-0.5187200000000001
 30
0.0
 10
0.68086
 20
-0.43998
 30
0.0
 10
0.6961000000000001
 20
-0.3587
 30
0.0
  0
SPLINE
  5
47
100
AcDbEntity
  8
Ebene 1
 62
     7
100
AcDbSpline
210
0.0
220
0.0
230
1.0
 70
     1
 71
     3
 72
    12
 73
     8
 74
     0
 42
0.0000000001
 43
0.0000000001
 40
0.0
 40
0.0
 40
0.0
 40
0.0
 40
0.5
 40
0.5
 40
0.5
 40
0.5
 40
1.0
 40
1.0
 40
1.0
 40
1.0
 10
-0.6831100000000001
 20
-0.26218
 30
0.0
 10
-0.6831100000000001
 20
-0.26218
 30
0.0
 10
-0.63739
 20
-0.58984
 30
0.0
 10
-0.63739
 20
-0.58984
 30
0.0
 10
-0.63739
 20
-0.58984
 30
0.0
 10
-0.7466100000000001
 20
-0.53142
 30
0.0
 10
-0.7694700000000001
 20
-0.35108
 30
0.0
 10
-0.6831100000000001
 20
-0.26218
 30
0.0
  0
SPLINE
  5
48
100
AcDbEntity
  8
Ebene 1
 62
     7
100
AcDbSpline
210
0.0
220
0.0
230
1.0
 70
     1
 71
     3
 72
    12
 73
     8
 74
     0
 42
0.0000000001
 43
0.0000000001
 40
0.0
 40
0.0
 40
0.0
 40
0.0
 40
0.5
 40
0.5
 40
0.5
 40
0.5
 40
1.0
 40
1.0
 40
1.0
 40
1.0
 10
0.5030600000000001
 20
-0.47046
 30
0.0
 10
0.5945
 20
-0.47554
 30
0.0
 10
0.52846
 20
-0.6076200000000001
 30
0.0
 10
0.51576
 20
-0.6508000000000001
 30
0.0
 10
0.51576
 20
-0.6508000000000001
 30
0.0
 10
0.46496
 20
-0.6076200000000001
 30
0.0
 10
0.4827400000000001
 20
-0.53142
 30
0.0
 10
0.5030600000000001
 20
-0.47046
 30
0.0
  0
SPLINE
  5
49
100
AcDbEntity
  8
Ebene 1
 62
     7
100
AcDbSpline
210
0.0
220
0.0
230
1.0
 70
     1
 71
     3
 72
    20
 73
    16
 74
     0
 42
0.0000000001
 43
0.0000000001
 40
0.0
 40
0.0
 40
0.0
 40
0.0
 40
0.25
 40
0.25
 40
0.25
 40
0.25
 40
0.5
 40
0.5
 40
0.5
 40
0.5
 40
0.75
 40
0.75
 40
0.75
 40
0.75
 40
1.0
 40
1.0
 40
1.0
 40
1.0
 10
0.31256
 20
-0.5441200000000001
 30
0.0
 10
0.31256
 20
-0.5441200000000001
 30
0.0
 10
0.33796
 20
-0.54666
 30
0.0
 10
0.33796
 20
-0.54666
 30
0.0
 10
0.33796
 20
-0.54666
 30
0.0
 10
0.32272
 20
-0.6482600000000001
 30
0.0
 10
0.34304
 20
-0.80066
 30
0.0
 10
0.25414
 20
-0.8667
 30
0.0
 10
0.25414
 20
-0.8667
 30
0.0
 10
0.21858
 20
-0.7930400000000001
 30
0.0
 10
0.14746
 20
-0.61524
 30
0.0
 10
0.27954
 20
-0.5771400000000001
 30
0.0
 10
0.27954
 20
-0.5771400000000001
 30
0.0
 10
0.27954
 20
-0.5771400000000001
 30
0.0
 10
0.31256
 20
-0.5441200000000001
 30
0.0
 10
0.31256
 20
-0.5441200000000001
 30
0.0
  0
SPLINE
  5
4A
100
AcDbEntity
  8
Ebene 1
 62
     7
100
AcDbSpline
210
0.0
220
0.0
230
1.0
 70
     1
 71
     3
 72
    20
 73
    16
 74
     0
 42
0.0000000001
 43
0.0000000001
 40
0.0
 40
0.0
 40
0.0
 40
0.0
 40
0.25
 40
0.25
 40
0.25
 40
0.25
 40
0.5
 40
0.5
 40
0.5
 40
0.5
 40
0.75
 40
0.75
 40
0.75
 40
0.75
 40
1.0
 40
1.0
 40
1.0
 40
1.0
 10
-0.30465
 20
-0.6203200000000001
 30
0.0
 10
-0.30465
 20
-0.6203200000000001
 30
0.0
 10
-0.24877
 20
-0.6228600000000001
 30
0.0
 10
-0.24877
 20
-0.6228600000000001
 30
0.0
 10
-0.24877
 20
-0.6228600000000001
 30
0.0
 10
-0.23607
 20
-0.7041400000000001
 30
0.0
 10
-0.25385
 20
-0.82606
 30
0.0
 10
-0.35037
 20
-0.8540000000000001
 30
0.0
 10
-0.35037
 20
-0.8540000000000001
 30
0.0
 10
-0.40879
 20
-0.80066
 30
0.0
 10
-0.37069
 20
-0.7041400000000001
 30
0.0
 10
-0.3757700000000001
 20
-0.63302
 30
0.0
 10
-0.3757700000000001
 20
-0.63302
 30
0.0
 10
-0.3757700000000001
 20
-0.63302
 30
0.0
 10
-0.30465
 20
-0.6203200000000001
 30
0.0
 10
-0.30465
 20
-0.6203200000000001
 30
0.0
  0
SPLINE
  5
4B
100
AcDbEntity
  8
Ebene 1
 62
     7
100
AcDbSpline
210
0.0
220
0.0
230
1.0
 70
     1
 71
     3
 72
    16
 73
    12
 74
     0
 42
0.0000000001
 43
0.0000000001
 40
0.0
 40
0.0
 40
0.0
 40
0.0
 40
0.3333333333333333
 40
0.3333333333333333
 40
0.3333333333333333
 40
0.3333333333333333
 40
0.6666666666666666
 40
0.6666666666666666
 40
0.6666666666666666
 40
0.6666666666666666
 40
1.0
 40
1.0
 40
1.0
 40
1.0
 10
0.0611
 20
-0.63048
 30
0.0
 10
0.0611
 20
-0.63048
 30
0.0
 10
0.10174
 20
-0.63302
 30
0.0
 10
0.10174
 20
-0.63302
 30
0.0
 10
0.10174
 20
-0.63302
 30
0.0
 10
0.11444
 20
-0.7092200000000001
 30
0.0
 10
0.09412
 20
-0.7955800000000001
 30
0.0
 10
0.05094
 20
-0.8489200000000001
 30
0.0
 10
0.05094
 20
-0.8489200000000001
 30
0.0
 10
0.03824
 20
-0.7778000000000001
 30
0.0
 10
0.0484
 20
-0.7016000000000001
 30
0.0
 10
0.0611
 20
-0.63048
 30
0.0
  0
SPLINE
  5
4C
100
AcDbEntity
  8
Ebene 1
 62
     7
100
AcDbSpline
210
0.0
220
0.0
230
1.0
 70
     1
 71
     3
 72
    12
 73
     8
 74
     0
 42
0.0000000001
 43
0.0000000001
 40
0.0
 40
0.0
 40
0.0
 40
0.0
 40
0.5
 40
0.5
 40
0.5
 40
0.5
 40
1.0
 40
1.0
 40
1.0
 40
1.0
 10
-0.17257
 20
-0.6431800000000001
 30
0.0
 10
-0.01255
 20
-0.6685800000000001
 30
0.0
 10
-0.08875
 20
-0.8971800000000001
 30
0.0
 10
-0.14209
 20
-0.9759200000000001
 30
0.0
 10
-0.14209
 20
-0.9759200000000001
 30
0.0
 10
-0.14209
 20
-0.9759200000000001
 30
0.0
 10
-0.17257
 20
-0.6431800000000001
 30
0.0
 10
-0.17257
 20
-0.6431800000000001
 30
0.0
  0
SPLINE
  5
4D
100
AcDbEntity
  8
Ebene 1
100
AcDbSpline
210
0.0
220
0.0
230
1.0
 70
     1
 71
     3
 72
    16
 73
    12
 74
     0
 42
0.0000000001
 43
0.0000000001
 40
0.0
 40
0.0
 40
0.0
 40
0.0
 40
0.3333333333333333
 40
0.3333333333333333
 40
0.3333333333333333
 40
0.3333333333333333
 40
0.6666666666666666
 40
0.6666666666666666
 40
0.6666666666666666
 40
0.6666666666666666
 40
1.0
 40
1.0
 40
1.0
 40
1.0
 10
1.2955400000000001
 20
-1.8598400000000002
 30
0.0
 10
1.2955400000000001
 20
-1.8598400000000002
 30
0.0
 10
1.3869800000000001
 20
-2.1646400000000003
 30
0.0
 10
1.3869800000000001
 20
-2.1646400000000003
 30
0.0
 10
1.3869800000000001
 20
-2.1646400000000003
 30
0.0
 10
1.5774800000000002
 20
-2.36022
 30
0.0
 10
1.5190600000000001
 20
-2.6701000000000001
 30
0.0
 10
1.4200000000000002
 20
-2.8758400000000002
 30
0.0
 10
1.4200000000000002
 20
-2.8758400000000002
 30
0.0
 10
1.2295
 20
-2.7132800000000001
 30
0.0
 10
1.2625200000000001
 20
-2.0782800000000003
 30
0.0
 10
1.2955400000000001
 20
-1.8598400000000002
 30
0.0
  0
SPLINE
  5
4E
100
AcDbEntity
  8
Ebene 1
100
AcDbSpline
210
0.0
220
0.0
230
1.0
 70
     1
 71
     3
 72
    20
 73
    16
 74
     0
 42
0.0000000001
 43
0.0000000001
 40
0.0
 40
0.0
 40
0.0
 40
0.0
 40
0.25
 40
0.25
 40
0.25
 40
0.25
 40
0.5
 40
0.5
 40
0.5
 40
0.5
 40
0.75
 40
0.75
 40
0.75
 40
0.75
 40
1.0
 40
1.0
 40
1.0
 40
1.0
 10
-1.9581900000000001
 20
-2.6726400000000003
 30
0.0
 10
-1.9226300000000001
 20
-2.6675600000000004
 30
0.0
 10
-1.84135
 20
-2.94442
 30
0.0
 10
-1.8159500000000002
 20
-2.9647400000000004
 30
0.0
 10
-1.8159500000000002
 20
-2.9647400000000004
 30
0.0
 10
-1.6864100000000002
 20
-3.2339800000000003
 30
0.0
 10
-1.7626100000000002
 20
-3.7470600000000003
 30
0.0
 10
-1.8642100000000001
 20
-4.0061400000000003
 30
0.0
 10
-1.8642100000000001
 20
-4.0061400000000003
 30
0.0
 10
-1.8642100000000001
 20
-4.0061400000000003
 30
0.0
 10
-1.92517
 20
-3.5921200000000004
 30
0.0
 10
-1.92517
 20
-3.5921200000000004
 30
0.0
 10
-1.92517
 20
-3.5921200000000004
 30
0.0
 10
-1.9937500000000001
 20
-3.3305000000000002
 30
0.0
 10
-2.15123
 20
-2.9114000000000004
 30
0.0
 10
-1.9581900000000001
 20
-2.6726400000000003
 30
0.0
  0
ENDSEC
  0
SECTION
  2
OBJECTS
  0
DICTIONARY
  5
19
100
AcDbDictionary
280
     0
281
     1
  3
ACAD_GROUP
350
1A
  3
ACAD_MLINESTYLE
350
1B
  3
ACAD_LAYOUT
350
1E
  3
ACAD_PLOTSETTINGS
350
22
  3
ACAD_PLOTSTYLENAME
350
1F
  3
ACAD_WIPEOUT_VARS
350
23
  0
DICTIONARY
  5
1A
102
{ACAD_REACTORS
330
19
102
}
100
AcDbDictionary
280
     0
281
     1
  0
DICTIONARY
  5
1B
102
{ACAD_REACTORS
330
19
102
}
100
AcDbDictionary
280
     0
281
     1
  3
Standard
350
1C
  0
MLINESTYLE
  5
1C
102
{ACAD_REACTORS
330
1B
102
}
100
AcDbMlineStyle
  2
Standard
 70
     0
  3

 62
     0
 51
90.0
 52
90.0
 71
     2
 49
0.5
 62
   256
  6
BYLAYER
 49
-0.5
 62
   256
  6
BYLAYER
  0
ACDBDICTIONARYWDFLT
  5
1F
102
{ACAD_REACTORS
330
19
102
}
100
AcDbDictionary
281
     1
  3
Normal
350
1D
100
AcDbDictionaryWithDefault
340
1D
  0
ACDBPLACEHOLDER
  5
1D
102
{ACAD_REACTORS
330
1F
102
}
  0
LAYOUT
  5
20
102
{ACAD_REACTORS
330
1E
102
}
100
AcDbPlotSettings
  1

  2

  4

  6

 40
0.0
 41
0.0
 42
0.0
 43
0.0
 44
0.0
 45
0.0
 46
0.0
 47
0.0
 48
0.0
 49
0.0
140
0.0
141
0.0
142
1.0
143
1.0
 70
  1024
 72
     0
 73
     0
 74
     0
  7

 75
     0
147
1.0
148
0.0
149
0.0
100
AcDbLayout
  1
Model
 70
     0
 71
     0
 10
0.0
 20
0.0
 11
0.0
 21
0.0
 12
0.0
 22
0.0
 32
0.0
 14
0.0
 24
0.0
 34
0.0
 15
0.0
 25
0.0
 35
0.0
146
0.0
 13
0.0
 23
0.0
 33
0.0
 16
0.0
 26
0.0
 36
0.0
 17
0.0
 27
0.0
 37
0.0
 76
     0
330
A
331
0
345
0
346
0
  0
LAYOUT
  5
21
102
{ACAD_REACTORS
330
1E
102
}
100
AcDbPlotSettings
  1

  2

  4

  6

 40
0.0
 41
0.0
 42
0.0
 43
0.0
 44
0.0
 45
0.0
 46
0.0
 47
0.0
 48
0.0
 49
0.0
140
0.0
141
0.0
142
1.0
143
1.0
 70
     0
 72
     0
 73
     0
 74
     0
  7

 75
     0
147
1.0
148
0.0
149
0.0
100
AcDbLayout
  1
Layout1
 70
     0
 71
     0
 10
0.0
 20
0.0
 11
0.0
 21
0.0
 12
0.0
 22
0.0
 32
0.0
 14
0.0
 24
0.0
 34
0.0
 15
0.0
 25
0.0
 35
0.0
146
0.0
 13
0.0
 23
0.0
 33
0.0
 16
0.0
 26
0.0
 36
0.0
 17
0.0
 27
0.0
 37
0.0
 76
     0
330
B
331
0
345
0
346
0
  0
DICTIONARY
  5
1E
102
{ACAD_REACTORS
330
19
102
}
100
AcDbDictionary
280
     0
281
     1
  3
Layout1
350
21
  3
Model
350
20
  0
DICTIONARY
  5
22
102
{ACAD_REACTORS
330
19
102
}
100
AcDbDictionary
280
     0
281
     1
  0
WIPEOUTVARIABLES
  5
23
100
AcDbWipeoutVariables
 70
     1
  0
ENDSEC
  0
EOF
