  0
SECTION
  2
HEADER
  9
$ACADVER
  1
AC1015
  9
$ACADMAINTVER
 70
     6
  9
$DWGCODEPAGE
  3
DOS850
  9
$INSBASE
 10
0.0
 20
0.0
 30
0.0
  9
$EXTMIN
 10
-5.29575
 20
-5.38727
 30
1.000000E+20
  9
$EXTMAX
 10
5.30024
 20
5.3821
 30
-1.000000E+20
  9
$LIMMIN
 10
0.0
 20
0.0
  9
$LIMMAX
 10
0.0
 20
0.0
  9
$ORTHOMODE
 70
     0
  9
$REGENMODE
 70
     1
  9
$FILLMODE
 70
     1
  9
$QTEXTMODE
 70
     0
  9
$MIRRTEXT
 70
     1
  9
$LTSCALE
 40
1.0
  9
$ATTMODE
 70
     1
  9
$TEXTSIZE
 40
0.2
  9
$TRACEWID
 40
0.05
  9
$TEXTSTYLE
  7
Standard
  9
$CLAYER
  8
0
  9
$CELTYPE
  6
Continuous
  9
$CECOLOR
 62
   256
  9
$CELTSCALE
 40
1.0
  9
$DISPSILH
 70
     0
  9
$DIMSCALE
 40
1.0
  9
$DIMASZ
 40
0.18
  9
$DIMEXO
 40
0.0625
  9
$DIMDLI
 40
0.38
  9
$DIMRND
 40
0.0
  9
$DIMDLE
 40
0.0
  9
$DIMEXE
 40
0.18
  9
$DIMTP
 40
0.0
  9
$DIMTM
 40
0.0
  9
$DIMTXT
 40
0.18
  9
$DIMCEN
 40
0.09
  9
$DIMTSZ
 40
0.0
  9
$DIMTOL
 70
     0
  9
$DIMLIM
 70
     0
  9
$DIMTIH
 70
     1
  9
$DIMTOH
 70
     1
  9
$DIMSE1
 70
     0
  9
$DIMSE2
 70
     0
  9
$DIMTAD
 70
     0
  9
$DIMZIN
 70
     0
  9
$DIMBLK
  1

  9
$DIMASO
 70
     1
  9
$DIMSHO
 70
     1
  9
$DIMPOST
  1

  9
$DIMAPOST
  1

  9
$DIMALT
 70
     0
  9
$DIMALTD
 70
     2
  9
$DIMALTF
 40
25.4
  9
$DIMLFAC
 40
1.0
  9
$DIMTOFL
 70
     0
  9
$DIMTVP
 40
0.0
  9
$DIMTIX
 70
     0
  9
$DIMSOXD
 70
     0
  9
$DIMSAH
 70
     0
  9
$DIMBLK1
  1

  9
$DIMBLK2
  1

  9
$DIMSTYLE
  2
Standard
  9
$DIMCLRD
 70
     0
  9
$DIMCLRE
 70
     0
  9
$DIMCLRT
 70
     0
  9
$DIMTFAC
 40
1.0
  9
$DIMGAP
 40
0.09
  9
$DIMJUST
 70
     0
  9
$DIMSD1
 70
     0
  9
$DIMSD2
 70
     0
  9
$DIMTOLJ
 70
     1
  9
$DIMTZIN
 70
     0
  9
$DIMALTZ
 70
     0
  9
$DIMALTTZ
 70
     0
  9
$DIMUPT
 70
     0
  9
$DIMDEC
 70
     4
  9
$DIMTDEC
 70
     4
  9
$DIMALTU
 70
     2
  9
$DIMALTTD
 70
     2
  9
$DIMTXSTY
  7
Standard
  9
$DIMAUNIT
 70
     0
  9
$DIMADEC
 70
     0
  9
$DIMALTRND
 40
0.0
  9
$DIMAZIN
 70
     0
  9
$DIMDSEP
 70
     0
  9
$DIMATFIT
 70
     3
  9
$DIMFRAC
 70
     0
  9
$DIMLDRBLK
  1

  9
$DIMLUNIT
 70
     2
  9
$DIMLWD
 70
     0
  9
$DIMLWE
 70
     0
  9
$DIMTMOVE
 70
     0
  9
$LUNITS
 70
     2
  9
$LUPREC
 70
     4
  9
$SKETCHINC
 40
0.1
  9
$FILLETRAD
 40
0.0
  9
$AUNITS
 70
     0
  9
$AUPREC
 70
     0
  9
$MENU
  1
acad
  9
$ELEVATION
 40
0.0
  9
$PELEVATION
 40
0.0
  9
$THICKNESS
 40
0.0
  9
$LIMCHECK
 70
     0
  9
$CHAMFERA
 40
0.0
  9
$CHAMFERB
 40
0.0
  9
$CHAMFERC
 40
0.0
  9
$CHAMFERD
 40
0.0
  9
$SKPOLY
 70
     0
  9
$TDCREATE
 40
0.000000000
  9
$TDUCREATE
 40
0.000000000
  9
$TDUPDATE
 40
0.000000000
  9
$TDUUPDATE
 40
0.000000000
  9
$TDINDWG
 40
0.0000000000
  9
$TDUSRTIMER
 40
0.0000000000
  9
$USRTIMER
 70
     1
  9
$ANGBASE
 50
0.0
  9
$ANGDIR
 70
     0
  9
$PDMODE
 70
     0
  9
$PDSIZE
 40
0.0
  9
$PLINEWID
 40
0.0
  9
$SPLFRAME
 70
     0
  9
$SPLINETYPE
 70
     6
  9
$SPLINESEGS
 70
     8
  9
$HANDSEED
  5
5B
  9
$SURFTAB1
 70
     6
  9
$SURFTAB2
 70
     6
  9
$SURFTYPE
 70
     6
  9
$SURFU
 70
     6
  9
$SURFV
 70
     6
  9
$UCSBASE
  2

  9
$UCSNAME
  2

  9
$UCSORG
 10
0.0
 20
0.0
 30
0.0
  9
$UCSXDIR
 10
1.0
 20
0.0
 30
0.0
  9
$UCSYDIR
 10
0.0
 20
1.0
 30
0.0
  9
$UCSORTHOREF
  2

  9
$UCSORTHOVIEW
 70
     0
  9
$UCSORGTOP
 10
0.0
 20
0.0
 30
0.0
  9
$UCSORGBOTTOM
 10
0.0
 20
0.0
 30
0.0
  9
$UCSORGLEFT
 10
0.0
 20
0.0
 30
0.0
  9
$UCSORGRIGHT
 10
0.0
 20
0.0
 30
0.0
  9
$UCSORGFRONT
 10
0.0
 20
0.0
 30
0.0
  9
$UCSORGBACK
 10
0.0
 20
0.0
 30
0.0
  9
$PUCSBASE
  2

  9
$PUCSNAME
  2

  9
$PUCSORG
 10
0.0
 20
0.0
 30
0.0
  9
$PUCSXDIR
 10
1.0
 20
0.0
 30
0.0
  9
$PUCSYDIR
 10
0.0
 20
1.0
 30
0.0
  9
$PUCSORTHOREF
  2

  9
$PUCSORTHOVIEW
 70
     0
  9
$PUCSORGTOP
 10
0.0
 20
0.0
 30
0.0
  9
$PUCSORGBOTTOM
 10
0.0
 20
0.0
 30
0.0
  9
$PUCSORGLEFT
 10
0.0
 20
0.0
 30
0.0
  9
$PUCSORGRIGHT
 10
0.0
 20
0.0
 30
0.0
  9
$PUCSORGFRONT
 10
0.0
 20
0.0
 30
0.0
  9
$PUCSORGBACK
 10
0.0
 20
0.0
 30
0.0
  9
$USERI1
 70
     0
  9
$USERI2
 70
     0
  9
$USERI3
 70
     0
  9
$USERI4
 70
     0
  9
$USERI5
 70
     0
  9
$USERR1
 40
0.0
  9
$USERR2
 40
0.0
  9
$USERR3
 40
0.0
  9
$USERR4
 40
0.0
  9
$USERR5
 40
0.0
  9
$WORLDVIEW
 70
     1
  9
$SHADEDGE
 70
     3
  9
$SHADEDIF
 70
    70
  9
$TILEMODE
 70
     1
  9
$MAXACTVP
 70
    16
  9
$PINSBASE
 10
0.0
 20
0.0
 30
0.0
  9
$PLIMCHECK
 70
     0
  9
$PEXTMIN
 10
1.000000E+20
 20
1.000000E+20
 30
1.000000E+20
  9
$PEXTMAX
 10
-1.000000E+20
 20
-1.000000E+20
 30
-1.000000E+20
  9
$PLIMMIN
 10
0.0
 20
0.0
  9
$PLIMMAX
 10
12.0
 20
9.0
  9
$UNITMODE
 70
     0
  9
$VISRETAIN
 70
     0
  9
$PLINEGEN
 70
     1
  9
$PSLTSCALE
 70
     0
  9
$TREEDEPTH
 70
  3020
  9
$CMLSTYLE
  2
Standard
  9
$CMLJUST
 70
     0
  9
$CMLSCALE
 40
1.0
  9
$PROXYGRAPHICS
 70
     0
  9
$MEASUREMENT
 70
     0
  9
$CELWEIGHT
370
     0
  9
$ENDCAPS
280
     0
  9
$JOINSTYLE
280
     0
  9
$LWDISPLAY
290
     0
  9
$INSUNITS
 70
     5
  9
$HYPERLINKBASE
  1

  9
$XEDIT
290
     1
  9
$CEPSNTYPE
380
     0
  9
$PSTYLEMODE
290
     1
  9
$FINGERPRINTGUID
  2

  9
$VERSIONGUID
  2

  9
$EXTNAMES
290
     1
  9
$PSVPSCALE
 40
0.0
  0
ENDSEC
  0
SECTION
  2
CLASSES
  0
CLASS
  1
LWPOLYLINE
  2
AcDbPolyline
  3
AutoCAD 2000
 90
    32768
280
     0
281
     1
  0
CLASS
  1
IMAGE
  2
AcDbRasterImage
  3
ISM
 90
    32895
280
     0
281
     1
  0
CLASS
  1
OLE2FRAME
  2
AcDbOle2Frame
  3
AutoCAD 2000
 90
    32768
280
     0
281
     1
  0
CLASS
  1
HATCH
  2
AcDbHatch
  3
AutoCAD 2000
 90
    32768
280
     0
281
     1
  0
CLASS
  1
DICTIONARYVAR
  2
AcDbDictionaryVar
  3
AutoCAD 2000
 90
    32768
280
     0
281
     0
  0
CLASS
  1
RASTERVARIABLES
  2
AcDbRasterVariables
  3
ISM
 90
    32768
280
     0
281
     0
  0
CLASS
  1
IMAGEDEF
  2
AcDbRasterImageDef
  3
ISM
 90
    32768
280
     0
281
     0
  0
CLASS
  1
IMAGEDEF_REACTOR
  2
AcDbRasterImageDefReactor
  3
ISM
 90
    32769
280
     0
281
     0
  0
CLASS
  1
IDBUFFER
  2
AcDbIdBuffer
  3
AutoCAD 2000
 90
    32768
280
     0
281
     0
  0
CLASS
  1
SPATIAL_FILTER
  2
AcDbSpatialFilter
  3
AutoCAD 2000
 90
    32768
280
     0
281
     0
  0
CLASS
  1
XRECORD
  2
AcDbXrecord
  3
AutoCAD 2000
 90
    32768
280
     0
281
     0
  0
CLASS
  1
SORTENTSTABLE
  2
AcDbSortentsTable
  3
AutoCAD 2000
 90
    32768
280
     0
281
     0
  0
CLASS
  1
LAYER_INDEX
  2
AcDbLayerIndex
  3
AutoCAD 2000
 90
    32768
280
     0
281
     0
  0
CLASS
  1
SPATIAL_INDEX
  2
AcDbSpatialIndex
  3
AutoCAD 2000
 90
    32768
280
     0
281
     0
  0
CLASS
  1
OBJECT_PTR
  2
CAseDLPNTableRecord
  3
"ASE-LPNTableRecord"
 90
    32769
280
     0
281
     0
  0
CLASS
  1
LAYOUT
  2
AcDbLayout
  3
AutoCAD 2000
 90
        0
280
     0
281
     0
  0
CLASS
  1
PLOTSETTINGS
  2
AcDbPlotSettings
  3
AutoCAD 2000
 90
    32768
280
     0
281
     0
  0
CLASS
  1
ACDBDICTIONARYWDFLT
  2
AcDbDictionaryWithDefault
  3
AutoCAD 2000
 90
        0
280
     0
281
     0
  0
CLASS
  1
ACDBPLACEHOLDER
  2
AcDbPlaceHolder
  3
AutoCAD 2000
 90
        0
280
     0
281
     0
  0
CLASS
  1
VBA_PROJECT
  2
AcDbVbaProject
  3
acadvba
 90
    32768
280
     0
281
     0
  0
CLASS
  1
WIPEOUT
  2
AcDbWipeout
  3
WipeOut|AutoCAD Express Tool|expresstools@autodesk.com
 90
    32895
280
     0
281
     1
  0
CLASS
  1
WIPEOUTVARIABLES
  2
AcDbWipeoutVariables
  3
WipeOut|AutoCAD Express Tool|expresstools@autodesk.com
 90
        0
280
     0
281
     0
  0
CLASS
  1
RTEXT
  2
RText
  3
RText|AutoCAD Express Tool|expresstools@autodesk.com
 90
    32768
280
     0
281
     1
  0
CLASS
  1
ARCALIGNEDTEXT
  2
AcDbArcAlignedText
  3
ATEXT|AutoCAD Express Tool|expresstools@autodesk.com
 90
    32768
280
     0
281
     1
  0
ENDSEC
  0
SECTION
  2
TABLES
  0
TABLE
  2
VPORT
  5
7
100
AcDbSymbolTable
 70
     1
  0
VPORT
  5
15
100
AcDbSymbolTableRecord
100
AcDbViewportTableRecord
  2
*ACTIVE
 70
     0
 10
0.0
 20
0.0
 11
1.0
 21
1.0
 12
6.591288
 22
4.579184
 13
0.0
 23
0.0
 14
1.0
 24
1.0
 15
0.0
 25
0.0
 16
0.0
 26
0.0
 36
1.0
 17
0.0
 27
0.0
 37
0.0
 40
9.158369
 41
0.688564
 42
50.0
 43
0.0
 44
0.0
 50
0.0
 51
0.0
 71
     0
 72
   100
 73
     1
 74
     1
 75
     0
 76
     0
 77
     0
 78
     0
281
     0
 65
     0
110
0.0
120
0.0
130
0.0
111
1.0
121
0.0
131
0.0
112
0.0
122
1.0
132
0.0
345
0
346
0
 79
     0
146
0.0
  0
ENDTAB
  0
TABLE
  2
LTYPE
  5
4
100
AcDbSymbolTable
 70
     3
  0
LTYPE
  5
11
100
AcDbSymbolTableRecord
100
AcDbLinetypeTableRecord
  2
ByBlock
 70
    64
  3

 72
    65
 73
     0
 40
0.0
  0
LTYPE
  5
12
100
AcDbSymbolTableRecord
100
AcDbLinetypeTableRecord
  2
ByLayer
 70
    64
  3

 72
    65
 73
     0
 40
0.0
  0
LTYPE
  5
13
100
AcDbSymbolTableRecord
100
AcDbLinetypeTableRecord
  2
Continuous
 70
    64
  3
Solid line
 72
    65
 73
     0
 40
0.0
  0
ENDTAB
  0
TABLE
  2
LAYER
  5
2
100
AcDbSymbolTable
 70
     2
  0
LAYER
  5
14
100
AcDbSymbolTableRecord
100
AcDbLayerTableRecord
  2
0
 70
     0
 62
     7
  6
Continuous
290
     1
370
    -3
390
1D
  0
LAYER
  5
24
100
AcDbSymbolTableRecord
100
AcDbLayerTableRecord
  2
Ebene 1
 70
     0
 62
     7
  6
Continuous
290
     1
370
    -3
390
1F
  0
ENDTAB
  0
TABLE
  2
STYLE
  5
3
100
AcDbSymbolTable
 70
     1
  0
STYLE
  5
17
100
AcDbSymbolTableRecord
100
AcDbTextStyleTableRecord
  2
Standard
 70
     0
 40
0.0
 41
1.0
 50
0.0
 71
     0
 42
0.0
  3
txt
  4

  0
ENDTAB
  0
TABLE
  2
VIEW
  5
5
100
AcDbSymbolTable
 70
     0
  0
ENDTAB
  0
TABLE
  2
UCS
  5
6
100
AcDbSymbolTable
 70
     0
  0
ENDTAB
  0
TABLE
  2
APPID
  5
8
100
AcDbSymbolTable
 70
     1
  0
APPID
  5
16
100
AcDbSymbolTableRecord
100
AcDbRegAppTableRecord
  2
ACAD
 70
     0
  0
ENDTAB
  0
TABLE
  2
DIMSTYLE
  5
9
100
AcDbSymbolTable
 70
     1
100
AcDbDimStyleTable
 71
     0
  0
DIMSTYLE
105
18
100
AcDbSymbolTableRecord
100
AcDbDimStyleTableRecord
  2
Standard
 70
     0
  3

  4

 40
1.0
 41
0.18
 42
0.0625
 43
0.38
 44
0.18
 45
0.0
 46
0.0
 47
0.0
 48
0.0
 71
     0
 72
     0
 73
     1
 74
     1
 75
     0
 76
     0
 77
     0
 78
     0
 79
     0
140
0.18
141
0.09
142
0.0
143
25.4
144
1.0
145
0.0
146
1.0
147
0.09
148
0.0
170
     0
171
     2
172
     0
173
     0
174
     0
175
     0
176
     0
177
     0
178
     0
179
     0
271
     4
272
     4
273
     2
274
     2
275
     0
276
     0
277
     2
278
    46
279
     0
280
     0
281
     0
282
     0
283
     1
284
     0
285
     0
286
     0
288
     0
340
17
341
0
342
0
343
0
344
0
371
    -2
372
    -2
  0
ENDTAB
  0
TABLE
  2
BLOCK_RECORD
  5
1
100
AcDbSymbolTable
 70
     0
  0
BLOCK_RECORD
  5
A
100
AcDbSymbolTableRecord
100
AcDbBlockTableRecord
  2
*MODEL_SPACE
340
20
  0
BLOCK_RECORD
  5
B
100
AcDbSymbolTableRecord
100
AcDbBlockTableRecord
  2
*PAPER_SPACE
340
21
  0
ENDTAB
  0
ENDSEC
  0
SECTION
  2
BLOCKS
  0
BLOCK
  5
D
100
AcDbEntity
  8
0
100
AcDbBlockBegin
  2
*MODEL_SPACE
 70
     0
 10
0.0
 20
0.0
 30
0.0
  3
*MODEL_SPACE
  1

  0
ENDBLK
  5
E
100
AcDbEntity
  8
0
100
AcDbBlockEnd
  0
BLOCK
  5
F
100
AcDbEntity
 67
     1
  8
0
100
AcDbBlockBegin
  2
*PAPER_SPACE
 70
     0
 10
0.0
 20
0.0
 30
0.0
  3
*PAPER_SPACE
  1

  0
ENDBLK
  5
10
100
AcDbEntity
 67
     1
  8
0
100
AcDbBlockEnd
  0
ENDSEC
  0
SECTION
  2
ENTITIES
  0
SPLINE
  5
25
100
AcDbEntity
  8
Ebene 1
100
AcDbSpline
210
0.0
220
0.0
230
1.0
 70
     1
 71
     3
 72
   100
 73
    96
 74
     0
 42
0.0000000001
 43
0.0000000001
 40
0.0
 40
0.0
 40
0.0
 40
0.0
 40
0.0416666666666667
 40
0.0416666666666667
 40
0.0416666666666667
 40
0.0416666666666667
 40
0.0833333333333333
 40
0.0833333333333333
 40
0.0833333333333333
 40
0.0833333333333333
 40
0.125
 40
0.125
 40
0.125
 40
0.125
 40
0.1666666666666667
 40
0.1666666666666667
 40
0.1666666666666667
 40
0.1666666666666667
 40
0.2083333333333333
 40
0.2083333333333333
 40
0.2083333333333333
 40
0.2083333333333333
 40
0.25
 40
0.25
 40
0.25
 40
0.25
 40
0.2916666666666666
 40
0.2916666666666666
 40
0.2916666666666666
 40
0.2916666666666666
 40
0.3333333333333333
 40
0.3333333333333333
 40
0.3333333333333333
 40
0.3333333333333333
 40
0.375
 40
0.375
 40
0.375
 40
0.375
 40
0.4166666666666667
 40
0.4166666666666667
 40
0.4166666666666667
 40
0.4166666666666667
 40
0.4583333333333334
 40
0.4583333333333334
 40
0.4583333333333334
 40
0.4583333333333334
 40
0.5
 40
0.5
 40
0.5
 40
0.5
 40
0.5416666666666666
 40
0.5416666666666666
 40
0.5416666666666666
 40
0.5416666666666666
 40
0.5833333333333333
 40
0.5833333333333333
 40
0.5833333333333333
 40
0.5833333333333333
 40
0.6249999999999999
 40
0.6249999999999999
 40
0.6249999999999999
 40
0.6249999999999999
 40
0.6666666666666665
 40
0.6666666666666665
 40
0.6666666666666665
 40
0.6666666666666665
 40
0.7083333333333332
 40
0.7083333333333332
 40
0.7083333333333332
 40
0.7083333333333332
 40
0.7499999999999998
 40
0.7499999999999998
 40
0.7499999999999998
 40
0.7499999999999998
 40
0.7916666666666664
 40
0.7916666666666664
 40
0.7916666666666664
 40
0.7916666666666664
 40
0.833333333333333
 40
0.833333333333333
 40
0.833333333333333
 40
0.833333333333333
 40
0.8749999999999997
 40
0.8749999999999997
 40
0.8749999999999997
 40
0.8749999999999997
 40
0.9166666666666663
 40
0.9166666666666663
 40
0.9166666666666663
 40
0.9166666666666663
 40
0.9583333333333329
 40
0.9583333333333329
 40
0.9583333333333329
 40
0.9583333333333329
 40
1.0
 40
1.0
 40
1.0
 40
1.0
 10
1.2269600000000001
 20
5.3791500000000001
 30
0.0
 10
2.3902800000000002
 20
5.4197900000000008
 30
0.0
 10
3.5688400000000002
 20
5.0667300000000006
 30
0.0
 10
4.2495600000000007
 20
4.0888300000000006
 30
0.0
 10
4.2495600000000007
 20
4.0888300000000006
 30
0.0
 10
5.1436400000000004
 20
2.7121500000000003
 30
0.0
 10
5.5983000000000001
 20
1.02305
 30
0.0
 10
5.0852200000000005
 20
-0.58984
 30
0.0
 10
5.0852200000000005
 20
-0.58984
 30
0.0
 10
5.0852200000000005
 20
-0.58984
 30
0.0
 10
4.71692
 20
-0.7879600000000001
 30
0.0
 10
4.71692
 20
-0.7879600000000001
 30
0.0
 10
4.71692
 20
-0.7879600000000001
 30
0.0
 10
4.6051600000000006
 20
-1.1588000000000001
 30
0.0
 10
4.5467400000000007
 20
-1.5550400000000002
 30
0.0
 10
4.3638600000000007
 20
-1.8954000000000002
 30
0.0
 10
4.3638600000000007
 20
-1.8954000000000002
 30
0.0
 10
4.1632000000000007
 20
-2.2916400000000001
 30
0.0
 10
4.2648000000000001
 20
-2.7183600000000001
 30
0.0
 10
4.2927400000000002
 20
-3.1298400000000002
 30
0.0
 10
4.2927400000000002
 20
-3.1298400000000002
 30
0.0
 10
3.2996000000000003
 20
-4.1229800000000001
 30
0.0
 10
2.1794600000000002
 20
-5.7536600000000009
 30
0.0
 10
0.5894200000000001
 20
-5.3142400000000007
 30
0.0
 10
0.5894200000000001
 20
-5.3142400000000007
 30
0.0
 10
0.24906
 20
-5.3574200000000003
 30
0.0
 10
-0.13193
 20
-5.3853600000000004
 30
0.0
 10
-0.41387
 20
-5.1720000000000006
 30
0.0
 10
-0.41387
 20
-5.1720000000000006
 30
0.0
 10
-0.37323
 20
-4.6182800000000004
 30
0.0
 10
-0.4291100000000001
 20
-4.0518600000000005
 30
0.0
 10
-0.7974100000000001
 20
-3.6124400000000003
 30
0.0
 10
-0.7974100000000001
 20
-3.6124400000000003
 30
0.0
 10
-1.4857500000000001
 20
-3.8969200000000002
 30
0.0
 10
-2.1334500000000003
 20
-4.2779199999999999
 30
0.0
 10
-2.7278100000000003
 20
-4.7173400000000001
 30
0.0
 10
-2.7278100000000003
 20
-4.7173400000000001
 30
0.0
 10
-2.8776700000000002
 20
-4.4354000000000005
 30
0.0
 10
-2.9538700000000002
 20
-4.1661600000000005
 30
0.0
 10
-3.1951700000000001
 20
-3.9807400000000004
 30
0.0
 10
-3.1951700000000001
 20
-3.9807400000000004
 30
0.0
 10
-3.4364700000000004
 20
-4.3084000000000007
 30
0.0
 10
-4.0562300000000002
 20
-4.4506399999999999
 30
0.0
 10
-3.9038300000000001
 20
-3.8537400000000002
 30
0.0
 10
-3.9038300000000001
 20
-3.8537400000000002
 30
0.0
 10
-3.9038300000000001
 20
-3.8537400000000002
 30
0.0
 10
-4.0841700000000003
 20
-3.8664400000000003
 30
0.0
 10
-4.0841700000000003
 20
-3.8664400000000003
 30
0.0
 10
-4.0841700000000003
 20
-3.8664400000000003
 30
0.0
 10
-4.3584900000000006
 20
-4.5624000000000002
 30
0.0
 10
-5.5243500000000001
 20
-3.5413200000000002
 30
0.0
 10
-4.91221
 20
-3.1019000000000001
 30
0.0
 10
-4.91221
 20
-3.1019000000000001
 30
0.0
 10
-4.9299900000000001
 20
-3.0485600000000002
 30
0.0
 10
-5.0087300000000008
 20
-3.0663400000000003
 30
0.0
 10
-5.0468300000000008
 20
-3.0790400000000004
 30
0.0
 10
-5.0468300000000008
 20
-3.0790400000000004
 30
0.0
 10
-5.5903900000000002
 20
-3.2720800000000003
 30
0.0
 10
-4.8512500000000003
 20
-2.3576800000000002
 30
0.0
 10
-5.2957500000000008
 20
-2.0503400000000003
 30
0.0
 10
-5.2957500000000008
 20
-2.0503400000000003
 30
0.0
 10
-5.2957500000000008
 20
-2.0503400000000003
 30
0.0
 10
-5.2805100000000005
 20
-1.8522200000000002
 30
0.0
 10
-5.2805100000000005
 20
-1.8522200000000002
 30
0.0
 10
-5.2805100000000005
 20
-1.8522200000000002
 30
0.0
 10
-5.2322500000000005
 20
-1.7684000000000002
 30
0.0
 10
-5.2043100000000004
 20
-1.6541000000000001
 30
0.0
 10
-5.0925500000000001
 20
-1.62616
 30
0.0
 10
-5.0925500000000001
 20
-1.62616
 30
0.0
 10
-4.3991300000000004
 20
-1.71252
 30
0.0
 10
-3.6015700000000002
 20
-1.2146800000000002
 30
0.0
 10
-3.7311100000000001
 20
-0.3637800000000001
 30
0.0
 10
-3.7311100000000001
 20
-0.3637800000000001
 30
0.0
 10
-3.4720300000000002
 20
-0.1936
 30
0.0
 10
-3.2789900000000003
 20
-0.02342
 30
0.0
 10
-3.2129500000000002
 20
-0.3079
 30
0.0
 10
-3.2129500000000002
 20
-0.3079
 30
0.0
 10
-3.1316700000000002
 20
-0.27234
 30
0.0
 10
-3.1088100000000001
 20
-0.16058
 30
0.0
 10
-3.1062700000000003
 20
-0.11232
 30
0.0
 10
-3.1062700000000003
 20
-0.11232
 30
0.0
 10
-3.1011900000000003
 20
0.00197
 30
0.0
 10
-3.2002500000000005
 20
0.06801
 30
0.0
 10
-3.1215100000000002
 20
0.13405
 30
0.0
 10
-3.1215100000000002
 20
0.13405
 30
0.0
 10
-2.9716500000000003
 20
0.26867
 30
0.0
 10
-2.6566900000000002
 20
0.34995
 30
0.0
 10
-2.5449300000000004
 20
0.59887
 30
0.0
 10
-2.5449300000000004
 20
0.59887
 30
0.0
 10
-2.6846300000000003
 20
0.9951100000000001
 30
0.0
 10
-2.2960100000000003
 20
1.0814700000000002
 30
0.0
 10
-2.1309100000000001
 20
1.3786500000000002
 30
0.0
 10
-2.1309100000000001
 20
1.3786500000000002
 30
0.0
 10
-2.5500100000000003
 20
3.4919300000000004
 30
0.0
 10
-0.8126500000000001
 20
5.3359700000000005
 30
0.0
 10
1.2269600000000001
 20
5.3791500000000001
 30
0.0
  0
SPLINE
  5
26
100
AcDbEntity
  8
Ebene 1
100
AcDbSpline
210
0.0
220
0.0
230
1.0
 70
     1
 71
     3
 72
    64
 73
    60
 74
     0
 42
0.0000000001
 43
0.0000000001
 40
0.0
 40
0.0
 40
0.0
 40
0.0
 40
0.0666666666666667
 40
0.0666666666666667
 40
0.0666666666666667
 40
0.0666666666666667
 40
0.1333333333333333
 40
0.1333333333333333
 40
0.1333333333333333
 40
0.1333333333333333
 40
0.2
 40
0.2
 40
0.2
 40
0.2
 40
0.2666666666666667
 40
0.2666666666666667
 40
0.2666666666666667
 40
0.2666666666666667
 40
0.3333333333333333
 40
0.3333333333333333
 40
0.3333333333333333
 40
0.3333333333333333
 40
0.4
 40
0.4
 40
0.4
 40
0.4
 40
0.4666666666666666
 40
0.4666666666666666
 40
0.4666666666666666
 40
0.4666666666666666
 40
0.5333333333333333
 40
0.5333333333333333
 40
0.5333333333333333
 40
0.5333333333333333
 40
0.6
 40
0.6
 40
0.6
 40
0.6
 40
0.6666666666666666
 40
0.6666666666666666
 40
0.6666666666666666
 40
0.6666666666666666
 40
0.7333333333333333
 40
0.7333333333333333
 40
0.7333333333333333
 40
0.7333333333333333
 40
0.7999999999999999
 40
0.7999999999999999
 40
0.7999999999999999
 40
0.7999999999999999
 40
0.8666666666666666
 40
0.8666666666666666
 40
0.8666666666666666
 40
0.8666666666666666
 40
0.9333333333333332
 40
0.9333333333333332
 40
0.9333333333333332
 40
0.9333333333333332
 40
1.0
 40
1.0
 40
1.0
 40
1.0
 10
-2.7303500000000001
 20
-1.8674600000000001
 30
0.0
 10
-2.8421100000000004
 20
-2.1341600000000001
 30
0.0
 10
-2.6211300000000004
 20
-2.23576
 30
0.0
 10
-2.8370300000000004
 20
-2.2230600000000003
 30
0.0
 10
-2.8370300000000004
 20
-2.2230600000000003
 30
0.0
 10
-2.7100300000000002
 20
-2.4338800000000003
 30
0.0
 10
-2.9106900000000002
 20
-2.5456400000000001
 30
0.0
 10
-3.0834100000000002
 20
-2.5735800000000002
 30
0.0
 10
-3.0834100000000002
 20
-2.5735800000000002
 30
0.0
 10
-3.1265900000000002
 20
-2.8250400000000004
 30
0.0
 10
-3.0478500000000004
 20
-2.81488
 30
0.0
 10
-2.9157700000000002
 20
-2.8504400000000003
 30
0.0
 10
-2.9157700000000002
 20
-2.8504400000000003
 30
0.0
 10
-2.77861
 20
-2.8885400000000003
 30
0.0
 10
-3.0199100000000003
 20
-3.0638000000000001
 30
0.0
 10
-3.0630900000000003
 20
-3.2441400000000002
 30
0.0
 10
-3.0630900000000003
 20
-3.2441400000000002
 30
0.0
 10
-2.8141700000000003
 20
-3.4143200000000005
 30
0.0
 10
-2.7176500000000003
 20
-2.9876
 30
0.0
 10
-2.5373100000000002
 20
-2.8758400000000002
 30
0.0
 10
-2.5373100000000002
 20
-2.8758400000000002
 30
0.0
 10
-2.4103100000000004
 20
-2.8453600000000003
 30
0.0
 10
-2.2731500000000002
 20
-2.9749000000000003
 30
0.0
 10
-2.2020300000000002
 20
-3.0739600000000005
 30
0.0
 10
-2.2020300000000002
 20
-3.0739600000000005
 30
0.0
 10
-2.2604500000000001
 20
-3.2720800000000003
 30
0.0
 10
-2.6617700000000002
 20
-3.3000200000000004
 30
0.0
 10
-2.3595100000000002
 20
-3.5413200000000002
 30
0.0
 10
-2.3595100000000002
 20
-3.5413200000000002
 30
0.0
 10
-2.3468100000000001
 20
-3.6556200000000003
 30
0.0
 10
-2.4636500000000003
 20
-3.6962600000000001
 30
0.0
 10
-2.5271500000000002
 20
-3.7546800000000005
 30
0.0
 10
-2.5271500000000002
 20
-3.7546800000000005
 30
0.0
 10
-2.4763500000000001
 20
-3.8105600000000002
 30
0.0
 10
-2.4255500000000003
 20
-3.8664400000000003
 30
0.0
 10
-2.39507
 20
-3.9401000000000002
 30
0.0
 10
-2.39507
 20
-3.9401000000000002
 30
0.0
 10
-1.8946900000000002
 20
-3.6403800000000004
 30
0.0
 10
-1.3689100000000001
 20
-3.3711400000000005
 30
0.0
 10
-0.8532900000000001
 20
-3.1146000000000003
 30
0.0
 10
-0.8532900000000001
 20
-3.1146000000000003
 30
0.0
 10
-0.8532900000000001
 20
-2.6345400000000003
 30
0.0
 10
-0.9396500000000001
 20
-2.1240000000000001
 30
0.0
 10
-1.4730500000000002
 20
-1.9944600000000001
 30
0.0
 10
-1.4730500000000002
 20
-1.9944600000000001
 30
0.0
 10
-1.6025900000000002
 20
-2.0808200000000001
 30
0.0
 10
-1.6381500000000002
 20
-2.2510000000000003
 30
0.0
 10
-1.8057900000000002
 20
-2.27894
 30
0.0
 10
-1.8057900000000002
 20
-2.27894
 30
0.0
 10
-1.84135
 20
-2.27894
 30
0.0
 10
-1.8718300000000001
 20
-2.27894
 30
0.0
 10
-1.8997700000000002
 20
-2.2637
 30
0.0
 10
-1.8997700000000002
 20
-2.2637
 30
0.0
 10
-1.9988300000000001
 20
-1.8115800000000002
 30
0.0
 10
-2.1639300000000001
 20
-2.3449800000000001
 30
0.0
 10
-2.4331700000000001
 20
-2.3018000000000001
 30
0.0
 10
-2.4331700000000001
 20
-2.3018000000000001
 30
0.0
 10
-2.6668500000000002
 20
-2.2916400000000001
 30
0.0
 10
-2.3595100000000002
 20
-1.7277600000000002
 30
0.0
 10
-2.7303500000000001
 20
-1.8674600000000001
 30
0.0
  0
SPLINE
  5
27
100
AcDbEntity
  8
Ebene 1
100
AcDbSpline
210
0.0
220
0.0
230
1.0
 70
     1
 71
     3
 72
    16
 73
    12
 74
     0
 42
0.0000000001
 43
0.0000000001
 40
0.0
 40
0.0
 40
0.0
 40
0.0
 40
0.3333333333333333
 40
0.3333333333333333
 40
0.3333333333333333
 40
0.3333333333333333
 40
0.6666666666666666
 40
0.6666666666666666
 40
0.6666666666666666
 40
0.6666666666666666
 40
1.0
 40
1.0
 40
1.0
 40
1.0
 10
3.8228400000000002
 20
-1.0597400000000001
 30
0.0
 10
3.3707200000000004
 20
-1.2578600000000002
 30
0.0
 10
3.3554800000000005
 20
-1.8827000000000003
 30
0.0
 10
3.4545400000000002
 20
-2.2916400000000001
 30
0.0
 10
3.4545400000000002
 20
-2.2916400000000001
 30
0.0
 10
3.7949000000000002
 20
-1.9944600000000001
 30
0.0
 10
3.9092000000000002
 20
-1.49916
 30
0.0
 10
3.8812600000000002
 20
-1.0597400000000001
 30
0.0
 10
3.8812600000000002
 20
-1.0597400000000001
 30
0.0
 10
3.8812600000000002
 20
-1.0597400000000001
 30
0.0
 10
3.8228400000000002
 20
-1.0597400000000001
 30
0.0
 10
3.8228400000000002
 20
-1.0597400000000001
 30
0.0
  0
SPLINE
  5
28
100
AcDbEntity
  8
Ebene 1
100
AcDbSpline
210
0.0
220
0.0
230
1.0
 70
     1
 71
     3
 72
    28
 73
    24
 74
     0
 42
0.0000000001
 43
0.0000000001
 40
0.0
 40
0.0
 40
0.0
 40
0.0
 40
0.1666666666666667
 40
0.1666666666666667
 40
0.1666666666666667
 40
0.1666666666666667
 40
0.3333333333333333
 40
0.3333333333333333
 40
0.3333333333333333
 40
0.3333333333333333
 40
0.5
 40
0.5
 40
0.5
 40
0.5
 40
0.6666666666666666
 40
0.6666666666666666
 40
0.6666666666666666
 40
0.6666666666666666
 40
0.8333333333333333
 40
0.8333333333333333
 40
0.8333333333333333
 40
0.8333333333333333
 40
1.0
 40
1.0
 40
1.0
 40
1.0
 10
2.5757000000000003
 20
-2.0097
 30
0.0
 10
2.4334600000000002
 20
-2.0935200000000003
 30
0.0
 10
2.2353400000000003
 20
-2.0376400000000001
 30
0.0
 10
2.0804
 20
-2.0808200000000001
 30
0.0
 10
2.0804
 20
-2.0808200000000001
 30
0.0
 10
2.1210400000000003
 20
-2.5354800000000002
 30
0.0
 10
2.4055200000000001
 20
-2.9596600000000004
 30
0.0
 10
2.2785200000000003
 20
-3.4270200000000002
 30
0.0
 10
2.2785200000000003
 20
-3.4270200000000002
 30
0.0
 10
2.3344
 20
-3.5260800000000003
 30
0.0
 10
2.37758
 20
-3.5972000000000004
 30
0.0
 10
2.4766400000000002
 20
-3.6403800000000004
 30
0.0
 10
2.4766400000000002
 20
-3.6403800000000004
 30
0.0
 10
2.5325200000000003
 20
-3.6251400000000005
 30
0.0
 10
2.5757000000000003
 20
-3.6124400000000003
 30
0.0
 10
2.6188800000000003
 20
-3.5692600000000003
 30
0.0
 10
2.6188800000000003
 20
-3.5692600000000003
 30
0.0
 10
2.8449400000000002
 20
-3.0866600000000002
 30
0.0
 10
2.7890600000000001
 20
-2.5050000000000003
 30
0.0
 10
2.63158
 20
-2.0097
 30
0.0
 10
2.63158
 20
-2.0097
 30
0.0
 10
2.63158
 20
-2.0097
 30
0.0
 10
2.5757000000000003
 20
-2.0097
 30
0.0
 10
2.5757000000000003
 20
-2.0097
 30
0.0
  0
SPLINE
  5
29
100
AcDbEntity
  8
Ebene 1
 62
     7
100
AcDbSpline
210
0.0
220
0.0
230
1.0
 70
     1
 71
     3
 72
   116
 73
   112
 74
     0
 42
0.0000000001
 43
0.0000000001
 40
0.0
 40
0.0
 40
0.0
 40
0.0
 40
0.0357142857142857
 40
0.0357142857142857
 40
0.0357142857142857
 40
0.0357142857142857
 40
0.0714285714285714
 40
0.0714285714285714
 40
0.0714285714285714
 40
0.0714285714285714
 40
0.1071428571428571
 40
0.1071428571428571
 40
0.1071428571428571
 40
0.1071428571428571
 40
0.1428571428571429
 40
0.1428571428571429
 40
0.1428571428571429
 40
0.1428571428571429
 40
0.1785714285714286
 40
0.1785714285714286
 40
0.1785714285714286
 40
0.1785714285714286
 40
0.2142857142857143
 40
0.2142857142857143
 40
0.2142857142857143
 40
0.2142857142857143
 40
0.2499999999999999
 40
0.2499999999999999
 40
0.2499999999999999
 40
0.2499999999999999
 40
0.2857142857142856
 40
0.2857142857142856
 40
0.2857142857142856
 40
0.2857142857142856
 40
0.3214285714285713
 40
0.3214285714285713
 40
0.3214285714285713
 40
0.3214285714285713
 40
0.357142857142857
 40
0.357142857142857
 40
0.357142857142857
 40
0.357142857142857
 40
0.3928571428571427
 40
0.3928571428571427
 40
0.3928571428571427
 40
0.3928571428571427
 40
0.4285714285714284
 40
0.4285714285714284
 40
0.4285714285714284
 40
0.4285714285714284
 40
0.4642857142857141
 40
0.4642857142857141
 40
0.4642857142857141
 40
0.4642857142857141
 40
0.4999999999999998
 40
0.4999999999999998
 40
0.4999999999999998
 40
0.4999999999999998
 40
0.5357142857142856
 40
0.5357142857142856
 40
0.5357142857142856
 40
0.5357142857142856
 40
0.5714285714285713
 40
0.5714285714285713
 40
0.5714285714285713
 40
0.5714285714285713
 40
0.607142857142857
 40
0.607142857142857
 40
0.607142857142857
 40
0.607142857142857
 40
0.6428571428571427
 40
0.6428571428571427
 40
0.6428571428571427
 40
0.6428571428571427
 40
0.6785714285714284
 40
0.6785714285714284
 40
0.6785714285714284
 40
0.6785714285714284
 40
0.7142857142857141
 40
0.7142857142857141
 40
0.7142857142857141
 40
0.7142857142857141
 40
0.7499999999999998
 40
0.7499999999999998
 40
0.7499999999999998
 40
0.7499999999999998
 40
0.7857142857142855
 40
0.7857142857142855
 40
0.7857142857142855
 40
0.7857142857142855
 40
0.8214285714285712
 40
0.8214285714285712
 40
0.8214285714285712
 40
0.8214285714285712
 40
0.8571428571428569
 40
0.8571428571428569
 40
0.8571428571428569
 40
0.8571428571428569
 40
0.8928571428571426
 40
0.8928571428571426
 40
0.8928571428571426
 40
0.8928571428571426
 40
0.9285714285714283
 40
0.9285714285714283
 40
0.9285714285714283
 40
0.9285714285714283
 40
0.964285714285714
 40
0.964285714285714
 40
0.964285714285714
 40
0.964285714285714
 40
1.0
 40
1.0
 40
1.0
 40
1.0
 10
-1.5365500000000001
 20
-0.10978
 30
0.0
 10
-2.02169
 20
0.08833
 30
0.0
 10
-2.3798300000000001
 20
0.9239900000000001
 30
0.0
 10
-1.7499100000000001
 20
1.0509900000000001
 30
0.0
 10
-1.7499100000000001
 20
1.0509900000000001
 30
0.0
 10
-1.8108700000000002
 20
1.1221100000000002
 30
0.0
 10
-1.9150100000000001
 20
1.10941
 30
0.0
 10
-1.9429500000000002
 20
1.2084700000000002
 30
0.0
 10
-1.9429500000000002
 20
1.2084700000000002
 30
0.0
 10
-2.0394700000000001
 20
1.6047100000000001
 30
0.0
 10
-2.0394700000000001
 20
2.0314300000000003
 30
0.0
 10
-2.0039100000000003
 20
2.4429100000000004
 30
0.0
 10
-2.0039100000000003
 20
2.4429100000000004
 30
0.0
 10
-1.8667500000000001
 20
5.9176300000000008
 30
0.0
 10
3.8660200000000002
 20
6.2452900000000007
 30
0.0
 10
4.7321600000000004
 20
3.0093300000000003
 30
0.0
 10
4.7321600000000004
 20
3.0093300000000003
 30
0.0
 10
4.9302800000000007
 20
2.5419700000000001
 30
0.0
 10
5.1157000000000004
 20
2.0720700000000001
 30
0.0
 10
5.1842800000000002
 20
1.5615300000000001
 30
0.0
 10
5.1842800000000002
 20
1.5615300000000001
 30
0.0
 10
5.22492
 20
0.9036700000000001
 30
0.0
 10
5.2452400000000008
 20
0.22549
 30
0.0
 10
4.9302800000000007
 20
-0.13772
 30
0.0
 10
4.9302800000000007
 20
-0.13772
 30
0.0
 10
4.8744000000000005
 20
-0.22154
 30
0.0
 10
4.7880400000000005
 20
-0.26472
 30
0.0
 10
4.7042200000000003
 20
-0.3079
 30
0.0
 10
4.7042200000000003
 20
-0.3079
 30
0.0
 10
4.4349800000000004
 20
-0.3637800000000001
 30
0.0
 10
4.6610400000000007
 20
-0.09454
 30
0.0
 10
4.5746800000000007
 20
0.00197
 30
0.0
 10
4.5746800000000007
 20
0.00197
 30
0.0
 10
4.5746800000000007
 20
0.00197
 30
0.0
 10
4.4349800000000004
 20
-0.23678
 30
0.0
 10
4.4349800000000004
 20
-0.23678
 30
0.0
 10
4.4349800000000004
 20
-0.23678
 30
0.0
 10
3.4977200000000002
 20
-0.5492
 30
0.0
 10
3.2716600000000002
 20
-2.1240000000000001
 30
0.0
 10
2.0499200000000002
 20
-1.83952
 30
0.0
 10
2.0499200000000002
 20
-1.83952
 30
0.0
 10
1.9102200000000003
 20
-1.9106400000000001
 30
0.0
 10
1.7375
 20
-1.7684000000000002
 30
0.0
 10
1.6105
 20
-1.8674600000000001
 30
0.0
 10
1.6105
 20
-1.8674600000000001
 30
0.0
 10
1.6257400000000002
 20
-2.1240000000000001
 30
0.0
 10
1.8391000000000002
 20
-3.0460200000000004
 30
0.0
 10
1.4682600000000001
 20
-2.30688
 30
0.0
 10
1.4682600000000001
 20
-2.30688
 30
0.0
 10
1.2853800000000002
 20
-2.2510000000000003
 30
0.0
 10
1.56986
 20
-2.5913600000000003
 30
0.0
 10
1.5393800000000002
 20
-2.7183600000000001
 30
0.0
 10
1.5393800000000002
 20
-2.7183600000000001
 30
0.0
 10
1.2853800000000002
 20
-2.7183600000000001
 30
0.0
 10
1.3006200000000001
 20
-2.7463000000000002
 30
0.0
 10
1.1583800000000002
 20
-2.4491200000000002
 30
0.0
 10
1.1583800000000002
 20
-2.4491200000000002
 30
0.0
 10
1.1583800000000002
 20
-2.6345400000000003
 30
0.0
 10
0.8586600000000001
 20
-2.9876
 30
0.0
 10
0.78754
 20
-2.5634200000000003
 30
0.0
 10
0.78754
 20
-2.5634200000000003
 30
0.0
 10
0.7316600000000001
 20
-2.7031200000000002
 30
0.0
 10
0.8739000000000001
 20
-2.8758400000000002
 30
0.0
 10
0.8866000000000001
 20
-3.0155400000000001
 30
0.0
 10
0.8866000000000001
 20
-3.0155400000000001
 30
0.0
 10
0.7748400000000001
 20
-2.8453600000000003
 30
0.0
 10
0.43448
 20
-2.5202400000000003
 30
0.0
 10
0.4192400000000001
 20
-2.9037800000000002
 30
0.0
 10
0.4192400000000001
 20
-2.9037800000000002
 30
0.0
 10
0.3354200000000001
 20
-2.60406
 30
0.0
 10
0.03824
 20
-2.8021800000000003
 30
0.0
 10
-0.01763
 20
-2.5634200000000003
 30
0.0
 10
-0.01763
 20
-2.5634200000000003
 30
0.0
 10
-0.11669
 20
-2.5761200000000004
 30
0.0
 10
-0.01763
 20
-2.69042
 30
0.0
 10
-0.04557
 20
-2.7463000000000002
 30
0.0
 10
-0.04557
 20
-2.7463000000000002
 30
0.0
 10
-0.61199
 20
-2.9164800000000004
 30
0.0
 10
-0.9396500000000001
 20
-2.69042
 30
0.0
 10
-0.8837700000000001
 20
-1.8827000000000003
 30
0.0
 10
-0.8837700000000001
 20
-1.8827000000000003
 30
0.0
 10
-1.4349500000000002
 20
-2.2713200000000002
 30
0.0
 10
-1.7422900000000001
 20
-1.4280400000000002
 30
0.0
 10
-1.7168900000000002
 20
-0.7955800000000001
 30
0.0
 10
-1.7168900000000002
 20
-0.7955800000000001
 30
0.0
 10
-1.7092700000000001
 20
-0.7397
 30
0.0
 10
-1.6914900000000002
 20
-0.6762
 30
0.0
 10
-1.6508500000000002
 20
-0.6482600000000001
 30
0.0
 10
-1.6508500000000002
 20
-0.6482600000000001
 30
0.0
 10
-1.75499
 20
-1.3010400000000002
 30
0.0
 10
-1.0590300000000001
 20
-1.9385800000000002
 30
0.0
 10
-0.82535
 20
-1.2299200000000001
 30
0.0
 10
-0.82535
 20
-1.2299200000000001
 30
0.0
 10
-0.78471
 20
-1.1435600000000001
 30
0.0
 10
-0.7542300000000001
 20
-1.2299200000000001
 30
0.0
 10
-0.74153
 20
-1.2705600000000001
 30
0.0
 10
-0.74153
 20
-1.2705600000000001
 30
0.0
 10
-0.5840500000000001
 20
-1.6972800000000001
 30
0.0
 10
-0.78471
 20
-0.9175000000000001
 30
0.0
 10
-0.6856500000000001
 20
-0.76002
 30
0.0
 10
-0.6856500000000001
 20
-0.76002
 30
0.0
 10
-0.65517
 20
-0.6203200000000001
 30
0.0
 10
-0.44435
 20
-0.58984
 30
0.0
 10
-0.4291100000000001
 20
-0.45014
 30
0.0
 10
-0.4291100000000001
 20
-0.45014
 30
0.0
 10
-0.9396500000000001
 20
-0.9302
 30
0.0
 10
-1.3638300000000001
 20
-0.09454
 30
0.0
 10
-1.67371
 20
0.25851
 30
0.0
 10
-1.67371
 20
0.25851
 30
0.0
 10
-1.6991100000000001
 20
0.11627
 30
0.0
 10
-1.5517900000000002
 20
0.01721
 30
0.0
 10
-1.5365500000000001
 20
-0.10978
 30
0.0
  0
SPLINE
  5
2A
100
AcDbEntity
  8
Ebene 1
100
AcDbSpline
210
0.0
220
0.0
230
1.0
 70
     1
 71
     3
 72
    64
 73
    60
 74
     0
 42
0.0000000001
 43
0.0000000001
 40
0.0
 40
0.0
 40
0.0
 40
0.0
 40
0.0666666666666667
 40
0.0666666666666667
 40
0.0666666666666667
 40
0.0666666666666667
 40
0.1333333333333333
 40
0.1333333333333333
 40
0.1333333333333333
 40
0.1333333333333333
 40
0.2
 40
0.2
 40
0.2
 40
0.2
 40
0.2666666666666667
 40
0.2666666666666667
 40
0.2666666666666667
 40
0.2666666666666667
 40
0.3333333333333333
 40
0.3333333333333333
 40
0.3333333333333333
 40
0.3333333333333333
 40
0.4
 40
0.4
 40
0.4
 40
0.4
 40
0.4666666666666666
 40
0.4666666666666666
 40
0.4666666666666666
 40
0.4666666666666666
 40
0.5333333333333333
 40
0.5333333333333333
 40
0.5333333333333333
 40
0.5333333333333333
 40
0.6
 40
0.6
 40
0.6
 40
0.6
 40
0.6666666666666666
 40
0.6666666666666666
 40
0.6666666666666666
 40
0.6666666666666666
 40
0.7333333333333333
 40
0.7333333333333333
 40
0.7333333333333333
 40
0.7333333333333333
 40
0.7999999999999999
 40
0.7999999999999999
 40
0.7999999999999999
 40
0.7999999999999999
 40
0.8666666666666666
 40
0.8666666666666666
 40
0.8666666666666666
 40
0.8666666666666666
 40
0.9333333333333332
 40
0.9333333333333332
 40
0.9333333333333332
 40
0.9333333333333332
 40
1.0
 40
1.0
 40
1.0
 40
1.0
 10
-0.5434100000000001
 20
3.7052900000000002
 30
0.0
 10
-0.5002300000000001
 20
3.7179900000000004
 30
0.0
 10
-0.48499
 20
3.7052900000000002
 30
0.0
 10
-0.47229
 20
3.6621100000000002
 30
0.0
 10
-0.47229
 20
3.6621100000000002
 30
0.0
 10
-0.57135
 20
3.3344500000000004
 30
0.0
 10
-0.04557
 20
3.2938100000000001
 30
0.0
 10
0.00776
 20
2.9661500000000003
 30
0.0
 10
0.00776
 20
2.9661500000000003
 30
0.0
 10
0.1373
 20
2.9534500000000001
 30
0.0
 10
0.2643
 20
3.1083900000000004
 30
0.0
 10
0.3913
 20
3.0093300000000003
 30
0.0
 10
0.3913
 20
3.0093300000000003
 30
0.0
 10
0.29224
 20
2.7680300000000004
 30
0.0
 10
0.2643
 20
2.5572100000000004
 30
0.0
 10
0.4192400000000001
 20
2.3286100000000003
 30
0.0
 10
0.4192400000000001
 20
2.3286100000000003
 30
0.0
 10
0.34812
 20
2.2143100000000002
 30
0.0
 10
0.17794
 20
2.3286100000000003
 30
0.0
 10
0.05094
 20
2.2727300000000001
 30
0.0
 10
0.05094
 20
2.2727300000000001
 30
0.0
 10
0.00776
 20
2.0314300000000003
 30
0.0
 10
-0.13193
 20
1.8028300000000002
 30
0.0
 10
-0.31481
 20
1.6326500000000002
 30
0.0
 10
-0.31481
 20
1.6326500000000002
 30
0.0
 10
-0.24369
 20
1.4345300000000001
 30
0.0
 10
-0.18781
 20
1.23641
 30
0.0
 10
-0.14463
 20
1.02305
 30
0.0
 10
-0.14463
 20
1.02305
 30
0.0
 10
-0.14463
 20
1.02305
 30
0.0
 10
-0.7262900000000001
 20
0.9087500000000001
 30
0.0
 10
-0.7262900000000001
 20
0.9087500000000001
 30
0.0
 10
-0.7262900000000001
 20
0.9087500000000001
 30
0.0
 10
-0.82535
 20
1.0814700000000002
 30
0.0
 10
-0.7974100000000001
 20
1.3075300000000001
 30
0.0
 10
-0.86853
 20
1.4929500000000002
 30
0.0
 10
-0.86853
 20
1.4929500000000002
 30
0.0
 10
-1.07681
 20
1.5920100000000001
 30
0.0
 10
-1.3054100000000002
 20
1.6910700000000001
 30
0.0
 10
-1.4095500000000001
 20
1.9323700000000001
 30
0.0
 10
-1.4095500000000001
 20
1.9323700000000001
 30
0.0
 10
-1.5136900000000002
 20
1.9603100000000002
 30
0.0
 10
-1.5746500000000001
 20
1.7469500000000002
 30
0.0
 10
-1.6584700000000001
 20
1.8180700000000001
 30
0.0
 10
-1.6584700000000001
 20
1.8180700000000001
 30
0.0
 10
-1.6076700000000002
 20
2.08731
 30
0.0
 10
-1.6127500000000001
 20
2.3565500000000004
 30
0.0
 10
-1.7854700000000001
 20
2.5826100000000003
 30
0.0
 10
-1.7854700000000001
 20
2.5826100000000003
 30
0.0
 10
-1.7295900000000002
 20
2.6842100000000002
 30
0.0
 10
-1.5746500000000001
 20
2.5978500000000002
 30
0.0
 10
-1.4806700000000002
 20
2.6410300000000002
 30
0.0
 10
-1.4806700000000002
 20
2.6410300000000002
 30
0.0
 10
-1.5416300000000001
 20
3.0372700000000004
 30
0.0
 10
-1.0514100000000002
 20
3.2074500000000001
 30
0.0
 10
-1.16317
 20
3.5782900000000004
 30
0.0
 10
-1.16317
 20
3.5782900000000004
 30
0.0
 10
-0.9244100000000001
 20
3.4360500000000003
 30
0.0
 10
-0.7262900000000001
 20
3.5198700000000005
 30
0.0
 10
-0.5434100000000001
 20
3.7052900000000002
 30
0.0
  0
SPLINE
  5
2B
100
AcDbEntity
  8
Ebene 1
 62
     7
100
AcDbSpline
210
0.0
220
0.0
230
1.0
 70
     1
 71
     3
 72
    84
 73
    80
 74
     0
 42
0.0000000001
 43
0.0000000001
 40
0.0
 40
0.0
 40
0.0
 40
0.0
 40
0.05
 40
0.05
 40
0.05
 40
0.05
 40
0.1
 40
0.1
 40
0.1
 40
0.1
 40
0.15
 40
0.15
 40
0.15
 40
0.15
 40
0.2
 40
0.2
 40
0.2
 40
0.2
 40
0.25
 40
0.25
 40
0.25
 40
0.25
 40
0.3
 40
0.3
 40
0.3
 40
0.3
 40
0.35
 40
0.35
 40
0.35
 40
0.35
 40
0.4
 40
0.4
 40
0.4
 40
0.4
 40
0.45
 40
0.45
 40
0.45
 40
0.45
 40
0.4999999999999999
 40
0.4999999999999999
 40
0.4999999999999999
 40
0.4999999999999999
 40
0.5499999999999999
 40
0.5499999999999999
 40
0.5499999999999999
 40
0.5499999999999999
 40
0.6
 40
0.6
 40
0.6
 40
0.6
 40
0.65
 40
0.65
 40
0.65
 40
0.65
 40
0.7000000000000001
 40
0.7000000000000001
 40
0.7000000000000001
 40
0.7000000000000001
 40
0.7500000000000001
 40
0.7500000000000001
 40
0.7500000000000001
 40
0.7500000000000001
 40
0.8000000000000002
 40
0.8000000000000002
 40
0.8000000000000002
 40
0.8000000000000002
 40
0.8500000000000002
 40
0.8500000000000002
 40
0.8500000000000002
 40
0.8500000000000002
 40
0.9000000000000002
 40
0.9000000000000002
 40
0.9000000000000002
 40
0.9000000000000002
 40
0.9500000000000003
 40
0.9500000000000003
 40
0.9500000000000003
 40
0.9500000000000003
 40
1.0
 40
1.0
 40
1.0
 40
1.0
 10
-0.5992900000000001
 20
3.5909900000000001
 30
0.0
 10
-0.5002300000000001
 20
3.5909900000000001
 30
0.0
 10
-0.5992900000000001
 20
3.4766900000000005
 30
0.0
 10
-0.5840500000000001
 20
3.4208100000000004
 30
0.0
 10
-0.5840500000000001
 20
3.4208100000000004
 30
0.0
 10
-0.33005
 20
3.3217500000000002
 30
0.0
 10
-0.11669
 20
3.1236300000000004
 30
0.0
 10
-0.03287
 20
2.8670900000000001
 30
0.0
 10
-0.03287
 20
2.8670900000000001
 30
0.0
 10
0.07888
 20
2.8670900000000001
 30
0.0
 10
0.17794
 20
2.9661500000000003
 30
0.0
 10
0.30748
 20
2.9382100000000002
 30
0.0
 10
0.30748
 20
2.9382100000000002
 30
0.0
 10
0.19318
 20
2.7400900000000004
 30
0.0
 10
0.20588
 20
2.5699100000000001
 30
0.0
 10
0.32018
 20
2.3717900000000003
 30
0.0
 10
0.32018
 20
2.3717900000000003
 30
0.0
 10
0.32018
 20
2.3717900000000003
 30
0.0
 10
-0.01763
 20
2.3438500000000002
 30
0.0
 10
-0.01763
 20
2.3438500000000002
 30
0.0
 10
-0.01763
 20
2.3438500000000002
 30
0.0
 10
0.023
 20
1.9171300000000002
 30
0.0
 10
-0.57135
 20
1.7469500000000002
 30
0.0
 10
-0.3021100000000001
 20
1.3507100000000001
 30
0.0
 10
-0.3021100000000001
 20
1.3507100000000001
 30
0.0
 10
-0.6094500000000001
 20
1.4523100000000002
 30
0.0
 10
-0.54849
 20
1.9044300000000001
 30
0.0
 10
-0.6856500000000001
 20
2.2016100000000001
 30
0.0
 10
-0.6856500000000001
 20
2.2016100000000001
 30
0.0
 10
-0.6856500000000001
 20
2.2016100000000001
 30
0.0
 10
-0.74153
 20
2.1584300000000001
 30
0.0
 10
-0.74153
 20
2.1584300000000001
 30
0.0
 10
-0.74153
 20
2.1584300000000001
 30
0.0
 10
-0.78471
 20
1.8612500000000001
 30
0.0
 10
-0.6856500000000001
 20
1.5208900000000001
 30
0.0
 10
-0.65517
 20
1.2084700000000002
 30
0.0
 10
-0.65517
 20
1.2084700000000002
 30
0.0
 10
-0.6272300000000001
 20
1.06623
 30
0.0
 10
-0.52817
 20
1.1805300000000001
 30
0.0
 10
-0.5002300000000001
 20
1.2516500000000002
 30
0.0
 10
-0.5002300000000001
 20
1.2516500000000002
 30
0.0
 10
-0.3859300000000001
 20
1.15259
 30
0.0
 10
-0.23099
 20
1.2643500000000001
 30
0.0
 10
-0.23099
 20
1.0814700000000002
 30
0.0
 10
-0.23099
 20
1.0814700000000002
 30
0.0
 10
-0.37323
 20
1.0382900000000002
 30
0.0
 10
-0.52817
 20
1.02305
 30
0.0
 10
-0.6856500000000001
 20
0.9951100000000001
 30
0.0
 10
-0.6856500000000001
 20
0.9951100000000001
 30
0.0
 10
-0.6856500000000001
 20
0.9951100000000001
 30
0.0
 10
-0.7974100000000001
 20
1.5488300000000002
 30
0.0
 10
-0.7974100000000001
 20
1.5488300000000002
 30
0.0
 10
-0.7974100000000001
 20
1.5488300000000002
 30
0.0
 10
-1.0107700000000002
 20
1.6478900000000001
 30
0.0
 10
-1.3612900000000001
 20
1.7621900000000001
 30
0.0
 10
-1.3104900000000002
 20
2.0466700000000002
 30
0.0
 10
-1.3104900000000002
 20
2.0466700000000002
 30
0.0
 10
-1.4095500000000001
 20
2.0593700000000004
 30
0.0
 10
-1.4781300000000002
 20
1.9450700000000001
 30
0.0
 10
-1.5721100000000001
 20
1.9450700000000001
 30
0.0
 10
-1.5721100000000001
 20
1.9450700000000001
 30
0.0
 10
-1.5213100000000002
 20
2.17367
 30
0.0
 10
-1.5721100000000001
 20
2.3438500000000002
 30
0.0
 10
-1.6864100000000002
 20
2.5419700000000001
 30
0.0
 10
-1.6864100000000002
 20
2.5419700000000001
 30
0.0
 10
-1.6864100000000002
 20
2.5419700000000001
 30
0.0
 10
-1.4247900000000002
 20
2.5826100000000003
 30
0.0
 10
-1.4247900000000002
 20
2.5826100000000003
 30
0.0
 10
-1.4247900000000002
 20
2.5826100000000003
 30
0.0
 10
-1.4247900000000002
 20
2.8670900000000001
 30
0.0
 10
-1.2749300000000001
 20
3.1236300000000004
 30
0.0
 10
-1.0539500000000002
 20
3.2938100000000001
 30
0.0
 10
-1.0539500000000002
 20
3.2938100000000001
 30
0.0
 10
-1.0539500000000002
 20
3.2938100000000001
 30
0.0
 10
-1.1047500000000001
 20
3.4919300000000004
 30
0.0
 10
-1.1047500000000001
 20
3.4919300000000004
 30
0.0
 10
-1.1047500000000001
 20
3.4919300000000004
 30
0.0
 10
-0.9244100000000001
 20
3.3649300000000002
 30
0.0
 10
-0.7262900000000001
 20
3.4208100000000004
 30
0.0
 10
-0.5992900000000001
 20
3.5909900000000001
 30
0.0
  0
SPLINE
  5
2C
100
AcDbEntity
  8
Ebene 1
100
AcDbSpline
210
0.0
220
0.0
230
1.0
 70
     1
 71
     3
 72
    24
 73
    20
 74
     0
 42
0.0000000001
 43
0.0000000001
 40
0.0
 40
0.0
 40
0.0
 40
0.0
 40
0.2
 40
0.2
 40
0.2
 40
0.2
 40
0.4
 40
0.4
 40
0.4
 40
0.4
 40
0.6000000000000001
 40
0.6000000000000001
 40
0.6000000000000001
 40
0.6000000000000001
 40
0.8
 40
0.8
 40
0.8
 40
0.8
 40
1.0
 40
1.0
 40
1.0
 40
1.0
 10
-0.69835
 20
3.4081100000000002
 30
0.0
 10
-0.6856500000000001
 20
3.4081100000000002
 30
0.0
 10
-0.65517
 20
3.3928700000000003
 30
0.0
 10
-0.65517
 20
3.3776300000000004
 30
0.0
 10
-0.65517
 20
3.3776300000000004
 30
0.0
 10
-0.7262900000000001
 20
3.1795100000000001
 30
0.0
 10
-0.69835
 20
2.9102700000000001
 30
0.0
 10
-0.8126500000000001
 20
2.7553300000000003
 30
0.0
 10
-0.8126500000000001
 20
2.7553300000000003
 30
0.0
 10
-0.8964700000000001
 20
2.9102700000000001
 30
0.0
 10
-0.9675900000000001
 20
3.1083900000000004
 30
0.0
 10
-1.0107700000000002
 20
3.2938100000000001
 30
0.0
 10
-1.0107700000000002
 20
3.2938100000000001
 30
0.0
 10
-0.99553
 20
3.3090500000000005
 30
0.0
 10
-0.9675900000000001
 20
3.3090500000000005
 30
0.0
 10
-0.9396500000000001
 20
3.3090500000000005
 30
0.0
 10
-0.9396500000000001
 20
3.3090500000000005
 30
0.0
 10
-0.86853
 20
3.1947500000000004
 30
0.0
 10
-0.78471
 20
3.3776300000000004
 30
0.0
 10
-0.69835
 20
3.4081100000000002
 30
0.0
  0
SPLINE
  5
2D
100
AcDbEntity
  8
Ebene 1
100
AcDbSpline
210
0.0
220
0.0
230
1.0
 70
     1
 71
     3
 72
    20
 73
    16
 74
     0
 42
0.0000000001
 43
0.0000000001
 40
0.0
 40
0.0
 40
0.0
 40
0.0
 40
0.25
 40
0.25
 40
0.25
 40
0.25
 40
0.5
 40
0.5
 40
0.5
 40
0.5
 40
0.75
 40
0.75
 40
0.75
 40
0.75
 40
1.0
 40
1.0
 40
1.0
 40
1.0
 10
2.1210400000000003
 20
3.3217500000000002
 30
0.0
 10
2.1489800000000003
 20
3.3217500000000002
 30
0.0
 10
2.1489800000000003
 20
3.2938100000000001
 30
0.0
 10
2.1489800000000003
 20
3.2658700000000001
 30
0.0
 10
2.1489800000000003
 20
3.2658700000000001
 30
0.0
 10
1.9940400000000003
 20
2.9382100000000002
 30
0.0
 10
2.0219800000000001
 20
2.51403
 30
0.0
 10
2.2785200000000003
 20
2.2447900000000001
 30
0.0
 10
2.2785200000000003
 20
2.2447900000000001
 30
0.0
 10
2.2785200000000003
 20
2.2143100000000002
 30
0.0
 10
2.2785200000000003
 20
2.1863700000000001
 30
0.0
 10
2.2632800000000004
 20
2.17367
 30
0.0
 10
2.2632800000000004
 20
2.17367
 30
0.0
 10
1.8670400000000003
 20
2.3565500000000004
 30
0.0
 10
1.8518000000000001
 20
3.0245700000000002
 30
0.0
 10
2.1210400000000003
 20
3.3217500000000002
 30
0.0
  0
SPLINE
  5
2E
100
AcDbEntity
  8
Ebene 1
100
AcDbSpline
210
0.0
220
0.0
230
1.0
 70
     1
 71
     3
 72
    16
 73
    12
 74
     0
 42
0.0000000001
 43
0.0000000001
 40
0.0
 40
0.0
 40
0.0
 40
0.0
 40
0.3333333333333333
 40
0.3333333333333333
 40
0.3333333333333333
 40
0.3333333333333333
 40
0.6666666666666666
 40
0.6666666666666666
 40
0.6666666666666666
 40
0.6666666666666666
 40
1.0
 40
1.0
 40
1.0
 40
1.0
 10
-0.6272300000000001
 20
3.1083900000000004
 30
0.0
 10
-0.48499
 20
3.0677500000000002
 30
0.0
 10
-0.27417
 20
2.9382100000000002
 30
0.0
 10
-0.3021100000000001
 20
2.7680300000000004
 30
0.0
 10
-0.3021100000000001
 20
2.7680300000000004
 30
0.0
 10
-0.41387
 20
2.7121500000000003
 30
0.0
 10
-0.5434100000000001
 20
2.6969100000000004
 30
0.0
 10
-0.65517
 20
2.6689700000000003
 30
0.0
 10
-0.65517
 20
2.6689700000000003
 30
0.0
 10
-0.6856500000000001
 20
2.7959700000000001
 30
0.0
 10
-0.69835
 20
2.9813900000000002
 30
0.0
 10
-0.6272300000000001
 20
3.1083900000000004
 30
0.0
  0
SPLINE
  5
2F
100
AcDbEntity
  8
Ebene 1
100
AcDbSpline
210
0.0
220
0.0
230
1.0
 70
     1
 71
     3
 72
    16
 73
    12
 74
     0
 42
0.0000000001
 43
0.0000000001
 40
0.0
 40
0.0
 40
0.0
 40
0.0
 40
0.3333333333333333
 40
0.3333333333333333
 40
0.3333333333333333
 40
0.3333333333333333
 40
0.6666666666666666
 40
0.6666666666666666
 40
0.6666666666666666
 40
0.6666666666666666
 40
1.0
 40
1.0
 40
1.0
 40
1.0
 10
-1.0539500000000002
 20
3.0093300000000003
 30
0.0
 10
-0.9396500000000001
 20
2.9534500000000001
 30
0.0
 10
-0.9701300000000001
 20
2.7705700000000002
 30
0.0
 10
-0.9421900000000001
 20
2.6410300000000002
 30
0.0
 10
-0.9421900000000001
 20
2.6410300000000002
 30
0.0
 10
-1.04125
 20
2.5851500000000001
 30
0.0
 10
-1.12761
 20
2.5826100000000003
 30
0.0
 10
-1.2317500000000001
 20
2.6130900000000001
 30
0.0
 10
-1.2317500000000001
 20
2.6130900000000001
 30
0.0
 10
-1.2622300000000002
 20
2.7553300000000003
 30
0.0
 10
-1.1580900000000001
 20
2.9102700000000001
 30
0.0
 10
-1.0539500000000002
 20
3.0093300000000003
 30
0.0
  0
SPLINE
  5
30
100
AcDbEntity
  8
Ebene 1
100
AcDbSpline
210
0.0
220
0.0
230
1.0
 70
     1
 71
     3
 72
    24
 73
    20
 74
     0
 42
0.0000000001
 43
0.0000000001
 40
0.0
 40
0.0
 40
0.0
 40
0.0
 40
0.2
 40
0.2
 40
0.2
 40
0.2
 40
0.4
 40
0.4
 40
0.4
 40
0.4
 40
0.6000000000000001
 40
0.6000000000000001
 40
0.6000000000000001
 40
0.6000000000000001
 40
0.8
 40
0.8
 40
0.8
 40
0.8
 40
1.0
 40
1.0
 40
1.0
 40
1.0
 10
0.023
 20
2.8112100000000004
 30
0.0
 10
0.16524
 20
2.7832700000000004
 30
0.0
 10
-0.00239
 20
2.6842100000000002
 30
0.0
 10
0.00776
 20
2.6130900000000001
 30
0.0
 10
0.00776
 20
2.6130900000000001
 30
0.0
 10
0.00776
 20
2.6130900000000001
 30
0.0
 10
0.22112
 20
2.47085
 30
0.0
 10
0.22112
 20
2.47085
 30
0.0
 10
0.22112
 20
2.47085
 30
0.0
 10
-0.00239
 20
2.3565500000000004
 30
0.0
 10
-0.28687
 20
2.4835500000000001
 30
0.0
 10
-0.5434100000000001
 20
2.47085
 30
0.0
 10
-0.5434100000000001
 20
2.47085
 30
0.0
 10
-0.57135
 20
2.51403
 30
0.0
 10
-0.5434100000000001
 20
2.5419700000000001
 30
0.0
 10
-0.52817
 20
2.5826100000000003
 30
0.0
 10
-0.52817
 20
2.5826100000000003
 30
0.0
 10
-0.52817
 20
2.5826100000000003
 30
0.0
 10
0.023
 20
2.8112100000000004
 30
0.0
 10
0.023
 20
2.8112100000000004
 30
0.0
  0
SPLINE
  5
31
100
AcDbEntity
  8
Ebene 1
100
AcDbSpline
210
0.0
220
0.0
230
1.0
 70
     1
 71
     3
 72
    16
 73
    12
 74
     0
 42
0.0000000001
 43
0.0000000001
 40
0.0
 40
0.0
 40
0.0
 40
0.0
 40
0.3333333333333333
 40
0.3333333333333333
 40
0.3333333333333333
 40
0.3333333333333333
 40
0.6666666666666666
 40
0.6666666666666666
 40
0.6666666666666666
 40
0.6666666666666666
 40
1.0
 40
1.0
 40
1.0
 40
1.0
 10
-0.78471
 20
2.6562700000000001
 30
0.0
 10
-0.5434100000000001
 20
2.6257900000000003
 30
0.0
 10
-0.61199
 20
2.2727300000000001
 30
0.0
 10
-0.8405900000000001
 20
2.3133700000000004
 30
0.0
 10
-0.8405900000000001
 20
2.3133700000000004
 30
0.0
 10
-1.0107700000000002
 20
2.3438500000000002
 30
0.0
 10
-1.0234700000000001
 20
2.6257900000000003
 30
0.0
 10
-0.8405900000000001
 20
2.6257900000000003
 30
0.0
 10
-0.8405900000000001
 20
2.6257900000000003
 30
0.0
 10
-0.8405900000000001
 20
2.6257900000000003
 30
0.0
 10
-0.78471
 20
2.6562700000000001
 30
0.0
 10
-0.78471
 20
2.6562700000000001
 30
0.0
  0
SPLINE
  5
32
100
AcDbEntity
  8
Ebene 1
100
AcDbSpline
210
0.0
220
0.0
230
1.0
 70
     1
 71
     3
 72
    24
 73
    20
 74
     0
 42
0.0000000001
 43
0.0000000001
 40
0.0
 40
0.0
 40
0.0
 40
0.0
 40
0.2
 40
0.2
 40
0.2
 40
0.2
 40
0.4
 40
0.4
 40
0.4
 40
0.4
 40
0.6000000000000001
 40
0.6000000000000001
 40
0.6000000000000001
 40
0.6000000000000001
 40
0.8
 40
0.8
 40
0.8
 40
0.8
 40
1.0
 40
1.0
 40
1.0
 40
1.0
 10
-1.4781300000000002
 20
2.51403
 30
0.0
 10
-1.4781300000000002
 20
2.51403
 30
0.0
 10
-1.4247900000000002
 20
2.51403
 30
0.0
 10
-1.4247900000000002
 20
2.51403
 30
0.0
 10
-1.4247900000000002
 20
2.51403
 30
0.0
 10
-1.3435100000000002
 20
2.38449
 30
0.0
 10
-1.0945900000000002
 20
2.5267300000000001
 30
0.0
 10
-1.0539500000000002
 20
2.3717900000000003
 30
0.0
 10
-1.0539500000000002
 20
2.3717900000000003
 30
0.0
 10
-1.16317
 20
2.2574900000000002
 30
0.0
 10
-1.33589
 20
2.1863700000000001
 30
0.0
 10
-1.4730500000000002
 20
2.13049
 30
0.0
 10
-1.4730500000000002
 20
2.13049
 30
0.0
 10
-1.4730500000000002
 20
2.13049
 30
0.0
 10
-1.50607
 20
2.1863700000000001
 30
0.0
 10
-1.50607
 20
2.1863700000000001
 30
0.0
 10
-1.50607
 20
2.1863700000000001
 30
0.0
 10
-1.4273300000000002
 20
2.2854300000000003
 30
0.0
 10
-1.54671
 20
2.42767
 30
0.0
 10
-1.4781300000000002
 20
2.51403
 30
0.0
  0
SPLINE
  5
33
100
AcDbEntity
  8
Ebene 1
100
AcDbSpline
210
0.0
220
0.0
230
1.0
 70
     1
 71
     3
 72
    20
 73
    16
 74
     0
 42
0.0000000001
 43
0.0000000001
 40
0.0
 40
0.0
 40
0.0
 40
0.0
 40
0.25
 40
0.25
 40
0.25
 40
0.25
 40
0.5
 40
0.5
 40
0.5
 40
0.5
 40
0.75
 40
0.75
 40
0.75
 40
0.75
 40
1.0
 40
1.0
 40
1.0
 40
1.0
 10
-0.25893
 20
2.38449
 30
0.0
 10
-0.21575
 20
2.38449
 30
0.0
 10
-0.15987
 20
2.38449
 30
0.0
 10
-0.13193
 20
2.3565500000000004
 30
0.0
 10
-0.13193
 20
2.3565500000000004
 30
0.0
 10
-0.11669
 20
2.17367
 30
0.0
 10
-0.27417
 20
2.0161900000000004
 30
0.0
 10
-0.40117
 20
1.9171300000000002
 30
0.0
 10
-0.40117
 20
1.9171300000000002
 30
0.0
 10
-0.47229
 20
2.0466700000000002
 30
0.0
 10
-0.5434100000000001
 20
2.1863700000000001
 30
0.0
 10
-0.55611
 20
2.3438500000000002
 30
0.0
 10
-0.55611
 20
2.3438500000000002
 30
0.0
 10
-0.47229
 20
2.3997300000000004
 30
0.0
 10
-0.3427500000000001
 20
2.3286100000000003
 30
0.0
 10
-0.25893
 20
2.38449
 30
0.0
  0
SPLINE
  5
34
100
AcDbEntity
  8
Ebene 1
100
AcDbSpline
210
0.0
220
0.0
230
1.0
 70
     1
 71
     3
 72
    24
 73
    20
 74
     0
 42
0.0000000001
 43
0.0000000001
 40
0.0
 40
0.0
 40
0.0
 40
0.0
 40
0.2
 40
0.2
 40
0.2
 40
0.2
 40
0.4
 40
0.4
 40
0.4
 40
0.4
 40
0.6000000000000001
 40
0.6000000000000001
 40
0.6000000000000001
 40
0.6000000000000001
 40
0.8
 40
0.8
 40
0.8
 40
0.8
 40
1.0
 40
1.0
 40
1.0
 40
1.0
 10
-0.9548900000000001
 20
2.2574900000000002
 30
0.0
 10
-0.8126500000000001
 20
2.1863700000000001
 30
0.0
 10
-0.8532900000000001
 20
1.9730100000000002
 30
0.0
 10
-0.8126500000000001
 20
1.8333100000000002
 30
0.0
 10
-0.8126500000000001
 20
1.8333100000000002
 30
0.0
 10
-0.8126500000000001
 20
1.8333100000000002
 30
0.0
 10
-0.86853
 20
1.8028300000000002
 30
0.0
 10
-0.86853
 20
1.8028300000000002
 30
0.0
 10
-0.86853
 20
1.8028300000000002
 30
0.0
 10
-1.0539500000000002
 20
1.7901300000000002
 30
0.0
 10
-1.2698500000000001
 20
1.9882500000000001
 30
0.0
 10
-1.20381
 20
2.17367
 30
0.0
 10
-1.20381
 20
2.17367
 30
0.0
 10
-1.20381
 20
2.17367
 30
0.0
 10
-1.08443
 20
2.1863700000000001
 30
0.0
 10
-1.08443
 20
2.1863700000000001
 30
0.0
 10
-1.08443
 20
2.1863700000000001
 30
0.0
 10
-1.08443
 20
2.1863700000000001
 30
0.0
 10
-0.9548900000000001
 20
2.2574900000000002
 30
0.0
 10
-0.9548900000000001
 20
2.2574900000000002
 30
0.0
  0
SPLINE
  5
35
100
AcDbEntity
  8
Ebene 1
100
AcDbSpline
210
0.0
220
0.0
230
1.0
 70
     1
 71
     3
 72
    24
 73
    20
 74
     0
 42
0.0000000001
 43
0.0000000001
 40
0.0
 40
0.0
 40
0.0
 40
0.0
 40
0.2
 40
0.2
 40
0.2
 40
0.2
 40
0.4
 40
0.4
 40
0.4
 40
0.4
 40
0.6000000000000001
 40
0.6000000000000001
 40
0.6000000000000001
 40
0.6000000000000001
 40
0.8
 40
0.8
 40
0.8
 40
0.8
 40
1.0
 40
1.0
 40
1.0
 40
1.0
 10
1.8670400000000003
 20
2.0034900000000002
 30
0.0
 10
1.8949800000000001
 20
2.0034900000000002
 30
0.0
 10
1.9381600000000001
 20
1.9882500000000001
 30
0.0
 10
1.9229200000000002
 20
1.9603100000000002
 30
0.0
 10
1.9229200000000002
 20
1.9603100000000002
 30
0.0
 10
1.65368
 20
1.9044300000000001
 30
0.0
 10
1.3692000000000002
 20
1.9044300000000001
 30
0.0
 10
1.14314
 20
1.7469500000000002
 30
0.0
 10
1.14314
 20
1.7469500000000002
 30
0.0
 10
1.1279000000000001
 20
1.7469500000000002
 30
0.0
 10
1.09996
 20
1.7469500000000002
 30
0.0
 10
1.0847200000000001
 20
1.7621900000000001
 30
0.0
 10
1.0847200000000001
 20
1.7621900000000001
 30
0.0
 10
1.1583800000000002
 20
1.8891900000000001
 30
0.0
 10
1.3565
 20
1.9044300000000001
 30
0.0
 10
1.4835
 20
1.9882500000000001
 30
0.0
 10
1.4835
 20
1.9882500000000001
 30
0.0
 10
1.6105
 20
1.9730100000000002
 30
0.0
 10
1.7527400000000002
 20
1.9603100000000002
 30
0.0
 10
1.8670400000000003
 20
2.0034900000000002
 30
0.0
  0
SPLINE
  5
36
100
AcDbEntity
  8
Ebene 1
100
AcDbSpline
210
0.0
220
0.0
230
1.0
 70
     1
 71
     3
 72
    28
 73
    24
 74
     0
 42
0.0000000001
 43
0.0000000001
 40
0.0
 40
0.0
 40
0.0
 40
0.0
 40
0.1666666666666667
 40
0.1666666666666667
 40
0.1666666666666667
 40
0.1666666666666667
 40
0.3333333333333333
 40
0.3333333333333333
 40
0.3333333333333333
 40
0.3333333333333333
 40
0.5
 40
0.5
 40
0.5
 40
0.5
 40
0.6666666666666666
 40
0.6666666666666666
 40
0.6666666666666666
 40
0.6666666666666666
 40
0.8333333333333333
 40
0.8333333333333333
 40
0.8333333333333333
 40
0.8333333333333333
 40
1.0
 40
1.0
 40
1.0
 40
1.0
 10
2.5909400000000002
 20
1.9323700000000001
 30
0.0
 10
2.8601800000000002
 20
1.8333100000000002
 30
0.0
 10
3.0735400000000004
 20
1.5615300000000001
 30
0.0
 10
3.1853000000000002
 20
1.27959
 30
0.0
 10
3.1853000000000002
 20
1.27959
 30
0.0
 10
3.3123000000000005
 20
1.27959
 30
0.0
 10
3.3986600000000005
 20
1.4497700000000002
 30
0.0
 10
3.5256600000000002
 20
1.4345300000000001
 30
0.0
 10
3.5256600000000002
 20
1.4345300000000001
 30
0.0
 10
3.3123000000000005
 20
1.23641
 30
0.0
 10
3.2437200000000002
 20
0.8960500000000001
 30
0.0
 10
3.0735400000000004
 20
0.6699900000000001
 30
0.0
 10
3.0735400000000004
 20
0.6699900000000001
 30
0.0
 10
3.0303600000000004
 20
0.68269
 30
0.0
 10
3.0303600000000004
 20
0.72587
 30
0.0
 10
3.0303600000000004
 20
0.76905
 30
0.0
 10
3.0303600000000004
 20
0.76905
 30
0.0
 10
3.1726000000000001
 20
1.19323
 30
0.0
 10
2.9160600000000003
 20
1.6199500000000002
 30
0.0
 10
2.5757000000000003
 20
1.8739500000000002
 30
0.0
 10
2.5757000000000003
 20
1.8739500000000002
 30
0.0
 10
2.5604600000000004
 20
1.9044300000000001
 30
0.0
 10
2.5757000000000003
 20
1.9171300000000002
 30
0.0
 10
2.5909400000000002
 20
1.9323700000000001
 30
0.0
  0
SPLINE
  5
37
100
AcDbEntity
  8
Ebene 1
100
AcDbSpline
210
0.0
220
0.0
230
1.0
 70
     1
 71
     3
 72
    20
 73
    16
 74
     0
 42
0.0000000001
 43
0.0000000001
 40
0.0
 40
0.0
 40
0.0
 40
0.0
 40
0.25
 40
0.25
 40
0.25
 40
0.25
 40
0.5
 40
0.5
 40
0.5
 40
0.5
 40
0.75
 40
0.75
 40
0.75
 40
0.75
 40
1.0
 40
1.0
 40
1.0
 40
1.0
 10
0.7596000000000001
 20
1.4624700000000002
 30
0.0
 10
0.8027800000000001
 20
1.4777100000000001
 30
0.0
 10
0.7748400000000001
 20
1.4345300000000001
 30
0.0
 10
0.7748400000000001
 20
1.40659
 30
0.0
 10
0.7748400000000001
 20
1.40659
 30
0.0
 10
0.44718
 20
1.10941
 30
0.0
 10
0.12206
 20
0.80969
 30
0.0
 10
-0.11669
 20
0.45663
 30
0.0
 10
-0.11669
 20
0.45663
 30
0.0
 10
-0.11669
 20
0.45663
 30
0.0
 10
-0.17511
 20
0.45663
 30
0.0
 10
-0.17511
 20
0.45663
 30
0.0
 10
-0.17511
 20
0.45663
 30
0.0
 10
-0.00239
 20
0.8681100000000001
 30
0.0
 10
0.4624200000000001
 20
1.15259
 30
0.0
 10
0.7596000000000001
 20
1.4624700000000002
 30
0.0
  0
SPLINE
  5
38
100
AcDbEntity
  8
Ebene 1
 62
     7
100
AcDbSpline
210
0.0
220
0.0
230
1.0
 70
     1
 71
     3
 72
   188
 73
   184
 74
     0
 42
0.0000000001
 43
0.0000000001
 40
0.0
 40
0.0
 40
0.0
 40
0.0
 40
0.0217391304347826
 40
0.0217391304347826
 40
0.0217391304347826
 40
0.0217391304347826
 40
0.0434782608695652
 40
0.0434782608695652
 40
0.0434782608695652
 40
0.0434782608695652
 40
0.0652173913043478
 40
0.0652173913043478
 40
0.0652173913043478
 40
0.0652173913043478
 40
0.0869565217391304
 40
0.0869565217391304
 40
0.0869565217391304
 40
0.0869565217391304
 40
0.108695652173913
 40
0.108695652173913
 40
0.108695652173913
 40
0.108695652173913
 40
0.1304347826086957
 40
0.1304347826086957
 40
0.1304347826086957
 40
0.1304347826086957
 40
0.1521739130434783
 40
0.1521739130434783
 40
0.1521739130434783
 40
0.1521739130434783
 40
0.1739130434782609
 40
0.1739130434782609
 40
0.1739130434782609
 40
0.1739130434782609
 40
0.1956521739130435
 40
0.1956521739130435
 40
0.1956521739130435
 40
0.1956521739130435
 40
0.2173913043478261
 40
0.2173913043478261
 40
0.2173913043478261
 40
0.2173913043478261
 40
0.2391304347826087
 40
0.2391304347826087
 40
0.2391304347826087
 40
0.2391304347826087
 40
0.2608695652173912
 40
0.2608695652173912
 40
0.2608695652173912
 40
0.2608695652173912
 40
0.2826086956521738
 40
0.2826086956521738
 40
0.2826086956521738
 40
0.2826086956521738
 40
0.3043478260869564
 40
0.3043478260869564
 40
0.3043478260869564
 40
0.3043478260869564
 40
0.326086956521739
 40
0.326086956521739
 40
0.326086956521739
 40
0.326086956521739
 40
0.3478260869565216
 40
0.3478260869565216
 40
0.3478260869565216
 40
0.3478260869565216
 40
0.3695652173913042
 40
0.3695652173913042
 40
0.3695652173913042
 40
0.3695652173913042
 40
0.3913043478260868
 40
0.3913043478260868
 40
0.3913043478260868
 40
0.3913043478260868
 40
0.4130434782608694
 40
0.4130434782608694
 40
0.4130434782608694
 40
0.4130434782608694
 40
0.434782608695652
 40
0.434782608695652
 40
0.434782608695652
 40
0.434782608695652
 40
0.4565217391304346
 40
0.4565217391304346
 40
0.4565217391304346
 40
0.4565217391304346
 40
0.4782608695652172
 40
0.4782608695652172
 40
0.4782608695652172
 40
0.4782608695652172
 40
0.4999999999999998
 40
0.4999999999999998
 40
0.4999999999999998
 40
0.4999999999999998
 40
0.5217391304347824
 40
0.5217391304347824
 40
0.5217391304347824
 40
0.5217391304347824
 40
0.543478260869565
 40
0.543478260869565
 40
0.543478260869565
 40
0.543478260869565
 40
0.5652173913043476
 40
0.5652173913043476
 40
0.5652173913043476
 40
0.5652173913043476
 40
0.5869565217391302
 40
0.5869565217391302
 40
0.5869565217391302
 40
0.5869565217391302
 40
0.6086956521739128
 40
0.6086956521739128
 40
0.6086956521739128
 40
0.6086956521739128
 40
0.6304347826086953
 40
0.6304347826086953
 40
0.6304347826086953
 40
0.6304347826086953
 40
0.6521739130434779
 40
0.6521739130434779
 40
0.6521739130434779
 40
0.6521739130434779
 40
0.6739130434782605
 40
0.6739130434782605
 40
0.6739130434782605
 40
0.6739130434782605
 40
0.6956521739130431
 40
0.6956521739130431
 40
0.6956521739130431
 40
0.6956521739130431
 40
0.7173913043478257
 40
0.7173913043478257
 40
0.7173913043478257
 40
0.7173913043478257
 40
0.7391304347826083
 40
0.7391304347826083
 40
0.7391304347826083
 40
0.7391304347826083
 40
0.7608695652173909
 40
0.7608695652173909
 40
0.7608695652173909
 40
0.7608695652173909
 40
0.7826086956521735
 40
0.7826086956521735
 40
0.7826086956521735
 40
0.7826086956521735
 40
0.8043478260869561
 40
0.8043478260869561
 40
0.8043478260869561
 40
0.8043478260869561
 40
0.8260869565217387
 40
0.8260869565217387
 40
0.8260869565217387
 40
0.8260869565217387
 40
0.8478260869565213
 40
0.8478260869565213
 40
0.8478260869565213
 40
0.8478260869565213
 40
0.8695652173913039
 40
0.8695652173913039
 40
0.8695652173913039
 40
0.8695652173913039
 40
0.8913043478260865
 40
0.8913043478260865
 40
0.8913043478260865
 40
0.8913043478260865
 40
0.9130434782608691
 40
0.9130434782608691
 40
0.9130434782608691
 40
0.9130434782608691
 40
0.9347826086956517
 40
0.9347826086956517
 40
0.9347826086956517
 40
0.9347826086956517
 40
0.9565217391304343
 40
0.9565217391304343
 40
0.9565217391304343
 40
0.9565217391304343
 40
0.9782608695652169
 40
0.9782608695652169
 40
0.9782608695652169
 40
0.9782608695652169
 40
1.0
 40
1.0
 40
1.0
 40
1.0
 10
-2.1309100000000001
 20
1.1729100000000001
 30
0.0
 10
-2.1258300000000001
 20
0.9011300000000001
 30
0.0
 10
-2.35189
 20
0.6750700000000001
 30
0.0
 10
-2.1207500000000001
 20
0.43377
 30
0.0
 10
-2.1207500000000001
 20
0.43377
 30
0.0
 10
-2.0496300000000001
 20
0.36011
 30
0.0
 10
-2.1334500000000003
 20
0.3575700000000001
 30
0.0
 10
-2.2147300000000003
 20
0.23057
 30
0.0
 10
-2.2147300000000003
 20
0.23057
 30
0.0
 10
-2.2858500000000004
 20
0.12135
 30
0.0
 10
-2.1690100000000001
 20
0.00451
 30
0.0
 10
-2.3595100000000002
 20
-0.20884
 30
0.0
 10
-2.3595100000000002
 20
-0.20884
 30
0.0
 10
-2.56779
 20
-0.3637800000000001
 30
0.0
 10
-2.31379
 20
-0.88448
 30
0.0
 10
-2.7836900000000004
 20
-0.9454400000000001
 30
0.0
 10
-2.7836900000000004
 20
-0.9454400000000001
 30
0.0
 10
-3.0376900000000004
 20
-0.9886200000000001
 30
0.0
 10
-3.1088100000000001
 20
-1.3569200000000001
 30
0.0
 10
-3.1113500000000003
 20
-1.5271000000000001
 30
0.0
 10
-3.1113500000000003
 20
-1.5271000000000001
 30
0.0
 10
-2.9005300000000003
 20
-1.0241800000000001
 30
0.0
 10
-2.7811500000000002
 20
-0.9987800000000001
 30
0.0
 10
-2.4306300000000003
 20
-0.9225800000000001
 30
0.0
 10
-2.4306300000000003
 20
-0.9225800000000001
 30
0.0
 10
-2.4534900000000004
 20
-0.5390400000000001
 30
0.0
 10
-2.10805
 20
-0.1936
 30
0.0
 10
-2.14107
 20
0.17215
 30
0.0
 10
-2.14107
 20
0.17215
 30
0.0
 10
-2.0293100000000002
 20
-0.0666
 30
0.0
 10
-1.7956300000000001
 20
-0.27742
 30
0.0
 10
-1.7753100000000002
 20
-0.5619000000000001
 30
0.0
 10
-1.7753100000000002
 20
-0.5619000000000001
 30
0.0
 10
-1.7346700000000002
 20
-0.9302
 30
0.0
 10
-1.7448300000000001
 20
-1.3239000000000001
 30
0.0
 10
-1.8921500000000002
 20
-1.6515600000000001
 30
0.0
 10
-1.8921500000000002
 20
-1.6515600000000001
 30
0.0
 10
-1.8616700000000002
 20
-1.7074400000000001
 30
0.0
 10
-1.9150100000000001
 20
-1.7582400000000002
 30
0.0
 10
-1.9734300000000002
 20
-1.7734800000000002
 30
0.0
 10
-1.9734300000000002
 20
-1.7734800000000002
 30
0.0
 10
-2.0928100000000001
 20
-1.7861800000000001
 30
0.0
 10
-2.0089900000000003
 20
-1.8954000000000002
 30
0.0
 10
-1.8997700000000002
 20
-1.83952
 30
0.0
 10
-1.8997700000000002
 20
-1.83952
 30
0.0
 10
-1.58989
 20
-1.2299200000000001
 30
0.0
 10
-1.5187700000000002
 20
-2.64724
 30
0.0
 10
-2.0420100000000003
 20
-1.9665200000000003
 30
0.0
 10
-2.0420100000000003
 20
-1.9665200000000003
 30
0.0
 10
-2.14615
 20
-1.9817600000000002
 30
0.0
 10
-2.1486900000000002
 20
-2.0935200000000003
 30
0.0
 10
-2.2020300000000002
 20
-2.1519400000000002
 30
0.0
 10
-2.2020300000000002
 20
-2.1519400000000002
 30
0.0
 10
-2.4763500000000001
 20
-2.2510000000000003
 30
0.0
 10
-2.5093700000000001
 20
-2.30688
 30
0.0
 10
-2.4661900000000001
 20
-1.92334
 30
0.0
 10
-2.4661900000000001
 20
-1.92334
 30
0.0
 10
-2.4687300000000003
 20
-1.83952
 30
0.0
 10
-2.5347700000000004
 20
-1.71252
 30
0.0
 10
-2.6262100000000004
 20
-1.7531600000000001
 30
0.0
 10
-2.6262100000000004
 20
-1.7531600000000001
 30
0.0
 10
-2.69225
 20
-1.7531600000000001
 30
0.0
 10
-2.7430500000000002
 20
-1.79634
 30
0.0
 10
-2.7938500000000004
 20
-1.83952
 30
0.0
 10
-2.7938500000000004
 20
-1.83952
 30
0.0
 10
-2.7557500000000004
 20
-1.3137400000000001
 30
0.0
 10
-2.15123
 20
-1.8242800000000001
 30
0.0
 10
-2.0572500000000002
 20
-1.3569200000000001
 30
0.0
 10
-2.0572500000000002
 20
-1.3569200000000001
 30
0.0
 10
-1.9759700000000002
 20
-1.20198
 30
0.0
 10
-2.09789
 20
-1.2858000000000001
 30
0.0
 10
-2.1207500000000001
 20
-1.4001000000000001
 30
0.0
 10
-2.1207500000000001
 20
-1.4001000000000001
 30
0.0
 10
-2.1766300000000003
 20
-1.5144000000000002
 30
0.0
 10
-2.3899900000000001
 20
-1.5652000000000001
 30
0.0
 10
-2.5423900000000001
 20
-1.4839200000000001
 30
0.0
 10
-2.5423900000000001
 20
-1.4839200000000001
 30
0.0
 10
-2.7887700000000004
 20
-1.4737600000000002
 30
0.0
 10
-2.8040100000000003
 20
-1.62616
 30
0.0
 10
-2.8700500000000004
 20
-1.79634
 30
0.0
 10
-2.8700500000000004
 20
-1.79634
 30
0.0
 10
-2.7532100000000002
 20
-2.0655800000000002
 30
0.0
 10
-2.94625
 20
-2.1087600000000002
 30
0.0
 10
-2.8852900000000004
 20
-2.3653000000000004
 30
0.0
 10
-2.8852900000000004
 20
-2.3653000000000004
 30
0.0
 10
-3.2104100000000004
 20
-2.3653000000000004
 30
0.0
 10
-3.2891500000000002
 20
-2.77678
 30
0.0
 10
-3.0097500000000004
 20
-2.9164800000000004
 30
0.0
 10
-3.0097500000000004
 20
-2.9164800000000004
 30
0.0
 10
-3.0656300000000001
 20
-3.0587200000000001
 30
0.0
 10
-3.2408900000000003
 20
-3.2441400000000002
 30
0.0
 10
-3.0249900000000003
 20
-3.3559000000000001
 30
0.0
 10
-3.0249900000000003
 20
-3.3559000000000001
 30
0.0
 10
-2.7379700000000002
 20
-3.3711400000000005
 30
0.0
 10
-2.6820900000000001
 20
-3.0739600000000005
 30
0.0
 10
-2.4941300000000002
 20
-2.9317200000000003
 30
0.0
 10
-2.4941300000000002
 20
-2.9317200000000003
 30
0.0
 10
-2.22235
 20
-2.9876
 30
0.0
 10
-2.27061
 20
-3.2009600000000002
 30
0.0
 10
-2.5144500000000001
 20
-3.2568400000000004
 30
0.0
 10
-2.5144500000000001
 20
-3.2568400000000004
 30
0.0
 10
-2.6338300000000001
 20
-3.4422600000000001
 30
0.0
 10
-2.26553
 20
-3.6251400000000005
 30
0.0
 10
-2.5982700000000003
 20
-3.7115000000000005
 30
0.0
 10
-2.5982700000000003
 20
-3.7115000000000005
 30
0.0
 10
-2.5322300000000002
 20
-3.8664400000000003
 30
0.0
 10
-2.40015
 20
-4.0239200000000004
 30
0.0
 10
-2.6566900000000002
 20
-4.09504
 30
0.0
 10
-2.6566900000000002
 20
-4.09504
 30
0.0
 10
-3.2307300000000003
 20
-3.5133800000000002
 30
0.0
 10
-4.5413700000000006
 20
-3.4270200000000002
 30
0.0
 10
-4.2746700000000004
 20
-2.3780000000000001
 30
0.0
 10
-4.2746700000000004
 20
-2.3780000000000001
 30
0.0
 10
-4.1400500000000005
 20
-2.0935200000000003
 30
0.0
 10
-4.3584900000000006
 20
-2.30688
 30
0.0
 10
-4.3864300000000007
 20
-2.4643600000000001
 30
0.0
 10
-4.3864300000000007
 20
-2.4643600000000001
 30
0.0
 10
-4.5007300000000008
 20
-3.3787600000000002
 30
0.0
 10
-3.6041100000000004
 20
-3.5870400000000005
 30
0.0
 10
-2.9843500000000001
 20
-3.9172400000000005
 30
0.0
 10
-2.9843500000000001
 20
-3.9172400000000005
 30
0.0
 10
-2.8344900000000002
 20
-3.9959800000000003
 30
0.0
 10
-2.7405100000000004
 20
-4.1153599999999999
 30
0.0
 10
-2.8014700000000001
 20
-4.1661600000000005
 30
0.0
 10
-2.8014700000000001
 20
-4.1661600000000005
 30
0.0
 10
-2.9640300000000002
 20
-3.9248600000000002
 30
0.0
 10
-3.3145500000000001
 20
-3.7978600000000005
 30
0.0
 10
-3.5583900000000002
 20
-4.0670999999999999
 30
0.0
 10
-3.5583900000000002
 20
-4.0670999999999999
 30
0.0
 10
-3.5710900000000003
 20
-4.3642799999999999
 30
0.0
 10
-3.9190700000000005
 20
-4.1509200000000002
 30
0.0
 10
-3.7768300000000004
 20
-3.9401000000000002
 30
0.0
 10
-3.7768300000000004
 20
-3.9401000000000002
 30
0.0
 10
-3.7234900000000004
 20
-3.8232600000000003
 30
0.0
 10
-3.8682700000000003
 20
-3.7546800000000005
 30
0.0
 10
-3.9597100000000003
 20
-3.7826200000000001
 30
0.0
 10
-3.9597100000000003
 20
-3.7826200000000001
 30
0.0
 10
-3.9597100000000003
 20
-3.7826200000000001
 30
0.0
 10
-4.1552899999999999
 20
-3.8385000000000002
 30
0.0
 10
-4.1552899999999999
 20
-3.8385000000000002
 30
0.0
 10
-4.1552899999999999
 20
-3.8385000000000002
 30
0.0
 10
-4.4169100000000006
 20
-4.4201600000000001
 30
0.0
 10
-5.3440100000000008
 20
-3.5133800000000002
 30
0.0
 10
-4.8106100000000005
 20
-3.1450800000000001
 30
0.0
 10
-4.8106100000000005
 20
-3.1450800000000001
 30
0.0
 10
-4.8233100000000002
 20
-3.1095200000000003
 30
0.0
 10
-4.7039300000000006
 20
-3.0536400000000001
 30
0.0
 10
-4.7242500000000005
 20
-3.0257000000000001
 30
0.0
 10
-4.7242500000000005
 20
-3.0257000000000001
 30
0.0
 10
-4.7420300000000006
 20
-2.9977600000000004
 30
0.0
 10
-4.8969700000000005
 20
-2.9952200000000002
 30
0.0
 10
-4.9274500000000003
 20
-2.9749000000000003
 30
0.0
 10
-4.9274500000000003
 20
-2.9749000000000003
 30
0.0
 10
-5.5624500000000001
 20
-3.2441400000000002
 30
0.0
 10
-4.6963100000000004
 20
-2.3221200000000004
 30
0.0
 10
-5.2220900000000006
 20
-2.0503400000000003
 30
0.0
 10
-5.2220900000000006
 20
-2.0503400000000003
 30
0.0
 10
-5.2246300000000003
 20
-1.9817600000000002
 30
0.0
 10
-5.2271700000000001
 20
-1.8954000000000002
 30
0.0
 10
-5.2043100000000004
 20
-1.8242800000000001
 30
0.0
 10
-5.2043100000000004
 20
-1.8242800000000001
 30
0.0
 10
-5.16113
 20
-1.7811000000000001
 30
0.0
 10
-5.1230300000000009
 20
-1.71252
 30
0.0
 10
-5.0519100000000003
 20
-1.6972800000000001
 30
0.0
 10
-5.0519100000000003
 20
-1.6972800000000001
 30
0.0
 10
-4.3584900000000006
 20
-1.8242800000000001
 30
0.0
 10
-3.5380700000000003
 20
-1.2426200000000001
 30
0.0
 10
-3.6879300000000002
 20
-0.41966
 30
0.0
 10
-3.6879300000000002
 20
-0.41966
 30
0.0
 10
-3.5863300000000002
 20
-0.35108
 30
0.0
 10
-3.5152100000000002
 20
-0.26472
 30
0.0
 10
-3.4186900000000002
 20
-0.25456
 30
0.0
 10
-3.4186900000000002
 20
-0.25456
 30
0.0
 10
-3.2637500000000004
 20
-0.56952
 30
0.0
 10
-2.8243300000000002
 20
-0.3206000000000001
 30
0.0
 10
-3.1062700000000003
 20
0.05785
 30
0.0
 10
-3.1062700000000003
 20
0.05785
 30
0.0
 10
-2.6262100000000004
 20
0.32455
 30
0.0
 10
-2.35189
 20
0.55061
 30
0.0
 10
-2.4763500000000001
 20
0.6699900000000001
 30
0.0
 10
-2.4763500000000001
 20
0.6699900000000001
 30
0.0
 10
-2.56779
 20
0.7614300000000001
 30
0.0
 10
-2.3442700000000003
 20
1.0408300000000001
 30
0.0
 10
-2.1309100000000001
 20
1.1729100000000001
 30
0.0
  0
SPLINE
  5
39
100
AcDbEntity
  8
Ebene 1
100
AcDbSpline
210
0.0
220
0.0
230
1.0
 70
     1
 71
     3
 72
    64
 73
    60
 74
     0
 42
0.0000000001
 43
0.0000000001
 40
0.0
 40
0.0
 40
0.0
 40
0.0
 40
0.0666666666666667
 40
0.0666666666666667
 40
0.0666666666666667
 40
0.0666666666666667
 40
0.1333333333333333
 40
0.1333333333333333
 40
0.1333333333333333
 40
0.1333333333333333
 40
0.2
 40
0.2
 40
0.2
 40
0.2
 40
0.2666666666666667
 40
0.2666666666666667
 40
0.2666666666666667
 40
0.2666666666666667
 40
0.3333333333333333
 40
0.3333333333333333
 40
0.3333333333333333
 40
0.3333333333333333
 40
0.4
 40
0.4
 40
0.4
 40
0.4
 40
0.4666666666666666
 40
0.4666666666666666
 40
0.4666666666666666
 40
0.4666666666666666
 40
0.5333333333333333
 40
0.5333333333333333
 40
0.5333333333333333
 40
0.5333333333333333
 40
0.6
 40
0.6
 40
0.6
 40
0.6
 40
0.6666666666666666
 40
0.6666666666666666
 40
0.6666666666666666
 40
0.6666666666666666
 40
0.7333333333333333
 40
0.7333333333333333
 40
0.7333333333333333
 40
0.7333333333333333
 40
0.7999999999999999
 40
0.7999999999999999
 40
0.7999999999999999
 40
0.7999999999999999
 40
0.8666666666666666
 40
0.8666666666666666
 40
0.8666666666666666
 40
0.8666666666666666
 40
0.9333333333333332
 40
0.9333333333333332
 40
0.9333333333333332
 40
0.9333333333333332
 40
1.0
 40
1.0
 40
1.0
 40
1.0
 10
2.6036400000000004
 20
1.1221100000000002
 30
0.0
 10
2.7585800000000003
 20
1.1221100000000002
 30
0.0
 10
2.5909400000000002
 20
1.02305
 30
0.0
 10
2.5477600000000002
 20
0.9824100000000001
 30
0.0
 10
2.5477600000000002
 20
0.9824100000000001
 30
0.0
 10
1.8391000000000002
 20
0.68269
 30
0.0
 10
2.5477600000000002
 20
-0.0793
 30
0.0
 10
2.5045800000000003
 20
-0.6050800000000001
 30
0.0
 10
2.5045800000000003
 20
-0.6050800000000001
 30
0.0
 10
2.6036400000000004
 20
-0.58984
 30
0.0
 10
2.7027000000000001
 20
-0.4907800000000001
 30
0.0
 10
2.8017600000000003
 20
-0.53396
 30
0.0
 10
2.8017600000000003
 20
-0.53396
 30
0.0
 10
2.6188800000000003
 20
-0.6203200000000001
 30
0.0
 10
2.4055200000000001
 20
-0.7320800000000001
 30
0.0
 10
2.24804
 20
-0.88702
 30
0.0
 10
2.24804
 20
-0.88702
 30
0.0
 10
2.3496400000000004
 20
-0.9454400000000001
 30
0.0
 10
2.6036400000000004
 20
-0.8743200000000001
 30
0.0
 10
2.63158
 20
-0.9886200000000001
 30
0.0
 10
2.63158
 20
-0.9886200000000001
 30
0.0
 10
2.3496400000000004
 20
-1.0165600000000001
 30
0.0
 10
2.03722
 20
-0.9302
 30
0.0
 10
1.78068
 20
-1.0724400000000001
 30
0.0
 10
1.78068
 20
-1.0724400000000001
 30
0.0
 10
1.8391000000000002
 20
-1.1156200000000001
 30
0.0
 10
2.0651600000000001
 20
-1.1588000000000001
 30
0.0
 10
2.00928
 20
-1.2578600000000002
 30
0.0
 10
2.00928
 20
-1.2578600000000002
 30
0.0
 10
1.6257400000000002
 20
-1.08768
 30
0.0
 10
1.18632
 20
-1.00386
 30
0.0
 10
0.7596000000000001
 20
-0.9302
 30
0.0
 10
0.7596000000000001
 20
-0.9302
 30
0.0
 10
0.66054
 20
-0.9886200000000001
 30
0.0
 10
0.66054
 20
-1.2146800000000002
 30
0.0
 10
0.57418
 20
-1.2299200000000001
 30
0.0
 10
0.57418
 20
-1.2299200000000001
 30
0.0
 10
0.6326000000000001
 20
-0.9454400000000001
 30
0.0
 10
0.6478400000000001
 20
-0.5771400000000001
 30
0.0
 10
0.32018
 20
-0.46284
 30
0.0
 10
0.32018
 20
-0.46284
 30
0.0
 10
0.9170800000000001
 20
-0.45014
 30
0.0
 10
1.2269600000000001
 20
0.18739
 30
0.0
 10
1.4682600000000001
 20
0.6699900000000001
 30
0.0
 10
1.4682600000000001
 20
0.6699900000000001
 30
0.0
 10
1.5546200000000001
 20
0.59887
 30
0.0
 10
1.3565
 20
0.41345
 30
0.0
 10
1.3412600000000001
 20
0.28645
 30
0.0
 10
1.3412600000000001
 20
0.28645
 30
0.0
 10
1.65368
 20
0.47187
 30
0.0
 10
1.9229200000000002
 20
0.7538100000000001
 30
0.0
 10
2.1642200000000003
 20
1.0382900000000002
 30
0.0
 10
2.1642200000000003
 20
1.0382900000000002
 30
0.0
 10
2.2226400000000002
 20
1.06623
 30
0.0
 10
2.2353400000000003
 20
0.9824100000000001
 30
0.0
 10
2.1921600000000003
 20
0.9671700000000001
 30
0.0
 10
2.1921600000000003
 20
0.9671700000000001
 30
0.0
 10
2.0804
 20
0.7969900000000001
 30
0.0
 10
2.5198200000000002
 20
1.06623
 30
0.0
 10
2.6036400000000004
 20
1.1221100000000002
 30
0.0
  0
SPLINE
  5
3A
100
AcDbEntity
  8
Ebene 1
100
AcDbSpline
210
0.0
220
0.0
230
1.0
 70
     1
 71
     3
 72
    20
 73
    16
 74
     0
 42
0.0000000001
 43
0.0000000001
 40
0.0
 40
0.0
 40
0.0
 40
0.0
 40
0.25
 40
0.25
 40
0.25
 40
0.25
 40
0.5
 40
0.5
 40
0.5
 40
0.5
 40
0.75
 40
0.75
 40
0.75
 40
0.75
 40
1.0
 40
1.0
 40
1.0
 40
1.0
 10
-1.33843
 20
0.7817500000000001
 30
0.0
 10
-1.33843
 20
0.7817500000000001
 30
0.0
 10
-0.78471
 20
0.5709300000000001
 30
0.0
 10
-0.78471
 20
0.5709300000000001
 30
0.0
 10
-0.78471
 20
0.5709300000000001
 30
0.0
 10
-0.78471
 20
0.5709300000000001
 30
0.0
 10
-0.78471
 20
0.5277500000000001
 30
0.0
 10
-0.78471
 20
0.5277500000000001
 30
0.0
 10
-0.78471
 20
0.5277500000000001
 30
0.0
 10
-0.78471
 20
0.5277500000000001
 30
0.0
 10
-0.86853
 20
0.4845700000000001
 30
0.0
 10
-0.86853
 20
0.4845700000000001
 30
0.0
 10
-0.86853
 20
0.4845700000000001
 30
0.0
 10
-1.0107700000000002
 20
0.59887
 30
0.0
 10
-1.2317500000000001
 20
0.6268100000000001
 30
0.0
 10
-1.33843
 20
0.7817500000000001
 30
0.0
  0
SPLINE
  5
3B
100
AcDbEntity
  8
Ebene 1
100
AcDbSpline
210
0.0
220
0.0
230
1.0
 70
     1
 71
     3
 72
    28
 73
    24
 74
     0
 42
0.0000000001
 43
0.0000000001
 40
0.0
 40
0.0
 40
0.0
 40
0.0
 40
0.1666666666666667
 40
0.1666666666666667
 40
0.1666666666666667
 40
0.1666666666666667
 40
0.3333333333333333
 40
0.3333333333333333
 40
0.3333333333333333
 40
0.3333333333333333
 40
0.5
 40
0.5
 40
0.5
 40
0.5
 40
0.6666666666666666
 40
0.6666666666666666
 40
0.6666666666666666
 40
0.6666666666666666
 40
0.8333333333333333
 40
0.8333333333333333
 40
0.8333333333333333
 40
0.8333333333333333
 40
1.0
 40
1.0
 40
1.0
 40
1.0
 10
3.1726000000000001
 20
0.6547500000000001
 30
0.0
 10
3.1726000000000001
 20
0.6547500000000001
 30
0.0
 10
3.2564200000000003
 20
0.5836300000000001
 30
0.0
 10
3.2564200000000003
 20
0.5836300000000001
 30
0.0
 10
3.2564200000000003
 20
0.5836300000000001
 30
0.0
 10
3.3275400000000004
 20
0.17215
 30
0.0
 10
3.7669600000000001
 20
-0.20884
 30
0.0
 10
4.1632000000000007
 20
0.05785
 30
0.0
 10
4.1632000000000007
 20
0.05785
 30
0.0
 10
4.1936800000000005
 20
0.05785
 30
0.0
 10
4.2495600000000007
 20
0.07309
 30
0.0
 10
4.2648000000000001
 20
0.02991
 30
0.0
 10
4.2648000000000001
 20
0.02991
 30
0.0
 10
4.2648000000000001
 20
0.02991
 30
0.0
 10
4.2648000000000001
 20
-0.02342
 30
0.0
 10
4.2648000000000001
 20
-0.02342
 30
0.0
 10
4.2648000000000001
 20
-0.02342
 30
0.0
 10
4.0793800000000005
 20
-0.0666
 30
0.0
 10
3.9219000000000004
 20
-0.17836
 30
0.0
 10
3.7822000000000005
 20
-0.29266
 30
0.0
 10
3.7822000000000005
 20
-0.29266
 30
0.0
 10
3.4545400000000002
 20
-0.09454
 30
0.0
 10
3.1141800000000002
 20
0.28645
 30
0.0
 10
3.1726000000000001
 20
0.6547500000000001
 30
0.0
  0
SPLINE
  5
3C
100
AcDbEntity
  8
Ebene 1
100
AcDbSpline
210
0.0
220
0.0
230
1.0
 70
     1
 71
     3
 72
    20
 73
    16
 74
     0
 42
0.0000000001
 43
0.0000000001
 40
0.0
 40
0.0
 40
0.0
 40
0.0
 40
0.25
 40
0.25
 40
0.25
 40
0.25
 40
0.5
 40
0.5
 40
0.5
 40
0.5
 40
0.75
 40
0.75
 40
0.75
 40
0.75
 40
1.0
 40
1.0
 40
1.0
 40
1.0
 10
-0.45705
 20
0.34233
 30
0.0
 10
-0.27417
 20
0.38551
 30
0.0
 10
-0.35799
 20
0.14421
 30
0.0
 10
-0.28687
 20
0.04515
 30
0.0
 10
-0.28687
 20
0.04515
 30
0.0
 10
-0.28687
 20
0.04515
 30
0.0
 10
-0.3021100000000001
 20
-0.00818
 30
0.0
 10
-0.3021100000000001
 20
-0.00818
 30
0.0
 10
-0.3021100000000001
 20
-0.00818
 30
0.0
 10
-0.3021100000000001
 20
-0.00818
 30
0.0
 10
-0.35799
 20
-0.00818
 30
0.0
 10
-0.35799
 20
-0.00818
 30
0.0
 10
-0.35799
 20
-0.00818
 30
0.0
 10
-0.40117
 20
0.10103
 30
0.0
 10
-0.44435
 20
0.23057
 30
0.0
 10
-0.45705
 20
0.34233
 30
0.0
  0
SPLINE
  5
3D
100
AcDbEntity
  8
Ebene 1
 62
     7
100
AcDbSpline
210
0.0
220
0.0
230
1.0
 70
     1
 71
     3
 72
    16
 73
    12
 74
     0
 42
0.0000000001
 43
0.0000000001
 40
0.0
 40
0.0
 40
0.0
 40
0.0
 40
0.3333333333333333
 40
0.3333333333333333
 40
0.3333333333333333
 40
0.3333333333333333
 40
0.6666666666666666
 40
0.6666666666666666
 40
0.6666666666666666
 40
0.6666666666666666
 40
1.0
 40
1.0
 40
1.0
 40
1.0
 10
-1.9759700000000002
 20
0.11627
 30
0.0
 10
-1.9759700000000002
 20
0.11627
 30
0.0
 10
-1.9226300000000001
 20
0.11627
 30
0.0
 10
-1.9226300000000001
 20
0.11627
 30
0.0
 10
-1.9226300000000001
 20
0.11627
 30
0.0
 10
-1.8159500000000002
 20
-0.02342
 30
0.0
 10
-1.7067300000000001
 20
-0.17836
 30
0.0
 10
-1.6940300000000001
 20
-0.35108
 30
0.0
 10
-1.6940300000000001
 20
-0.35108
 30
0.0
 10
-1.6940300000000001
 20
-0.35108
 30
0.0
 10
-1.9759700000000002
 20
0.11627
 30
0.0
 10
-1.9759700000000002
 20
0.11627
 30
0.0
  0
SPLINE
  5
3E
100
AcDbEntity
  8
Ebene 1
100
AcDbSpline
210
0.0
220
0.0
230
1.0
 70
     1
 71
     3
 72
    24
 73
    20
 74
     0
 42
0.0000000001
 43
0.0000000001
 40
0.0
 40
0.0
 40
0.0
 40
0.0
 40
0.2
 40
0.2
 40
0.2
 40
0.2
 40
0.4
 40
0.4
 40
0.4
 40
0.4
 40
0.6000000000000001
 40
0.6000000000000001
 40
0.6000000000000001
 40
0.6000000000000001
 40
0.8
 40
0.8
 40
0.8
 40
0.8
 40
1.0
 40
1.0
 40
1.0
 40
1.0
 10
-0.39863
 20
-0.1555
 30
0.0
 10
-0.4392700000000001
 20
-0.21392
 30
0.0
 10
-0.3427500000000001
 20
-0.33584
 30
0.0
 10
-0.33005
 20
-0.39172
 30
0.0
 10
-0.33005
 20
-0.39172
 30
0.0
 10
-0.33005
 20
-0.39172
 30
0.0
 10
-0.3427500000000001
 20
-0.45014
 30
0.0
 10
-0.3427500000000001
 20
-0.45014
 30
0.0
 10
-0.3427500000000001
 20
-0.45014
 30
0.0
 10
-0.5002300000000001
 20
-0.4349
 30
0.0
 10
-0.49769
 20
-0.1555
 30
0.0
 10
-0.4392700000000001
 20
-0.07168
 30
0.0
 10
-0.4392700000000001
 20
-0.07168
 30
0.0
 10
-0.4392700000000001
 20
-0.07168
 30
0.0
 10
-0.39863
 20
-0.08692
 30
0.0
 10
-0.39863
 20
-0.08692
 30
0.0
 10
-0.39863
 20
-0.08692
 30
0.0
 10
-0.39863
 20
-0.08692
 30
0.0
 10
-0.39863
 20
-0.1555
 30
0.0
 10
-0.39863
 20
-0.1555
 30
0.0
  0
SPLINE
  5
3F
100
AcDbEntity
  8
Ebene 1
100
AcDbSpline
210
0.0
220
0.0
230
1.0
 70
     1
 71
     3
 72
    20
 73
    16
 74
     0
 42
0.0000000001
 43
0.0000000001
 40
0.0
 40
0.0
 40
0.0
 40
0.0
 40
0.25
 40
0.25
 40
0.25
 40
0.25
 40
0.5
 40
0.5
 40
0.5
 40
0.5
 40
0.75
 40
0.75
 40
0.75
 40
0.75
 40
1.0
 40
1.0
 40
1.0
 40
1.0
 10
-0.3427500000000001
 20
-0.17836
 30
0.0
 10
-0.3427500000000001
 20
-0.17836
 30
0.0
 10
-0.27417
 20
-0.12248
 30
0.0
 10
-0.27417
 20
-0.12248
 30
0.0
 10
-0.27417
 20
-0.12248
 30
0.0
 10
-0.27417
 20
-0.4349
 30
0.0
 10
0.09412
 20
-0.39172
 30
0.0
 10
0.29224
 20
-0.4907800000000001
 30
0.0
 10
0.29224
 20
-0.4907800000000001
 30
0.0
 10
0.12206
 20
-0.5492
 30
0.0
 10
-0.07351
 20
-0.4349
 30
0.0
 10
-0.27417
 20
-0.45014
 30
0.0
 10
-0.27417
 20
-0.45014
 30
0.0
 10
-0.31481
 20
-0.3637800000000001
 30
0.0
 10
-0.33005
 20
-0.26472
 30
0.0
 10
-0.3427500000000001
 20
-0.17836
 30
0.0
  0
SPLINE
  5
40
100
AcDbEntity
  8
Ebene 1
 62
     7
100
AcDbSpline
210
0.0
220
0.0
230
1.0
 70
     1
 71
     3
 72
    20
 73
    16
 74
     0
 42
0.0000000001
 43
0.0000000001
 40
0.0
 40
0.0
 40
0.0
 40
0.0
 40
0.25
 40
0.25
 40
0.25
 40
0.25
 40
0.5
 40
0.5
 40
0.5
 40
0.5
 40
0.75
 40
0.75
 40
0.75
 40
0.75
 40
1.0
 40
1.0
 40
1.0
 40
1.0
 10
1.4987400000000002
 20
-0.1936
 30
0.0
 10
1.4987400000000002
 20
-0.1936
 30
0.0
 10
1.6257400000000002
 20
-0.1936
 30
0.0
 10
1.6257400000000002
 20
-0.1936
 30
0.0
 10
1.6257400000000002
 20
-0.1936
 30
0.0
 10
1.6257400000000002
 20
-0.1936
 30
0.0
 10
1.69686
 20
-0.20884
 30
0.0
 10
1.69686
 20
-0.20884
 30
0.0
 10
1.69686
 20
-0.20884
 30
0.0
 10
1.65368
 20
-0.3206000000000001
 30
0.0
 10
1.4987400000000002
 20
-0.33584
 30
0.0
 10
1.3844400000000001
 20
-0.3206000000000001
 30
0.0
 10
1.3844400000000001
 20
-0.3206000000000001
 30
0.0
 10
1.3844400000000001
 20
-0.3206000000000001
 30
0.0
 10
1.4987400000000002
 20
-0.1936
 30
0.0
 10
1.4987400000000002
 20
-0.1936
 30
0.0
  0
SPLINE
  5
41
100
AcDbEntity
  8
Ebene 1
 62
     7
100
AcDbSpline
210
0.0
220
0.0
230
1.0
 70
     1
 71
     3
 72
   160
 73
   156
 74
     0
 42
0.0000000001
 43
0.0000000001
 40
0.0
 40
0.0
 40
0.0
 40
0.0
 40
0.0256410256410256
 40
0.0256410256410256
 40
0.0256410256410256
 40
0.0256410256410256
 40
0.0512820512820513
 40
0.0512820512820513
 40
0.0512820512820513
 40
0.0512820512820513
 40
0.0769230769230769
 40
0.0769230769230769
 40
0.0769230769230769
 40
0.0769230769230769
 40
0.1025641025641026
 40
0.1025641025641026
 40
0.1025641025641026
 40
0.1025641025641026
 40
0.1282051282051282
 40
0.1282051282051282
 40
0.1282051282051282
 40
0.1282051282051282
 40
0.1538461538461538
 40
0.1538461538461538
 40
0.1538461538461538
 40
0.1538461538461538
 40
0.1794871794871795
 40
0.1794871794871795
 40
0.1794871794871795
 40
0.1794871794871795
 40
0.2051282051282051
 40
0.2051282051282051
 40
0.2051282051282051
 40
0.2051282051282051
 40
0.2307692307692307
 40
0.2307692307692307
 40
0.2307692307692307
 40
0.2307692307692307
 40
0.2564102564102564
 40
0.2564102564102564
 40
0.2564102564102564
 40
0.2564102564102564
 40
0.2820512820512821
 40
0.2820512820512821
 40
0.2820512820512821
 40
0.2820512820512821
 40
0.3076923076923077
 40
0.3076923076923077
 40
0.3076923076923077
 40
0.3076923076923077
 40
0.3333333333333334
 40
0.3333333333333334
 40
0.3333333333333334
 40
0.3333333333333334
 40
0.358974358974359
 40
0.358974358974359
 40
0.358974358974359
 40
0.358974358974359
 40
0.3846153846153847
 40
0.3846153846153847
 40
0.3846153846153847
 40
0.3846153846153847
 40
0.4102564102564104
 40
0.4102564102564104
 40
0.4102564102564104
 40
0.4102564102564104
 40
0.435897435897436
 40
0.435897435897436
 40
0.435897435897436
 40
0.435897435897436
 40
0.4615384615384617
 40
0.4615384615384617
 40
0.4615384615384617
 40
0.4615384615384617
 40
0.4871794871794873
 40
0.4871794871794873
 40
0.4871794871794873
 40
0.4871794871794873
 40
0.512820512820513
 40
0.512820512820513
 40
0.512820512820513
 40
0.512820512820513
 40
0.5384615384615387
 40
0.5384615384615387
 40
0.5384615384615387
 40
0.5384615384615387
 40
0.5641025641025643
 40
0.5641025641025643
 40
0.5641025641025643
 40
0.5641025641025643
 40
0.58974358974359
 40
0.58974358974359
 40
0.58974358974359
 40
0.58974358974359
 40
0.6153846153846156
 40
0.6153846153846156
 40
0.6153846153846156
 40
0.6153846153846156
 40
0.6410256410256413
 40
0.6410256410256413
 40
0.6410256410256413
 40
0.6410256410256413
 40
0.666666666666667
 40
0.666666666666667
 40
0.666666666666667
 40
0.666666666666667
 40
0.6923076923076926
 40
0.6923076923076926
 40
0.6923076923076926
 40
0.6923076923076926
 40
0.7179487179487183
 40
0.7179487179487183
 40
0.7179487179487183
 40
0.7179487179487183
 40
0.743589743589744
 40
0.743589743589744
 40
0.743589743589744
 40
0.743589743589744
 40
0.7692307692307696
 40
0.7692307692307696
 40
0.7692307692307696
 40
0.7692307692307696
 40
0.7948717948717953
 40
0.7948717948717953
 40
0.7948717948717953
 40
0.7948717948717953
 40
0.8205128205128209
 40
0.8205128205128209
 40
0.8205128205128209
 40
0.8205128205128209
 40
0.8461538461538466
 40
0.8461538461538466
 40
0.8461538461538466
 40
0.8461538461538466
 40
0.8717948717948723
 40
0.8717948717948723
 40
0.8717948717948723
 40
0.8717948717948723
 40
0.8974358974358979
 40
0.8974358974358979
 40
0.8974358974358979
 40
0.8974358974358979
 40
0.9230769230769236
 40
0.9230769230769236
 40
0.9230769230769236
 40
0.9230769230769236
 40
0.9487179487179492
 40
0.9487179487179492
 40
0.9487179487179492
 40
0.9487179487179492
 40
0.9743589743589749
 40
0.9743589743589749
 40
0.9743589743589749
 40
0.9743589743589749
 40
1.0
 40
1.0
 40
1.0
 40
1.0
 10
4.4045000000000005
 20
-0.3637800000000001
 30
0.0
 10
4.4756200000000002
 20
-0.35108
 30
0.0
 10
4.5340400000000001
 20
-0.37648
 30
0.0
 10
4.5899200000000002
 20
-0.41966
 30
0.0
 10
4.5899200000000002
 20
-0.41966
 30
0.0
 10
4.7042200000000003
 20
-1.2858000000000001
 30
0.0
 10
3.8812600000000002
 20
-2.02494
 30
0.0
 10
4.1505000000000001
 20
-2.9164800000000004
 30
0.0
 10
4.1505000000000001
 20
-2.9164800000000004
 30
0.0
 10
4.1378000000000004
 20
-3.0028400000000004
 30
0.0
 10
4.12256
 20
-3.0866600000000002
 30
0.0
 10
4.0946199999999999
 20
-3.1730200000000002
 30
0.0
 10
4.0946199999999999
 20
-3.1730200000000002
 30
0.0
 10
3.6120200000000002
 20
-3.7673800000000002
 30
0.0
 10
2.9744800000000002
 20
-4.2220400000000007
 30
0.0
 10
2.3344
 20
-4.6182800000000004
 30
0.0
 10
2.3344
 20
-4.6182800000000004
 30
0.0
 10
2.3064600000000004
 20
-4.7478200000000008
 30
0.0
 10
2.4893400000000003
 20
-4.5903400000000003
 30
0.0
 10
2.5477600000000002
 20
-4.5624000000000002
 30
0.0
 10
2.5477600000000002
 20
-4.5624000000000002
 30
0.0
 10
2.5477600000000002
 20
-4.5624000000000002
 30
0.0
 10
2.7738200000000002
 20
-4.4633400000000005
 30
0.0
 10
2.7738200000000002
 20
-4.4633400000000005
 30
0.0
 10
2.7738200000000002
 20
-4.4633400000000005
 30
0.0
 10
2.5477600000000002
 20
-4.7910000000000004
 30
0.0
 10
2.1693000000000002
 20
-4.8976800000000003
 30
0.0
 10
1.8264000000000002
 20
-5.0831000000000008
 30
0.0
 10
1.8264000000000002
 20
-5.0831000000000008
 30
0.0
 10
1.2041000000000002
 20
-5.2812200000000002
 30
0.0
 10
0.57418
 20
-5.0602400000000003
 30
0.0
 10
-0.01763
 20
-5.1440600000000005
 30
0.0
 10
-0.01763
 20
-5.1440600000000005
 30
0.0
 10
-0.00239
 20
-5.2151800000000001
 30
0.0
 10
0.19318
 20
-5.1720000000000006
 30
0.0
 10
0.1373
 20
-5.2278800000000007
 30
0.0
 10
0.1373
 20
-5.2278800000000007
 30
0.0
 10
0.1373
 20
-5.2278800000000007
 30
0.0
 10
-0.03287
 20
-5.2278800000000007
 30
0.0
 10
-0.03287
 20
-5.2278800000000007
 30
0.0
 10
-0.03287
 20
-5.2278800000000007
 30
0.0
 10
-0.13193
 20
-5.2151800000000001
 30
0.0
 10
-0.21575
 20
-5.1440600000000005
 30
0.0
 10
-0.28687
 20
-5.07294
 30
0.0
 10
-0.28687
 20
-5.07294
 30
0.0
 10
-0.28687
 20
-4.7325800000000005
 30
0.0
 10
-0.25893
 20
-4.4506399999999999
 30
0.0
 10
-0.33005
 20
-4.1229800000000001
 30
0.0
 10
-0.33005
 20
-4.1229800000000001
 30
0.0
 10
-0.13193
 20
-4.2779199999999999
 30
0.0
 10
-0.27417
 20
-4.4506399999999999
 30
0.0
 10
0.023
 20
-4.3490400000000005
 30
0.0
 10
0.023
 20
-4.3490400000000005
 30
0.0
 10
0.1373
 20
-4.1229800000000001
 30
0.0
 10
0.10682
 20
-4.5344600000000002
 30
0.0
 10
0.20588
 20
-4.5903400000000003
 30
0.0
 10
0.20588
 20
-4.5903400000000003
 30
0.0
 10
0.22112
 20
-4.4760400000000002
 30
0.0
 10
0.12206
 20
-4.3363400000000007
 30
0.0
 10
0.1373
 20
-4.2068000000000003
 30
0.0
 10
0.1373
 20
-4.2068000000000003
 30
0.0
 10
0.2643
 20
-4.3642799999999999
 30
0.0
 10
0.37606
 20
-4.1382200000000005
 30
0.0
 10
0.37606
 20
-4.0391600000000007
 30
0.0
 10
0.37606
 20
-4.0391600000000007
 30
0.0
 10
0.4624200000000001
 20
-4.1382200000000005
 30
0.0
 10
0.3659
 20
-4.4100000000000001
 30
0.0
 10
0.51576
 20
-4.4557200000000003
 30
0.0
 10
0.51576
 20
-4.4557200000000003
 30
0.0
 10
0.37352
 20
-4.2144200000000005
 30
0.0
 10
0.8332600000000001
 20
-3.7191200000000002
 30
0.0
 10
0.8205600000000001
 20
-4.1864800000000004
 30
0.0
 10
0.8205600000000001
 20
-4.1864800000000004
 30
0.0
 10
0.8485
 20
-4.1306000000000003
 30
0.0
 10
1.0440800000000001
 20
-4.1661600000000005
 30
0.0
 10
1.0720200000000002
 20
-3.9528000000000003
 30
0.0
 10
1.0720200000000002
 20
-3.9528000000000003
 30
0.0
 10
1.1152000000000002
 20
-4.1229800000000001
 30
0.0
 10
1.1710800000000001
 20
-4.3211000000000004
 30
0.0
 10
1.27014
 20
-4.4633400000000005
 30
0.0
 10
1.27014
 20
-4.4633400000000005
 30
0.0
 10
1.3006200000000001
 20
-4.2499800000000008
 30
0.0
 10
1.1152000000000002
 20
-4.0518600000000005
 30
0.0
 10
1.18632
 20
-3.8105600000000002
 30
0.0
 10
1.18632
 20
-3.8105600000000002
 30
0.0
 10
1.44032
 20
-3.8537400000000002
 30
0.0
 10
1.4835
 20
-3.8816800000000002
 30
0.0
 10
1.5114400000000001
 20
-4.2068000000000003
 30
0.0
 10
1.5114400000000001
 20
-4.2068000000000003
 30
0.0
 10
1.8797400000000002
 20
-4.6182800000000004
 30
0.0
 10
1.2574400000000001
 20
-3.6403800000000004
 30
0.0
 10
1.7375
 20
-3.8537400000000002
 30
0.0
 10
1.7375
 20
-3.8537400000000002
 30
0.0
 10
1.7375
 20
-3.8537400000000002
 30
0.0
 10
1.8111600000000001
 20
-3.7242000000000002
 30
0.0
 10
1.8111600000000001
 20
-3.7242000000000002
 30
0.0
 10
1.8111600000000001
 20
-3.7242000000000002
 30
0.0
 10
1.9102200000000003
 20
-3.8969200000000002
 30
0.0
 10
1.8949800000000001
 20
-4.1382200000000005
 30
0.0
 10
1.9788000000000001
 20
-4.3084000000000007
 30
0.0
 10
1.9788000000000001
 20
-4.3084000000000007
 30
0.0
 10
1.9229200000000002
 20
-3.9096200000000003
 30
0.0
 10
2.00928
 20
-4.1077400000000006
 30
0.0
 10
2.0931000000000002
 20
-4.3642799999999999
 30
0.0
 10
2.0931000000000002
 20
-4.3642799999999999
 30
0.0
 10
2.2226400000000002
 20
-4.09504
 30
0.0
 10
1.7679800000000001
 20
-3.8385000000000002
 30
0.0
 10
1.9661000000000002
 20
-3.6403800000000004
 30
0.0
 10
1.9661000000000002
 20
-3.6403800000000004
 30
0.0
 10
2.1083400000000001
 20
-3.7546800000000005
 30
0.0
 10
2.29122
 20
-3.8969200000000002
 30
0.0
 10
2.3623400000000001
 20
-4.0798000000000005
 30
0.0
 10
2.3623400000000001
 20
-4.0798000000000005
 30
0.0
 10
2.4334600000000002
 20
-3.9655000000000005
 30
0.0
 10
2.3217000000000003
 20
-3.8232600000000003
 30
0.0
 10
2.2226400000000002
 20
-3.7673800000000002
 30
0.0
 10
2.2226400000000002
 20
-3.7673800000000002
 30
0.0
 10
2.0499200000000002
 20
-3.5133800000000002
 30
0.0
 10
2.3674200000000001
 20
-3.7038800000000003
 30
0.0
 10
2.5503
 20
-3.9426400000000004
 30
0.0
 10
2.5503
 20
-3.9426400000000004
 30
0.0
 10
2.4614000000000003
 20
-3.6810200000000002
 30
0.0
 10
2.7738200000000002
 20
-3.7445200000000005
 30
0.0
 10
2.8728800000000003
 20
-3.2568400000000004
 30
0.0
 10
2.8728800000000003
 20
-3.2568400000000004
 30
0.0
 10
2.9313000000000002
 20
-3.4422600000000001
 30
0.0
 10
2.9008200000000004
 20
-3.6835600000000004
 30
0.0
 10
2.8322400000000001
 20
-3.8385000000000002
 30
0.0
 10
2.8322400000000001
 20
-3.8385000000000002
 30
0.0
 10
3.2284800000000002
 20
-3.2873200000000002
 30
0.0
 10
2.9160600000000003
 20
-2.5050000000000003
 30
0.0
 10
2.7890600000000001
 20
-1.9106400000000001
 30
0.0
 10
2.7890600000000001
 20
-1.9106400000000001
 30
0.0
 10
2.9313000000000002
 20
-1.83952
 30
0.0
 10
3.0430600000000001
 20
-1.7252200000000002
 30
0.0
 10
3.2005400000000002
 20
-1.6820400000000002
 30
0.0
 10
3.2005400000000002
 20
-1.6820400000000002
 30
0.0
 10
3.2005400000000002
 20
-2.1519400000000002
 30
0.0
 10
3.3554800000000005
 20
-2.9317200000000003
 30
0.0
 10
3.8533200000000005
 20
-2.27894
 30
0.0
 10
3.8533200000000005
 20
-2.27894
 30
0.0
 10
3.8660200000000002
 20
-2.2510000000000003
 30
0.0
 10
3.8533200000000005
 20
-2.1646400000000003
 30
0.0
 10
3.8101400000000005
 20
-2.2078200000000003
 30
0.0
 10
3.8101400000000005
 20
-2.2078200000000003
 30
0.0
 10
3.8101400000000005
 20
-2.2078200000000003
 30
0.0
 10
3.5256600000000002
 20
-2.4338800000000003
 30
0.0
 10
3.5256600000000002
 20
-2.4338800000000003
 30
0.0
 10
3.5256600000000002
 20
-2.4338800000000003
 30
0.0
 10
3.5053400000000003
 20
-2.3653000000000004
 30
0.0
 10
3.5815400000000004
 20
-2.2764000000000002
 30
0.0
 10
3.6831400000000003
 20
-2.1595600000000004
 30
0.0
 10
3.6831400000000003
 20
-2.1595600000000004
 30
0.0
 10
4.1428799999999999
 20
-1.6337800000000002
 30
0.0
 10
3.7745800000000003
 20
-0.78034
 30
0.0
 10
4.4045000000000005
 20
-0.3637800000000001
 30
0.0
  0
SPLINE
  5
42
100
AcDbEntity
  8
Ebene 1
 62
     7
100
AcDbSpline
210
0.0
220
0.0
230
1.0
 70
     1
 71
     3
 72
    12
 73
     8
 74
     0
 42
0.0000000001
 43
0.0000000001
 40
0.0
 40
0.0
 40
0.0
 40
0.0
 40
0.5
 40
0.5
 40
0.5
 40
0.5
 40
1.0
 40
1.0
 40
1.0
 40
1.0
 10
-1.3511300000000002
 20
-0.6889000000000001
 30
0.0
 10
-1.3155700000000001
 20
-0.6762
 30
0.0
 10
-1.25207
 20
-0.7041400000000001
 30
0.0
 10
-1.29779
 20
-0.7473200000000001
 30
0.0
 10
-1.29779
 20
-0.7473200000000001
 30
0.0
 10
-1.3460500000000002
 20
-0.7752600000000001
 30
0.0
 10
-1.4120900000000001
 20
-0.71938
 30
0.0
 10
-1.3511300000000002
 20
-0.6889000000000001
 30
0.0
  0
SPLINE
  5
43
100
AcDbEntity
  8
Ebene 1
100
AcDbSpline
210
0.0
220
0.0
230
1.0
 70
     1
 71
     3
 72
    48
 73
    44
 74
     0
 42
0.0000000001
 43
0.0000000001
 40
0.0
 40
0.0
 40
0.0
 40
0.0
 40
0.0909090909090909
 40
0.0909090909090909
 40
0.0909090909090909
 40
0.0909090909090909
 40
0.1818181818181818
 40
0.1818181818181818
 40
0.1818181818181818
 40
0.1818181818181818
 40
0.2727272727272727
 40
0.2727272727272727
 40
0.2727272727272727
 40
0.2727272727272727
 40
0.3636363636363637
 40
0.3636363636363637
 40
0.3636363636363637
 40
0.3636363636363637
 40
0.4545454545454546
 40
0.4545454545454546
 40
0.4545454545454546
 40
0.4545454545454546
 40
0.5454545454545455
 40
0.5454545454545455
 40
0.5454545454545455
 40
0.5454545454545455
 40
0.6363636363636365
 40
0.6363636363636365
 40
0.6363636363636365
 40
0.6363636363636365
 40
0.7272727272727274
 40
0.7272727272727274
 40
0.7272727272727274
 40
0.7272727272727274
 40
0.8181818181818183
 40
0.8181818181818183
 40
0.8181818181818183
 40
0.8181818181818183
 40
0.9090909090909093
 40
0.9090909090909093
 40
0.9090909090909093
 40
0.9090909090909093
 40
1.0
 40
1.0
 40
1.0
 40
1.0
 10
-0.31481
 20
-1.0165600000000001
 30
0.0
 10
-0.25893
 20
-1.1156200000000001
 30
0.0
 10
-0.31481
 20
-1.2858000000000001
 30
0.0
 10
-0.24369
 20
-1.4128000000000001
 30
0.0
 10
-0.24369
 20
-1.4128000000000001
 30
0.0
 10
-0.24369
 20
-1.4128000000000001
 30
0.0
 10
0.22112
 20
-1.1156200000000001
 30
0.0
 10
0.22112
 20
-1.1156200000000001
 30
0.0
 10
0.22112
 20
-1.1156200000000001
 30
0.0
 10
0.44718
 20
-1.3569200000000001
 30
0.0
 10
0.6478400000000001
 20
-1.6414000000000002
 30
0.0
 10
0.78754
 20
-1.9385800000000002
 30
0.0
 10
0.78754
 20
-1.9385800000000002
 30
0.0
 10
0.6326000000000001
 20
-2.2637
 30
0.0
 10
0.20588
 20
-2.3653000000000004
 30
0.0
 10
-0.04557
 20
-2.0808200000000001
 30
0.0
 10
-0.04557
 20
-2.0808200000000001
 30
0.0
 10
-0.08875
 20
-2.19258
 30
0.0
 10
-0.00239
 20
-2.3348200000000001
 30
0.0
 10
-0.03287
 20
-2.4491200000000002
 30
0.0
 10
-0.03287
 20
-2.4491200000000002
 30
0.0
 10
-0.03287
 20
-2.4491200000000002
 30
0.0
 10
-0.11669
 20
-2.2230600000000003
 30
0.0
 10
-0.11669
 20
-2.2230600000000003
 30
0.0
 10
-0.11669
 20
-2.2230600000000003
 30
0.0
 10
-0.13193
 20
-2.1519400000000002
 30
0.0
 10
-0.17511
 20
-2.0503400000000003
 30
0.0
 10
-0.21575
 20
-2.1646400000000003
 30
0.0
 10
-0.21575
 20
-2.1646400000000003
 30
0.0
 10
-0.23099
 20
-2.23576
 30
0.0
 10
-0.28687
 20
-2.2637
 30
0.0
 10
-0.3427500000000001
 20
-2.2916400000000001
 30
0.0
 10
-0.3427500000000001
 20
-2.2916400000000001
 30
0.0
 10
-0.69835
 20
-2.1519400000000002
 30
0.0
 10
-0.47229
 20
-1.5982200000000002
 30
0.0
 10
-0.55611
 20
-1.2858000000000001
 30
0.0
 10
-0.55611
 20
-1.2858000000000001
 30
0.0
 10
-0.47229
 20
-1.20198
 30
0.0
 10
-0.40117
 20
-1.4128000000000001
 30
0.0
 10
-0.3427500000000001
 20
-1.3137400000000001
 30
0.0
 10
-0.3427500000000001
 20
-1.3137400000000001
 30
0.0
 10
-0.33005
 20
-1.2146800000000002
 30
0.0
 10
-0.40117
 20
-1.1029200000000001
 30
0.0
 10
-0.31481
 20
-1.0165600000000001
 30
0.0
  0
SPLINE
  5
44
100
AcDbEntity
  8
Ebene 1
100
AcDbSpline
210
0.0
220
0.0
230
1.0
 70
     1
 71
     3
 72
    24
 73
    20
 74
     0
 42
0.0000000001
 43
0.0000000001
 40
0.0
 40
0.0
 40
0.0
 40
0.0
 40
0.2
 40
0.2
 40
0.2
 40
0.2
 40
0.4
 40
0.4
 40
0.4
 40
0.4
 40
0.6000000000000001
 40
0.6000000000000001
 40
0.6000000000000001
 40
0.6000000000000001
 40
0.8
 40
0.8
 40
0.8
 40
0.8
 40
1.0
 40
1.0
 40
1.0
 40
1.0
 10
1.0440800000000001
 20
-1.6134600000000001
 30
0.0
 10
1.2142600000000001
 20
-1.6134600000000001
 30
0.0
 10
1.3692000000000002
 20
-1.71252
 30
0.0
 10
1.52668
 20
-1.7684000000000002
 30
0.0
 10
1.52668
 20
-1.7684000000000002
 30
0.0
 10
1.52668
 20
-1.7684000000000002
 30
0.0
 10
1.3565
 20
-1.79634
 30
0.0
 10
1.3565
 20
-1.79634
 30
0.0
 10
1.3565
 20
-1.79634
 30
0.0
 10
1.31332
 20
-1.8827000000000003
 30
0.0
 10
1.4682600000000001
 20
-1.9665200000000003
 30
0.0
 10
1.4835
 20
-2.0503400000000003
 30
0.0
 10
1.4835
 20
-2.0503400000000003
 30
0.0
 10
1.3006200000000001
 20
-1.9665200000000003
 30
0.0
 10
1.14314
 20
-1.7811000000000001
 30
0.0
 10
0.9856600000000001
 20
-1.66934
 30
0.0
 10
0.9856600000000001
 20
-1.66934
 30
0.0
 10
0.9856600000000001
 20
-1.66934
 30
0.0
 10
1.0440800000000001
 20
-1.6134600000000001
 30
0.0
 10
1.0440800000000001
 20
-1.6134600000000001
 30
0.0
  0
SPLINE
  5
45
100
AcDbEntity
  8
Ebene 1
100
AcDbSpline
210
0.0
220
0.0
230
1.0
 70
     1
 71
     3
 72
    32
 73
    28
 74
     0
 42
0.0000000001
 43
0.0000000001
 40
0.0
 40
0.0
 40
0.0
 40
0.0
 40
0.1428571428571429
 40
0.1428571428571429
 40
0.1428571428571429
 40
0.1428571428571429
 40
0.2857142857142857
 40
0.2857142857142857
 40
0.2857142857142857
 40
0.2857142857142857
 40
0.4285714285714286
 40
0.4285714285714286
 40
0.4285714285714286
 40
0.4285714285714286
 40
0.5714285714285714
 40
0.5714285714285714
 40
0.5714285714285714
 40
0.5714285714285714
 40
0.7142857142857142
 40
0.7142857142857142
 40
0.7142857142857142
 40
0.7142857142857142
 40
0.857142857142857
 40
0.857142857142857
 40
0.857142857142857
 40
0.857142857142857
 40
1.0
 40
1.0
 40
1.0
 40
1.0
 10
-3.7488900000000003
 20
-1.8827000000000003
 30
0.0
 10
-3.6676100000000003
 20
-1.9512800000000001
 30
0.0
 10
-3.9343100000000004
 20
-2.0655800000000002
 30
0.0
 10
-3.9292300000000004
 20
-2.19258
 30
0.0
 10
-3.9292300000000004
 20
-2.19258
 30
0.0
 10
-3.9292300000000004
 20
-2.19258
 30
0.0
 10
-3.8860500000000004
 20
-2.2510000000000003
 30
0.0
 10
-3.8860500000000004
 20
-2.2510000000000003
 30
0.0
 10
-3.8860500000000004
 20
-2.2510000000000003
 30
0.0
 10
-3.6295100000000002
 20
-2.30688
 30
0.0
 10
-3.3602700000000003
 20
-2.8021800000000003
 30
0.0
 10
-3.7869900000000003
 20
-2.77678
 30
0.0
 10
-3.7869900000000003
 20
-2.77678
 30
0.0
 10
-3.7869900000000003
 20
-2.77678
 30
0.0
 10
-3.8708100000000005
 20
-2.8606000000000003
 30
0.0
 10
-3.8708100000000005
 20
-2.8606000000000003
 30
0.0
 10
-3.8708100000000005
 20
-2.8606000000000003
 30
0.0
 10
-3.8936700000000002
 20
-2.7894800000000002
 30
0.0
 10
-3.8428700000000005
 20
-2.7463000000000002
 30
0.0
 10
-3.7996900000000005
 20
-2.7183600000000001
 30
0.0
 10
-3.7996900000000005
 20
-2.7183600000000001
 30
0.0
 10
-3.3958300000000001
 20
-2.69042
 30
0.0
 10
-3.7844500000000001
 20
-2.3221200000000004
 30
0.0
 10
-3.9698700000000002
 20
-2.2510000000000003
 30
0.0
 10
-3.9698700000000002
 20
-2.2510000000000003
 30
0.0
 10
-4.0232100000000006
 20
-2.0935200000000003
 30
0.0
 10
-3.8504900000000002
 20
-1.9665200000000003
 30
0.0
 10
-3.7488900000000003
 20
-1.8827000000000003
 30
0.0
  0
SPLINE
  5
46
100
AcDbEntity
  8
Ebene 1
 62
     7
100
AcDbSpline
210
0.0
220
0.0
230
1.0
 70
     1
 71
     3
 72
    16
 73
    12
 74
     0
 42
0.0000000001
 43
0.0000000001
 40
0.0
 40
0.0
 40
0.0
 40
0.0
 40
0.3333333333333333
 40
0.3333333333333333
 40
0.3333333333333333
 40
0.3333333333333333
 40
0.6666666666666666
 40
0.6666666666666666
 40
0.6666666666666666
 40
0.6666666666666666
 40
1.0
 40
1.0
 40
1.0
 40
1.0
 10
1.8391000000000002
 20
-2.0935200000000003
 30
0.0
 10
1.9229200000000002
 20
-2.1519400000000002
 30
0.0
 10
1.9229200000000002
 20
-2.30688
 30
0.0
 10
1.9940400000000003
 20
-2.4059400000000002
 30
0.0
 10
1.9940400000000003
 20
-2.4059400000000002
 30
0.0
 10
1.9508600000000003
 20
-2.4338800000000003
 30
0.0
 10
1.9102200000000003
 20
-2.4770600000000003
 30
0.0
 10
1.8797400000000002
 20
-2.5202400000000003
 30
0.0
 10
1.8797400000000002
 20
-2.5202400000000003
 30
0.0
 10
1.8238600000000003
 20
-2.4059400000000002
 30
0.0
 10
1.69686
 20
-2.19258
 30
0.0
 10
1.8391000000000002
 20
-2.0935200000000003
 30
0.0
  0
SPLINE
  5
47
100
AcDbEntity
  8
Ebene 1
 62
     7
100
AcDbSpline
210
0.0
220
0.0
230
1.0
 70
     1
 71
     3
 72
    20
 73
    16
 74
     0
 42
0.0000000001
 43
0.0000000001
 40
0.0
 40
0.0
 40
0.0
 40
0.0
 40
0.25
 40
0.25
 40
0.25
 40
0.25
 40
0.5
 40
0.5
 40
0.5
 40
0.5
 40
0.75
 40
0.75
 40
0.75
 40
0.75
 40
1.0
 40
1.0
 40
1.0
 40
1.0
 10
1.9788000000000001
 20
-2.5050000000000003
 30
0.0
 10
2.1210400000000003
 20
-2.5634200000000003
 30
0.0
 10
2.1362800000000002
 20
-2.77678
 30
0.0
 10
2.1642200000000003
 20
-2.9164800000000004
 30
0.0
 10
2.1642200000000003
 20
-2.9164800000000004
 30
0.0
 10
2.1642200000000003
 20
-2.9164800000000004
 30
0.0
 10
2.0931000000000002
 20
-2.9596600000000004
 30
0.0
 10
2.0931000000000002
 20
-2.9596600000000004
 30
0.0
 10
2.0931000000000002
 20
-2.9596600000000004
 30
0.0
 10
2.0931000000000002
 20
-2.9596600000000004
 30
0.0
 10
2.00928
 20
-2.9317200000000003
 30
0.0
 10
2.00928
 20
-2.9317200000000003
 30
0.0
 10
2.00928
 20
-2.9317200000000003
 30
0.0
 10
1.9940400000000003
 20
-2.7894800000000002
 30
0.0
 10
1.8797400000000002
 20
-2.64724
 30
0.0
 10
1.9788000000000001
 20
-2.5050000000000003
 30
0.0
  0
SPLINE
  5
48
100
AcDbEntity
  8
Ebene 1
 62
     7
100
AcDbSpline
210
0.0
220
0.0
230
1.0
 70
     1
 71
     3
 72
    20
 73
    16
 74
     0
 42
0.0000000001
 43
0.0000000001
 40
0.0
 40
0.0
 40
0.0
 40
0.0
 40
0.25
 40
0.25
 40
0.25
 40
0.25
 40
0.5
 40
0.5
 40
0.5
 40
0.5
 40
0.75
 40
0.75
 40
0.75
 40
0.75
 40
1.0
 40
1.0
 40
1.0
 40
1.0
 10
1.7375
 20
-2.6345400000000003
 30
0.0
 10
1.8797400000000002
 20
-2.6624800000000004
 30
0.0
 10
1.8949800000000001
 20
-2.8453600000000003
 30
0.0
 10
1.9229200000000002
 20
-2.9596600000000004
 30
0.0
 10
1.9229200000000002
 20
-2.9596600000000004
 30
0.0
 10
1.8670400000000003
 20
-2.9749000000000003
 30
0.0
 10
1.8518000000000001
 20
-2.9164800000000004
 30
0.0
 10
1.8518000000000001
 20
-2.8758400000000002
 30
0.0
 10
1.8518000000000001
 20
-2.8758400000000002
 30
0.0
 10
1.8518000000000001
 20
-2.8758400000000002
 30
0.0
 10
1.7248000000000001
 20
-2.8758400000000002
 30
0.0
 10
1.7248000000000001
 20
-2.8758400000000002
 30
0.0
 10
1.7248000000000001
 20
-2.8758400000000002
 30
0.0
 10
1.7248000000000001
 20
-2.7894800000000002
 30
0.0
 10
1.7121000000000002
 20
-2.7031200000000002
 30
0.0
 10
1.7375
 20
-2.6345400000000003
 30
0.0
  0
SPLINE
  5
49
100
AcDbEntity
  8
Ebene 1
 62
     7
100
AcDbSpline
210
0.0
220
0.0
230
1.0
 70
     1
 71
     3
 72
    16
 73
    12
 74
     0
 42
0.0000000001
 43
0.0000000001
 40
0.0
 40
0.0
 40
0.0
 40
0.0
 40
0.3333333333333333
 40
0.3333333333333333
 40
0.3333333333333333
 40
0.3333333333333333
 40
0.6666666666666666
 40
0.6666666666666666
 40
0.6666666666666666
 40
0.6666666666666666
 40
1.0
 40
1.0
 40
1.0
 40
1.0
 10
1.02122
 20
-2.7818600000000004
 30
0.0
 10
1.1787000000000001
 20
-2.8529800000000001
 30
0.0
 10
1.31332
 20
-2.9317200000000003
 30
0.0
 10
1.3692000000000002
 20
-3.1019000000000001
 30
0.0
 10
1.3692000000000002
 20
-3.1019000000000001
 30
0.0
 10
1.27014
 20
-3.1857200000000003
 30
0.0
 10
1.1152000000000002
 20
-3.1577800000000003
 30
0.0
 10
1.0009000000000001
 20
-3.1298400000000002
 30
0.0
 10
1.0009000000000001
 20
-3.1298400000000002
 30
0.0
 10
1.01614
 20
-2.9876
 30
0.0
 10
0.9374000000000001
 20
-2.9088600000000002
 30
0.0
 10
1.02122
 20
-2.7818600000000004
 30
0.0
  0
SPLINE
  5
4A
100
AcDbEntity
  8
Ebene 1
 62
     7
100
AcDbSpline
210
0.0
220
0.0
230
1.0
 70
     1
 71
     3
 72
    16
 73
    12
 74
     0
 42
0.0000000001
 43
0.0000000001
 40
0.0
 40
0.0
 40
0.0
 40
0.0
 40
0.3333333333333333
 40
0.3333333333333333
 40
0.3333333333333333
 40
0.3333333333333333
 40
0.6666666666666666
 40
0.6666666666666666
 40
0.6666666666666666
 40
0.6666666666666666
 40
1.0
 40
1.0
 40
1.0
 40
1.0
 10
1.4123800000000002
 20
-2.7463000000000002
 30
0.0
 10
1.52668
 20
-2.77678
 30
0.0
 10
1.6384400000000001
 20
-2.8885400000000003
 30
0.0
 10
1.69686
 20
-3.0028400000000004
 30
0.0
 10
1.69686
 20
-3.0028400000000004
 30
0.0
 10
1.69686
 20
-3.0028400000000004
 30
0.0
 10
1.44032
 20
-3.0739600000000005
 30
0.0
 10
1.44032
 20
-3.0739600000000005
 30
0.0
 10
1.44032
 20
-3.0739600000000005
 30
0.0
 10
1.39968
 20
-2.9876
 30
0.0
 10
1.39968
 20
-2.8453600000000003
 30
0.0
 10
1.4123800000000002
 20
-2.7463000000000002
 30
0.0
  0
SPLINE
  5
4B
100
AcDbEntity
  8
Ebene 1
 62
     7
100
AcDbSpline
210
0.0
220
0.0
230
1.0
 70
     1
 71
     3
 72
    12
 73
     8
 74
     0
 42
0.0000000001
 43
0.0000000001
 40
0.0
 40
0.0
 40
0.0
 40
0.0
 40
0.5
 40
0.5
 40
0.5
 40
0.5
 40
1.0
 40
1.0
 40
1.0
 40
1.0
 10
-0.7974100000000001
 20
-2.7615400000000001
 30
0.0
 10
-0.6704100000000001
 20
-2.77678
 30
0.0
 10
-0.5840500000000001
 20
-3.0866600000000002
 30
0.0
 10
-0.7542300000000001
 20
-3.0866600000000002
 30
0.0
 10
-0.7542300000000001
 20
-3.0866600000000002
 30
0.0
 10
-0.7974100000000001
 20
-3.0028400000000004
 30
0.0
 10
-0.78471
 20
-2.8758400000000002
 30
0.0
 10
-0.7974100000000001
 20
-2.7615400000000001
 30
0.0
  0
SPLINE
  5
4C
100
AcDbEntity
  8
Ebene 1
 62
     7
100
AcDbSpline
210
0.0
220
0.0
230
1.0
 70
     1
 71
     3
 72
    16
 73
    12
 74
     0
 42
0.0000000001
 43
0.0000000001
 40
0.0
 40
0.0
 40
0.0
 40
0.0
 40
0.3333333333333333
 40
0.3333333333333333
 40
0.3333333333333333
 40
0.3333333333333333
 40
0.6666666666666666
 40
0.6666666666666666
 40
0.6666666666666666
 40
0.6666666666666666
 40
1.0
 40
1.0
 40
1.0
 40
1.0
 10
0.16524
 20
-2.7615400000000001
 30
0.0
 10
0.32018
 20
-2.7894800000000002
 30
0.0
 10
0.36336
 20
-2.9876
 30
0.0
 10
0.4624200000000001
 20
-3.1019000000000001
 30
0.0
 10
0.4624200000000001
 20
-3.1019000000000001
 30
0.0
 10
0.37606
 20
-3.1730200000000002
 30
0.0
 10
0.24906
 20
-3.1450800000000001
 30
0.0
 10
0.15
 20
-3.1730200000000002
 30
0.0
 10
0.15
 20
-3.1730200000000002
 30
0.0
 10
0.06364
 20
-3.0460200000000004
 30
0.0
 10
0.07888
 20
-2.8758400000000002
 30
0.0
 10
0.16524
 20
-2.7615400000000001
 30
0.0
  0
SPLINE
  5
4D
100
AcDbEntity
  8
Ebene 1
 62
     7
100
AcDbSpline
210
0.0
220
0.0
230
1.0
 70
     1
 71
     3
 72
    16
 73
    12
 74
     0
 42
0.0000000001
 43
0.0000000001
 40
0.0
 40
0.0
 40
0.0
 40
0.0
 40
0.3333333333333333
 40
0.3333333333333333
 40
0.3333333333333333
 40
0.3333333333333333
 40
0.6666666666666666
 40
0.6666666666666666
 40
0.6666666666666666
 40
0.6666666666666666
 40
1.0
 40
1.0
 40
1.0
 40
1.0
 10
-0.11669
 20
-2.8174200000000003
 30
0.0
 10
-0.04557
 20
-2.8326600000000002
 30
0.0
 10
-0.03287
 20
-2.9317200000000003
 30
0.0
 10
-0.03287
 20
-3.0028400000000004
 30
0.0
 10
-0.03287
 20
-3.0028400000000004
 30
0.0
 10
-0.01763
 20
-3.0739600000000005
 30
0.0
 10
0.06364
 20
-3.1577800000000003
 30
0.0
 10
0.00776
 20
-3.2289000000000003
 30
0.0
 10
0.00776
 20
-3.2289000000000003
 30
0.0
 10
-0.23099
 20
-3.2289000000000003
 30
0.0
 10
-0.15987
 20
-2.9596600000000004
 30
0.0
 10
-0.11669
 20
-2.8174200000000003
 30
0.0
  0
SPLINE
  5
4E
100
AcDbEntity
  8
Ebene 1
 62
     7
100
AcDbSpline
210
0.0
220
0.0
230
1.0
 70
     1
 71
     3
 72
    16
 73
    12
 74
     0
 42
0.0000000001
 43
0.0000000001
 40
0.0
 40
0.0
 40
0.0
 40
0.0
 40
0.3333333333333333
 40
0.3333333333333333
 40
0.3333333333333333
 40
0.3333333333333333
 40
0.6666666666666666
 40
0.6666666666666666
 40
0.6666666666666666
 40
0.6666666666666666
 40
1.0
 40
1.0
 40
1.0
 40
1.0
 10
0.5487800000000001
 20
-2.8174200000000003
 30
0.0
 10
0.6757800000000001
 20
-2.8758400000000002
 30
0.0
 10
0.8180200000000001
 20
-2.9876
 30
0.0
 10
0.8586600000000001
 20
-3.1298400000000002
 30
0.0
 10
0.8586600000000001
 20
-3.1298400000000002
 30
0.0
 10
0.7748400000000001
 20
-3.1857200000000003
 30
0.0
 10
0.6478400000000001
 20
-3.1450800000000001
 30
0.0
 10
0.5614800000000001
 20
-3.1019000000000001
 30
0.0
 10
0.5614800000000001
 20
-3.1019000000000001
 30
0.0
 10
0.53354
 20
-3.0155400000000001
 30
0.0
 10
0.5056000000000001
 20
-2.9037800000000002
 30
0.0
 10
0.5487800000000001
 20
-2.8174200000000003
 30
0.0
  0
SPLINE
  5
4F
100
AcDbEntity
  8
Ebene 1
 62
     7
100
AcDbSpline
210
0.0
220
0.0
230
1.0
 70
     1
 71
     3
 72
    16
 73
    12
 74
     0
 42
0.0000000001
 43
0.0000000001
 40
0.0
 40
0.0
 40
0.0
 40
0.0
 40
0.3333333333333333
 40
0.3333333333333333
 40
0.3333333333333333
 40
0.3333333333333333
 40
0.6666666666666666
 40
0.6666666666666666
 40
0.6666666666666666
 40
0.6666666666666666
 40
1.0
 40
1.0
 40
1.0
 40
1.0
 10
-0.35799
 20
-2.8326600000000002
 30
0.0
 10
-0.23099
 20
-2.8758400000000002
 30
0.0
 10
-0.25893
 20
-3.0460200000000004
 30
0.0
 10
-0.25893
 20
-3.1577800000000003
 30
0.0
 10
-0.25893
 20
-3.1577800000000003
 30
0.0
 10
-0.31481
 20
-3.1577800000000003
 30
0.0
 10
-0.3859300000000001
 20
-3.1146000000000003
 30
0.0
 10
-0.4291100000000001
 20
-3.0866600000000002
 30
0.0
 10
-0.4291100000000001
 20
-3.0866600000000002
 30
0.0
 10
-0.4291100000000001
 20
-3.0866600000000002
 30
0.0
 10
-0.35799
 20
-2.8326600000000002
 30
0.0
 10
-0.35799
 20
-2.8326600000000002
 30
0.0
  0
SPLINE
  5
50
100
AcDbEntity
  8
Ebene 1
 62
     7
100
AcDbSpline
210
0.0
220
0.0
230
1.0
 70
     1
 71
     3
 72
    16
 73
    12
 74
     0
 42
0.0000000001
 43
0.0000000001
 40
0.0
 40
0.0
 40
0.0
 40
0.0
 40
0.3333333333333333
 40
0.3333333333333333
 40
0.3333333333333333
 40
0.3333333333333333
 40
0.6666666666666666
 40
0.6666666666666666
 40
0.6666666666666666
 40
0.6666666666666666
 40
1.0
 40
1.0
 40
1.0
 40
1.0
 10
1.9102200000000003
 20
-3.0460200000000004
 30
0.0
 10
1.9102200000000003
 20
-3.0460200000000004
 30
0.0
 10
1.9788000000000001
 20
-3.0460200000000004
 30
0.0
 10
1.9788000000000001
 20
-3.0460200000000004
 30
0.0
 10
1.9788000000000001
 20
-3.0460200000000004
 30
0.0
 10
2.00928
 20
-3.2136600000000004
 30
0.0
 10
2.0499200000000002
 20
-3.4422600000000001
 30
0.0
 10
1.9229200000000002
 20
-3.5692600000000003
 30
0.0
 10
1.9229200000000002
 20
-3.5692600000000003
 30
0.0
 10
1.8670400000000003
 20
-3.4143200000000005
 30
0.0
 10
1.8518000000000001
 20
-3.1857200000000003
 30
0.0
 10
1.9102200000000003
 20
-3.0460200000000004
 30
0.0
  0
SPLINE
  5
51
100
AcDbEntity
  8
Ebene 1
 62
     7
100
AcDbSpline
210
0.0
220
0.0
230
1.0
 70
     1
 71
     3
 72
    16
 73
    12
 74
     0
 42
0.0000000001
 43
0.0000000001
 40
0.0
 40
0.0
 40
0.0
 40
0.0
 40
0.3333333333333333
 40
0.3333333333333333
 40
0.3333333333333333
 40
0.3333333333333333
 40
0.6666666666666666
 40
0.6666666666666666
 40
0.6666666666666666
 40
0.6666666666666666
 40
1.0
 40
1.0
 40
1.0
 40
1.0
 10
2.0931000000000002
 20
-3.0587200000000001
 30
0.0
 10
2.1362800000000002
 20
-3.0587200000000001
 30
0.0
 10
2.1642200000000003
 20
-3.0587200000000001
 30
0.0
 10
2.2074000000000003
 20
-3.0739600000000005
 30
0.0
 10
2.2074000000000003
 20
-3.0739600000000005
 30
0.0
 10
2.2074000000000003
 20
-3.2568400000000004
 30
0.0
 10
2.2074000000000003
 20
-3.4549600000000003
 30
0.0
 10
2.1210400000000003
 20
-3.5972000000000004
 30
0.0
 10
2.1210400000000003
 20
-3.5972000000000004
 30
0.0
 10
2.0219800000000001
 20
-3.4422600000000001
 30
0.0
 10
2.1210400000000003
 20
-3.2441400000000002
 30
0.0
 10
2.0931000000000002
 20
-3.0587200000000001
 30
0.0
  0
SPLINE
  5
52
100
AcDbEntity
  8
Ebene 1
 62
     7
100
AcDbSpline
210
0.0
220
0.0
230
1.0
 70
     1
 71
     3
 72
    20
 73
    16
 74
     0
 42
0.0000000001
 43
0.0000000001
 40
0.0
 40
0.0
 40
0.0
 40
0.0
 40
0.25
 40
0.25
 40
0.25
 40
0.25
 40
0.5
 40
0.5
 40
0.5
 40
0.5
 40
0.75
 40
0.75
 40
0.75
 40
0.75
 40
1.0
 40
1.0
 40
1.0
 40
1.0
 10
1.69686
 20
-3.1146000000000003
 30
0.0
 10
1.69686
 20
-3.1146000000000003
 30
0.0
 10
1.7527400000000002
 20
-3.1146000000000003
 30
0.0
 10
1.7527400000000002
 20
-3.1146000000000003
 30
0.0
 10
1.7527400000000002
 20
-3.1146000000000003
 30
0.0
 10
1.8238600000000003
 20
-3.3279600000000005
 30
0.0
 10
1.8111600000000001
 20
-3.6556200000000003
 30
0.0
 10
1.6257400000000002
 20
-3.7978600000000005
 30
0.0
 10
1.6257400000000002
 20
-3.7978600000000005
 30
0.0
 10
1.5114400000000001
 20
-3.6403800000000004
 30
0.0
 10
1.5114400000000001
 20
-3.4143200000000005
 30
0.0
 10
1.4835
 20
-3.2136600000000004
 30
0.0
 10
1.4835
 20
-3.2136600000000004
 30
0.0
 10
1.4835
 20
-3.2136600000000004
 30
0.0
 10
1.69686
 20
-3.1146000000000003
 30
0.0
 10
1.69686
 20
-3.1146000000000003
 30
0.0
  0
SPLINE
  5
53
100
AcDbEntity
  8
Ebene 1
 62
     7
100
AcDbSpline
210
0.0
220
0.0
230
1.0
 70
     1
 71
     3
 72
    20
 73
    16
 74
     0
 42
0.0000000001
 43
0.0000000001
 40
0.0
 40
0.0
 40
0.0
 40
0.0
 40
0.25
 40
0.25
 40
0.25
 40
0.25
 40
0.5
 40
0.5
 40
0.5
 40
0.5
 40
0.75
 40
0.75
 40
0.75
 40
0.75
 40
1.0
 40
1.0
 40
1.0
 40
1.0
 10
-0.44435
 20
-3.2136600000000004
 30
0.0
 10
-0.3859300000000001
 20
-3.2009600000000002
 30
0.0
 10
-0.31481
 20
-3.2136600000000004
 30
0.0
 10
-0.3021100000000001
 20
-3.2873200000000002
 30
0.0
 10
-0.3021100000000001
 20
-3.2873200000000002
 30
0.0
 10
-0.3021100000000001
 20
-3.2873200000000002
 30
0.0
 10
-0.55611
 20
-3.4143200000000005
 30
0.0
 10
-0.55611
 20
-3.4143200000000005
 30
0.0
 10
-0.55611
 20
-3.4143200000000005
 30
0.0
 10
-0.57135
 20
-3.3711400000000005
 30
0.0
 10
-0.61199
 20
-3.3000200000000004
 30
0.0
 10
-0.5840500000000001
 20
-3.2568400000000004
 30
0.0
 10
-0.5840500000000001
 20
-3.2568400000000004
 30
0.0
 10
-0.5840500000000001
 20
-3.2568400000000004
 30
0.0
 10
-0.44435
 20
-3.2136600000000004
 30
0.0
 10
-0.44435
 20
-3.2136600000000004
 30
0.0
  0
SPLINE
  5
54
100
AcDbEntity
  8
Ebene 1
 62
     7
100
AcDbSpline
210
0.0
220
0.0
230
1.0
 70
     1
 71
     3
 72
    20
 73
    16
 74
     0
 42
0.0000000001
 43
0.0000000001
 40
0.0
 40
0.0
 40
0.0
 40
0.0
 40
0.25
 40
0.25
 40
0.25
 40
0.25
 40
0.5
 40
0.5
 40
0.5
 40
0.5
 40
0.75
 40
0.75
 40
0.75
 40
0.75
 40
1.0
 40
1.0
 40
1.0
 40
1.0
 10
1.1710800000000001
 20
-3.2568400000000004
 30
0.0
 10
1.1710800000000001
 20
-3.2568400000000004
 30
0.0
 10
1.3692000000000002
 20
-3.2568400000000004
 30
0.0
 10
1.3692000000000002
 20
-3.2568400000000004
 30
0.0
 10
1.3692000000000002
 20
-3.2568400000000004
 30
0.0
 10
1.4276200000000001
 20
-3.4422600000000001
 30
0.0
 10
1.3844400000000001
 20
-3.6556200000000003
 30
0.0
 10
1.31332
 20
-3.8105600000000002
 30
0.0
 10
1.31332
 20
-3.8105600000000002
 30
0.0
 10
1.18632
 20
-3.6962600000000001
 30
0.0
 10
1.2015600000000002
 20
-3.4702000000000002
 30
0.0
 10
1.1279000000000001
 20
-3.3000200000000004
 30
0.0
 10
1.1279000000000001
 20
-3.3000200000000004
 30
0.0
 10
1.1279000000000001
 20
-3.3000200000000004
 30
0.0
 10
1.1710800000000001
 20
-3.2568400000000004
 30
0.0
 10
1.1710800000000001
 20
-3.2568400000000004
 30
0.0
  0
SPLINE
  5
55
100
AcDbEntity
  8
Ebene 1
 62
     7
100
AcDbSpline
210
0.0
220
0.0
230
1.0
 70
     1
 71
     3
 72
    28
 73
    24
 74
     0
 42
0.0000000001
 43
0.0000000001
 40
0.0
 40
0.0
 40
0.0
 40
0.0
 40
0.1666666666666667
 40
0.1666666666666667
 40
0.1666666666666667
 40
0.1666666666666667
 40
0.3333333333333333
 40
0.3333333333333333
 40
0.3333333333333333
 40
0.3333333333333333
 40
0.5
 40
0.5
 40
0.5
 40
0.5
 40
0.6666666666666666
 40
0.6666666666666666
 40
0.6666666666666666
 40
0.6666666666666666
 40
0.8333333333333333
 40
0.8333333333333333
 40
0.8333333333333333
 40
0.8333333333333333
 40
1.0
 40
1.0
 40
1.0
 40
1.0
 10
-0.8532900000000001
 20
-3.2873200000000002
 30
0.0
 10
-0.78471
 20
-3.2873200000000002
 30
0.0
 10
-0.69835
 20
-3.3711400000000005
 30
0.0
 10
-0.69835
 20
-3.4422600000000001
 30
0.0
 10
-0.69835
 20
-3.4422600000000001
 30
0.0
 10
-0.7110500000000001
 20
-3.4854400000000001
 30
0.0
 10
-0.74153
 20
-3.4981400000000002
 30
0.0
 10
-0.7694700000000001
 20
-3.5260800000000003
 30
0.0
 10
-0.7694700000000001
 20
-3.5260800000000003
 30
0.0
 10
-0.7694700000000001
 20
-3.5260800000000003
 30
0.0
 10
-1.5822700000000001
 20
-3.8969200000000002
 30
0.0
 10
-1.5822700000000001
 20
-3.8969200000000002
 30
0.0
 10
-1.5822700000000001
 20
-3.8969200000000002
 30
0.0
 10
-1.5822700000000001
 20
-3.8969200000000002
 30
0.0
 10
-2.3264900000000002
 20
-4.3363400000000007
 30
0.0
 10
-2.3264900000000002
 20
-4.3363400000000007
 30
0.0
 10
-2.3264900000000002
 20
-4.3363400000000007
 30
0.0
 10
-2.3264900000000002
 20
-4.3363400000000007
 30
0.0
 10
-2.3544300000000002
 20
-4.0391600000000007
 30
0.0
 10
-2.3544300000000002
 20
-4.0391600000000007
 30
0.0
 10
-2.3544300000000002
 20
-4.0391600000000007
 30
0.0
 10
-1.9150100000000001
 20
-3.6835600000000004
 30
0.0
 10
-1.3689100000000001
 20
-3.4702000000000002
 30
0.0
 10
-0.8532900000000001
 20
-3.2873200000000002
 30
0.0
  0
SPLINE
  5
56
100
AcDbEntity
  8
Ebene 1
 62
     7
100
AcDbSpline
210
0.0
220
0.0
230
1.0
 70
     1
 71
     3
 72
    20
 73
    16
 74
     0
 42
0.0000000001
 43
0.0000000001
 40
0.0
 40
0.0
 40
0.0
 40
0.0
 40
0.25
 40
0.25
 40
0.25
 40
0.25
 40
0.5
 40
0.5
 40
0.5
 40
0.5
 40
0.75
 40
0.75
 40
0.75
 40
0.75
 40
1.0
 40
1.0
 40
1.0
 40
1.0
 10
0.9729600000000001
 20
-3.3279600000000005
 30
0.0
 10
0.9729600000000001
 20
-3.3279600000000005
 30
0.0
 10
1.01614
 20
-3.3279600000000005
 30
0.0
 10
1.01614
 20
-3.3279600000000005
 30
0.0
 10
1.01614
 20
-3.3279600000000005
 30
0.0
 10
1.02884
 20
-3.5565600000000002
 30
0.0
 10
1.09996
 20
-3.8537400000000002
 30
0.0
 10
0.9170800000000001
 20
-4.0239200000000004
 30
0.0
 10
0.9170800000000001
 20
-4.0239200000000004
 30
0.0
 10
0.8180200000000001
 20
-3.8537400000000002
 30
0.0
 10
0.78754
 20
-3.6403800000000004
 30
0.0
 10
0.7596000000000001
 20
-3.4422600000000001
 30
0.0
 10
0.7596000000000001
 20
-3.4422600000000001
 30
0.0
 10
0.7596000000000001
 20
-3.4422600000000001
 30
0.0
 10
0.9729600000000001
 20
-3.3279600000000005
 30
0.0
 10
0.9729600000000001
 20
-3.3279600000000005
 30
0.0
  0
SPLINE
  5
57
100
AcDbEntity
  8
Ebene 1
 62
     7
100
AcDbSpline
210
0.0
220
0.0
230
1.0
 70
     1
 71
     3
 72
    20
 73
    16
 74
     0
 42
0.0000000001
 43
0.0000000001
 40
0.0
 40
0.0
 40
0.0
 40
0.0
 40
0.25
 40
0.25
 40
0.25
 40
0.25
 40
0.5
 40
0.5
 40
0.5
 40
0.5
 40
0.75
 40
0.75
 40
0.75
 40
0.75
 40
1.0
 40
1.0
 40
1.0
 40
1.0
 10
0.57418
 20
-3.4702000000000002
 30
0.0
 10
0.57418
 20
-3.4702000000000002
 30
0.0
 10
0.6478400000000001
 20
-3.5133800000000002
 30
0.0
 10
0.6478400000000001
 20
-3.5133800000000002
 30
0.0
 10
0.6478400000000001
 20
-3.5133800000000002
 30
0.0
 10
0.66054
 20
-3.6962600000000001
 30
0.0
 10
0.66054
 20
-3.8816800000000002
 30
0.0
 10
0.5183000000000001
 20
-4.00868
 30
0.0
 10
0.5183000000000001
 20
-4.00868
 30
0.0
 10
0.4624200000000001
 20
-3.8537400000000002
 30
0.0
 10
0.37606
 20
-3.6962600000000001
 30
0.0
 10
0.37606
 20
-3.5260800000000003
 30
0.0
 10
0.37606
 20
-3.5260800000000003
 30
0.0
 10
0.37606
 20
-3.5260800000000003
 30
0.0
 10
0.57418
 20
-3.4702000000000002
 30
0.0
 10
0.57418
 20
-3.4702000000000002
 30
0.0
  0
SPLINE
  5
58
100
AcDbEntity
  8
Ebene 1
 62
     7
100
AcDbSpline
210
0.0
220
0.0
230
1.0
 70
     1
 71
     3
 72
    20
 73
    16
 74
     0
 42
0.0000000001
 43
0.0000000001
 40
0.0
 40
0.0
 40
0.0
 40
0.0
 40
0.25
 40
0.25
 40
0.25
 40
0.25
 40
0.5
 40
0.5
 40
0.5
 40
0.5
 40
0.75
 40
0.75
 40
0.75
 40
0.75
 40
1.0
 40
1.0
 40
1.0
 40
1.0
 10
-0.55611
 20
-3.4981400000000002
 30
0.0
 10
-0.55611
 20
-3.4981400000000002
 30
0.0
 10
-0.4291100000000001
 20
-3.4981400000000002
 30
0.0
 10
-0.4291100000000001
 20
-3.4981400000000002
 30
0.0
 10
-0.4291100000000001
 20
-3.4981400000000002
 30
0.0
 10
-0.37323
 20
-3.6683200000000005
 30
0.0
 10
-0.25893
 20
-3.8537400000000002
 30
0.0
 10
-0.28687
 20
-4.0239200000000004
 30
0.0
 10
-0.28687
 20
-4.0239200000000004
 30
0.0
 10
-0.44435
 20
-3.9096200000000003
 30
0.0
 10
-0.52817
 20
-3.6962600000000001
 30
0.0
 10
-0.5840500000000001
 20
-3.5260800000000003
 30
0.0
 10
-0.5840500000000001
 20
-3.5260800000000003
 30
0.0
 10
-0.5840500000000001
 20
-3.5260800000000003
 30
0.0
 10
-0.55611
 20
-3.4981400000000002
 30
0.0
 10
-0.55611
 20
-3.4981400000000002
 30
0.0
  0
SPLINE
  5
59
100
AcDbEntity
  8
Ebene 1
 62
     7
100
AcDbSpline
210
0.0
220
0.0
230
1.0
 70
     1
 71
     3
 72
    20
 73
    16
 74
     0
 42
0.0000000001
 43
0.0000000001
 40
0.0
 40
0.0
 40
0.0
 40
0.0
 40
0.25
 40
0.25
 40
0.25
 40
0.25
 40
0.5
 40
0.5
 40
0.5
 40
0.5
 40
0.75
 40
0.75
 40
0.75
 40
0.75
 40
1.0
 40
1.0
 40
1.0
 40
1.0
 10
-0.24369
 20
-3.5565600000000002
 30
0.0
 10
-0.24369
 20
-3.5565600000000002
 30
0.0
 10
-0.10145
 20
-3.5565600000000002
 30
0.0
 10
-0.10145
 20
-3.5565600000000002
 30
0.0
 10
-0.10145
 20
-3.5565600000000002
 30
0.0
 10
0.023
 20
-3.7394400000000001
 30
0.0
 10
0.00776
 20
-3.9655000000000005
 30
0.0
 10
0.00776
 20
-4.1941000000000006
 30
0.0
 10
0.00776
 20
-4.1941000000000006
 30
0.0
 10
0.00776
 20
-4.1941000000000006
 30
0.0
 10
-0.07351
 20
-4.2372800000000002
 30
0.0
 10
-0.07351
 20
-4.2372800000000002
 30
0.0
 10
-0.07351
 20
-4.2372800000000002
 30
0.0
 10
-0.17511
 20
-4.0391600000000007
 30
0.0
 10
-0.23099
 20
-3.7826200000000001
 30
0.0
 10
-0.24369
 20
-3.5565600000000002
 30
0.0
  0
SPLINE
  5
5A
100
AcDbEntity
  8
Ebene 1
 62
     7
100
AcDbSpline
210
0.0
220
0.0
230
1.0
 70
     1
 71
     3
 72
    20
 73
    16
 74
     0
 42
0.0000000001
 43
0.0000000001
 40
0.0
 40
0.0
 40
0.0
 40
0.0
 40
0.25
 40
0.25
 40
0.25
 40
0.25
 40
0.5
 40
0.5
 40
0.5
 40
0.5
 40
0.75
 40
0.75
 40
0.75
 40
0.75
 40
1.0
 40
1.0
 40
1.0
 40
1.0
 10
0.17794
 20
-3.5692600000000003
 30
0.0
 10
0.17794
 20
-3.5692600000000003
 30
0.0
 10
0.277
 20
-3.5692600000000003
 30
0.0
 10
0.277
 20
-3.5692600000000003
 30
0.0
 10
0.277
 20
-3.5692600000000003
 30
0.0
 10
0.24906
 20
-3.7673800000000002
 30
0.0
 10
0.3354200000000001
 20
-4.00868
 30
0.0
 10
0.23636
 20
-4.1788600000000002
 30
0.0
 10
0.23636
 20
-4.1788600000000002
 30
0.0
 10
0.07888
 20
-4.0518600000000005
 30
0.0
 10
0.12206
 20
-3.7978600000000005
 30
0.0
 10
0.05094
 20
-3.6251400000000005
 30
0.0
 10
0.05094
 20
-3.6251400000000005
 30
0.0
 10
0.05094
 20
-3.6251400000000005
 30
0.0
 10
0.17794
 20
-3.5692600000000003
 30
0.0
 10
0.17794
 20
-3.5692600000000003
 30
0.0
  0
ENDSEC
  0
SECTION
  2
OBJECTS
  0
DICTIONARY
  5
19
100
AcDbDictionary
280
     0
281
     1
  3
ACAD_GROUP
350
1A
  3
ACAD_MLINESTYLE
350
1B
  3
ACAD_LAYOUT
350
1E
  3
ACAD_PLOTSETTINGS
350
22
  3
ACAD_PLOTSTYLENAME
350
1F
  3
ACAD_WIPEOUT_VARS
350
23
  0
DICTIONARY
  5
1A
102
{ACAD_REACTORS
330
19
102
}
100
AcDbDictionary
280
     0
281
     1
  0
DICTIONARY
  5
1B
102
{ACAD_REACTORS
330
19
102
}
100
AcDbDictionary
280
     0
281
     1
  3
Standard
350
1C
  0
MLINESTYLE
  5
1C
102
{ACAD_REACTORS
330
1B
102
}
100
AcDbMlineStyle
  2
Standard
 70
     0
  3

 62
     0
 51
90.0
 52
90.0
 71
     2
 49
0.5
 62
   256
  6
BYLAYER
 49
-0.5
 62
   256
  6
BYLAYER
  0
ACDBDICTIONARYWDFLT
  5
1F
102
{ACAD_REACTORS
330
19
102
}
100
AcDbDictionary
281
     1
  3
Normal
350
1D
100
AcDbDictionaryWithDefault
340
1D
  0
ACDBPLACEHOLDER
  5
1D
102
{ACAD_REACTORS
330
1F
102
}
  0
LAYOUT
  5
20
102
{ACAD_REACTORS
330
1E
102
}
100
AcDbPlotSettings
  1

  2

  4

  6

 40
0.0
 41
0.0
 42
0.0
 43
0.0
 44
0.0
 45
0.0
 46
0.0
 47
0.0
 48
0.0
 49
0.0
140
0.0
141
0.0
142
1.0
143
1.0
 70
  1024
 72
     0
 73
     0
 74
     0
  7

 75
     0
147
1.0
148
0.0
149
0.0
100
AcDbLayout
  1
Model
 70
     0
 71
     0
 10
0.0
 20
0.0
 11
0.0
 21
0.0
 12
0.0
 22
0.0
 32
0.0
 14
0.0
 24
0.0
 34
0.0
 15
0.0
 25
0.0
 35
0.0
146
0.0
 13
0.0
 23
0.0
 33
0.0
 16
0.0
 26
0.0
 36
0.0
 17
0.0
 27
0.0
 37
0.0
 76
     0
330
A
331
0
345
0
346
0
  0
LAYOUT
  5
21
102
{ACAD_REACTORS
330
1E
102
}
100
AcDbPlotSettings
  1

  2

  4

  6

 40
0.0
 41
0.0
 42
0.0
 43
0.0
 44
0.0
 45
0.0
 46
0.0
 47
0.0
 48
0.0
 49
0.0
140
0.0
141
0.0
142
1.0
143
1.0
 70
     0
 72
     0
 73
     0
 74
     0
  7

 75
     0
147
1.0
148
0.0
149
0.0
100
AcDbLayout
  1
Layout1
 70
     0
 71
     0
 10
0.0
 20
0.0
 11
0.0
 21
0.0
 12
0.0
 22
0.0
 32
0.0
 14
0.0
 24
0.0
 34
0.0
 15
0.0
 25
0.0
 35
0.0
146
0.0
 13
0.0
 23
0.0
 33
0.0
 16
0.0
 26
0.0
 36
0.0
 17
0.0
 27
0.0
 37
0.0
 76
     0
330
B
331
0
345
0
346
0
  0
DICTIONARY
  5
1E
102
{ACAD_REACTORS
330
19
102
}
100
AcDbDictionary
280
     0
281
     1
  3
Layout1
350
21
  3
Model
350
20
  0
DICTIONARY
  5
22
102
{ACAD_REACTORS
330
19
102
}
100
AcDbDictionary
280
     0
281
     1
  0
WIPEOUTVARIABLES
  5
23
100
AcDbWipeoutVariables
 70
     1
  0
ENDSEC
  0
EOF
