  0
SECTION
  2
HEADER
  9
$ACADVER
  1
AC1015
  9
$ACADMAINTVER
 70
     6
  9
$DWGCODEPAGE
  3
DOS850
  9
$INSBASE
 10
0.0
 20
0.0
 30
0.0
  9
$EXTMIN
 10
-3.5989
 20
-6.93476
 30
1.000000E+20
  9
$EXTMAX
 10
3.60466
 20
6.92855
 30
-1.000000E+20
  9
$LIMMIN
 10
0.0
 20
0.0
  9
$LIMMAX
 10
0.0
 20
0.0
  9
$ORTHOMODE
 70
     0
  9
$REGENMODE
 70
     1
  9
$FILLMODE
 70
     1
  9
$QTEXTMODE
 70
     0
  9
$MIRRTEXT
 70
     1
  9
$LTSCALE
 40
1.0
  9
$ATTMODE
 70
     1
  9
$TEXTSIZE
 40
0.2
  9
$TRACEWID
 40
0.05
  9
$TEXTSTYLE
  7
Standard
  9
$CLAYER
  8
0
  9
$CELTYPE
  6
Continuous
  9
$CECOLOR
 62
   256
  9
$CELTSCALE
 40
1.0
  9
$DISPSILH
 70
     0
  9
$DIMSCALE
 40
1.0
  9
$DIMASZ
 40
0.18
  9
$DIMEXO
 40
0.0625
  9
$DIMDLI
 40
0.38
  9
$DIMRND
 40
0.0
  9
$DIMDLE
 40
0.0
  9
$DIMEXE
 40
0.18
  9
$DIMTP
 40
0.0
  9
$DIMTM
 40
0.0
  9
$DIMTXT
 40
0.18
  9
$DIMCEN
 40
0.09
  9
$DIMTSZ
 40
0.0
  9
$DIMTOL
 70
     0
  9
$DIMLIM
 70
     0
  9
$DIMTIH
 70
     1
  9
$DIMTOH
 70
     1
  9
$DIMSE1
 70
     0
  9
$DIMSE2
 70
     0
  9
$DIMTAD
 70
     0
  9
$DIMZIN
 70
     0
  9
$DIMBLK
  1

  9
$DIMASO
 70
     1
  9
$DIMSHO
 70
     1
  9
$DIMPOST
  1

  9
$DIMAPOST
  1

  9
$DIMALT
 70
     0
  9
$DIMALTD
 70
     2
  9
$DIMALTF
 40
25.4
  9
$DIMLFAC
 40
1.0
  9
$DIMTOFL
 70
     0
  9
$DIMTVP
 40
0.0
  9
$DIMTIX
 70
     0
  9
$DIMSOXD
 70
     0
  9
$DIMSAH
 70
     0
  9
$DIMBLK1
  1

  9
$DIMBLK2
  1

  9
$DIMSTYLE
  2
Standard
  9
$DIMCLRD
 70
     0
  9
$DIMCLRE
 70
     0
  9
$DIMCLRT
 70
     0
  9
$DIMTFAC
 40
1.0
  9
$DIMGAP
 40
0.09
  9
$DIMJUST
 70
     0
  9
$DIMSD1
 70
     0
  9
$DIMSD2
 70
     0
  9
$DIMTOLJ
 70
     1
  9
$DIMTZIN
 70
     0
  9
$DIMALTZ
 70
     0
  9
$DIMALTTZ
 70
     0
  9
$DIMUPT
 70
     0
  9
$DIMDEC
 70
     4
  9
$DIMTDEC
 70
     4
  9
$DIMALTU
 70
     2
  9
$DIMALTTD
 70
     2
  9
$DIMTXSTY
  7
Standard
  9
$DIMAUNIT
 70
     0
  9
$DIMADEC
 70
     0
  9
$DIMALTRND
 40
0.0
  9
$DIMAZIN
 70
     0
  9
$DIMDSEP
 70
     0
  9
$DIMATFIT
 70
     3
  9
$DIMFRAC
 70
     0
  9
$DIMLDRBLK
  1

  9
$DIMLUNIT
 70
     2
  9
$DIMLWD
 70
     0
  9
$DIMLWE
 70
     0
  9
$DIMTMOVE
 70
     0
  9
$LUNITS
 70
     2
  9
$LUPREC
 70
     4
  9
$SKETCHINC
 40
0.1
  9
$FILLETRAD
 40
0.0
  9
$AUNITS
 70
     0
  9
$AUPREC
 70
     0
  9
$MENU
  1
acad
  9
$ELEVATION
 40
0.0
  9
$PELEVATION
 40
0.0
  9
$THICKNESS
 40
0.0
  9
$LIMCHECK
 70
     0
  9
$CHAMFERA
 40
0.0
  9
$CHAMFERB
 40
0.0
  9
$CHAMFERC
 40
0.0
  9
$CHAMFERD
 40
0.0
  9
$SKPOLY
 70
     0
  9
$TDCREATE
 40
0.000000000
  9
$TDUCREATE
 40
0.000000000
  9
$TDUPDATE
 40
0.000000000
  9
$TDUUPDATE
 40
0.000000000
  9
$TDINDWG
 40
0.0000000000
  9
$TDUSRTIMER
 40
0.0000000000
  9
$USRTIMER
 70
     1
  9
$ANGBASE
 50
0.0
  9
$ANGDIR
 70
     0
  9
$PDMODE
 70
     0
  9
$PDSIZE
 40
0.0
  9
$PLINEWID
 40
0.0
  9
$SPLFRAME
 70
     0
  9
$SPLINETYPE
 70
     6
  9
$SPLINESEGS
 70
     8
  9
$HANDSEED
  5
68
  9
$SURFTAB1
 70
     6
  9
$SURFTAB2
 70
     6
  9
$SURFTYPE
 70
     6
  9
$SURFU
 70
     6
  9
$SURFV
 70
     6
  9
$UCSBASE
  2

  9
$UCSNAME
  2

  9
$UCSORG
 10
0.0
 20
0.0
 30
0.0
  9
$UCSXDIR
 10
1.0
 20
0.0
 30
0.0
  9
$UCSYDIR
 10
0.0
 20
1.0
 30
0.0
  9
$UCSORTHOREF
  2

  9
$UCSORTHOVIEW
 70
     0
  9
$UCSORGTOP
 10
0.0
 20
0.0
 30
0.0
  9
$UCSORGBOTTOM
 10
0.0
 20
0.0
 30
0.0
  9
$UCSORGLEFT
 10
0.0
 20
0.0
 30
0.0
  9
$UCSORGRIGHT
 10
0.0
 20
0.0
 30
0.0
  9
$UCSORGFRONT
 10
0.0
 20
0.0
 30
0.0
  9
$UCSORGBACK
 10
0.0
 20
0.0
 30
0.0
  9
$PUCSBASE
  2

  9
$PUCSNAME
  2

  9
$PUCSORG
 10
0.0
 20
0.0
 30
0.0
  9
$PUCSXDIR
 10
1.0
 20
0.0
 30
0.0
  9
$PUCSYDIR
 10
0.0
 20
1.0
 30
0.0
  9
$PUCSORTHOREF
  2

  9
$PUCSORTHOVIEW
 70
     0
  9
$PUCSORGTOP
 10
0.0
 20
0.0
 30
0.0
  9
$PUCSORGBOTTOM
 10
0.0
 20
0.0
 30
0.0
  9
$PUCSORGLEFT
 10
0.0
 20
0.0
 30
0.0
  9
$PUCSORGRIGHT
 10
0.0
 20
0.0
 30
0.0
  9
$PUCSORGFRONT
 10
0.0
 20
0.0
 30
0.0
  9
$PUCSORGBACK
 10
0.0
 20
0.0
 30
0.0
  9
$USERI1
 70
     0
  9
$USERI2
 70
     0
  9
$USERI3
 70
     0
  9
$USERI4
 70
     0
  9
$USERI5
 70
     0
  9
$USERR1
 40
0.0
  9
$USERR2
 40
0.0
  9
$USERR3
 40
0.0
  9
$USERR4
 40
0.0
  9
$USERR5
 40
0.0
  9
$WORLDVIEW
 70
     1
  9
$SHADEDGE
 70
     3
  9
$SHADEDIF
 70
    70
  9
$TILEMODE
 70
     1
  9
$MAXACTVP
 70
    16
  9
$PINSBASE
 10
0.0
 20
0.0
 30
0.0
  9
$PLIMCHECK
 70
     0
  9
$PEXTMIN
 10
1.000000E+20
 20
1.000000E+20
 30
1.000000E+20
  9
$PEXTMAX
 10
-1.000000E+20
 20
-1.000000E+20
 30
-1.000000E+20
  9
$PLIMMIN
 10
0.0
 20
0.0
  9
$PLIMMAX
 10
12.0
 20
9.0
  9
$UNITMODE
 70
     0
  9
$VISRETAIN
 70
     0
  9
$PLINEGEN
 70
     1
  9
$PSLTSCALE
 70
     0
  9
$TREEDEPTH
 70
  3020
  9
$CMLSTYLE
  2
Standard
  9
$CMLJUST
 70
     0
  9
$CMLSCALE
 40
1.0
  9
$PROXYGRAPHICS
 70
     0
  9
$MEASUREMENT
 70
     0
  9
$CELWEIGHT
370
     0
  9
$ENDCAPS
280
     0
  9
$JOINSTYLE
280
     0
  9
$LWDISPLAY
290
     0
  9
$INSUNITS
 70
     5
  9
$HYPERLINKBASE
  1

  9
$XEDIT
290
     1
  9
$CEPSNTYPE
380
     0
  9
$PSTYLEMODE
290
     1
  9
$FINGERPRINTGUID
  2

  9
$VERSIONGUID
  2

  9
$EXTNAMES
290
     1
  9
$PSVPSCALE
 40
0.0
  0
ENDSEC
  0
SECTION
  2
CLASSES
  0
CLASS
  1
LWPOLYLINE
  2
AcDbPolyline
  3
AutoCAD 2000
 90
    32768
280
     0
281
     1
  0
CLASS
  1
IMAGE
  2
AcDbRasterImage
  3
ISM
 90
    32895
280
     0
281
     1
  0
CLASS
  1
OLE2FRAME
  2
AcDbOle2Frame
  3
AutoCAD 2000
 90
    32768
280
     0
281
     1
  0
CLASS
  1
HATCH
  2
AcDbHatch
  3
AutoCAD 2000
 90
    32768
280
     0
281
     1
  0
CLASS
  1
DICTIONARYVAR
  2
AcDbDictionaryVar
  3
AutoCAD 2000
 90
    32768
280
     0
281
     0
  0
CLASS
  1
RASTERVARIABLES
  2
AcDbRasterVariables
  3
ISM
 90
    32768
280
     0
281
     0
  0
CLASS
  1
IMAGEDEF
  2
AcDbRasterImageDef
  3
ISM
 90
    32768
280
     0
281
     0
  0
CLASS
  1
IMAGEDEF_REACTOR
  2
AcDbRasterImageDefReactor
  3
ISM
 90
    32769
280
     0
281
     0
  0
CLASS
  1
IDBUFFER
  2
AcDbIdBuffer
  3
AutoCAD 2000
 90
    32768
280
     0
281
     0
  0
CLASS
  1
SPATIAL_FILTER
  2
AcDbSpatialFilter
  3
AutoCAD 2000
 90
    32768
280
     0
281
     0
  0
CLASS
  1
XRECORD
  2
AcDbXrecord
  3
AutoCAD 2000
 90
    32768
280
     0
281
     0
  0
CLASS
  1
SORTENTSTABLE
  2
AcDbSortentsTable
  3
AutoCAD 2000
 90
    32768
280
     0
281
     0
  0
CLASS
  1
LAYER_INDEX
  2
AcDbLayerIndex
  3
AutoCAD 2000
 90
    32768
280
     0
281
     0
  0
CLASS
  1
SPATIAL_INDEX
  2
AcDbSpatialIndex
  3
AutoCAD 2000
 90
    32768
280
     0
281
     0
  0
CLASS
  1
OBJECT_PTR
  2
CAseDLPNTableRecord
  3
"ASE-LPNTableRecord"
 90
    32769
280
     0
281
     0
  0
CLASS
  1
LAYOUT
  2
AcDbLayout
  3
AutoCAD 2000
 90
        0
280
     0
281
     0
  0
CLASS
  1
PLOTSETTINGS
  2
AcDbPlotSettings
  3
AutoCAD 2000
 90
    32768
280
     0
281
     0
  0
CLASS
  1
ACDBDICTIONARYWDFLT
  2
AcDbDictionaryWithDefault
  3
AutoCAD 2000
 90
        0
280
     0
281
     0
  0
CLASS
  1
ACDBPLACEHOLDER
  2
AcDbPlaceHolder
  3
AutoCAD 2000
 90
        0
280
     0
281
     0
  0
CLASS
  1
VBA_PROJECT
  2
AcDbVbaProject
  3
acadvba
 90
    32768
280
     0
281
     0
  0
CLASS
  1
WIPEOUT
  2
AcDbWipeout
  3
WipeOut|AutoCAD Express Tool|expresstools@autodesk.com
 90
    32895
280
     0
281
     1
  0
CLASS
  1
WIPEOUTVARIABLES
  2
AcDbWipeoutVariables
  3
WipeOut|AutoCAD Express Tool|expresstools@autodesk.com
 90
        0
280
     0
281
     0
  0
CLASS
  1
RTEXT
  2
RText
  3
RText|AutoCAD Express Tool|expresstools@autodesk.com
 90
    32768
280
     0
281
     1
  0
CLASS
  1
ARCALIGNEDTEXT
  2
AcDbArcAlignedText
  3
ATEXT|AutoCAD Express Tool|expresstools@autodesk.com
 90
    32768
280
     0
281
     1
  0
ENDSEC
  0
SECTION
  2
TABLES
  0
TABLE
  2
VPORT
  5
7
100
AcDbSymbolTable
 70
     1
  0
VPORT
  5
15
100
AcDbSymbolTableRecord
100
AcDbViewportTableRecord
  2
*ACTIVE
 70
     0
 10
0.0
 20
0.0
 11
1.0
 21
1.0
 12
6.591288
 22
4.579184
 13
0.0
 23
0.0
 14
1.0
 24
1.0
 15
0.0
 25
0.0
 16
0.0
 26
0.0
 36
1.0
 17
0.0
 27
0.0
 37
0.0
 40
9.158369
 41
0.688564
 42
50.0
 43
0.0
 44
0.0
 50
0.0
 51
0.0
 71
     0
 72
   100
 73
     1
 74
     1
 75
     0
 76
     0
 77
     0
 78
     0
281
     0
 65
     0
110
0.0
120
0.0
130
0.0
111
1.0
121
0.0
131
0.0
112
0.0
122
1.0
132
0.0
345
0
346
0
 79
     0
146
0.0
  0
ENDTAB
  0
TABLE
  2
LTYPE
  5
4
100
AcDbSymbolTable
 70
     3
  0
LTYPE
  5
11
100
AcDbSymbolTableRecord
100
AcDbLinetypeTableRecord
  2
ByBlock
 70
    64
  3

 72
    65
 73
     0
 40
0.0
  0
LTYPE
  5
12
100
AcDbSymbolTableRecord
100
AcDbLinetypeTableRecord
  2
ByLayer
 70
    64
  3

 72
    65
 73
     0
 40
0.0
  0
LTYPE
  5
13
100
AcDbSymbolTableRecord
100
AcDbLinetypeTableRecord
  2
Continuous
 70
    64
  3
Solid line
 72
    65
 73
     0
 40
0.0
  0
ENDTAB
  0
TABLE
  2
LAYER
  5
2
100
AcDbSymbolTable
 70
     2
  0
LAYER
  5
14
100
AcDbSymbolTableRecord
100
AcDbLayerTableRecord
  2
0
 70
     0
 62
     7
  6
Continuous
290
     1
370
    -3
390
1D
  0
LAYER
  5
24
100
AcDbSymbolTableRecord
100
AcDbLayerTableRecord
  2
Ebene 1
 70
     0
 62
     7
  6
Continuous
290
     1
370
    -3
390
1F
  0
ENDTAB
  0
TABLE
  2
STYLE
  5
3
100
AcDbSymbolTable
 70
     1
  0
STYLE
  5
17
100
AcDbSymbolTableRecord
100
AcDbTextStyleTableRecord
  2
Standard
 70
     0
 40
0.0
 41
1.0
 50
0.0
 71
     0
 42
0.0
  3
txt
  4

  0
ENDTAB
  0
TABLE
  2
VIEW
  5
5
100
AcDbSymbolTable
 70
     0
  0
ENDTAB
  0
TABLE
  2
UCS
  5
6
100
AcDbSymbolTable
 70
     0
  0
ENDTAB
  0
TABLE
  2
APPID
  5
8
100
AcDbSymbolTable
 70
     1
  0
APPID
  5
16
100
AcDbSymbolTableRecord
100
AcDbRegAppTableRecord
  2
ACAD
 70
     0
  0
ENDTAB
  0
TABLE
  2
DIMSTYLE
  5
9
100
AcDbSymbolTable
 70
     1
100
AcDbDimStyleTable
 71
     0
  0
DIMSTYLE
105
18
100
AcDbSymbolTableRecord
100
AcDbDimStyleTableRecord
  2
Standard
 70
     0
  3

  4

 40
1.0
 41
0.18
 42
0.0625
 43
0.38
 44
0.18
 45
0.0
 46
0.0
 47
0.0
 48
0.0
 71
     0
 72
     0
 73
     1
 74
     1
 75
     0
 76
     0
 77
     0
 78
     0
 79
     0
140
0.18
141
0.09
142
0.0
143
25.4
144
1.0
145
0.0
146
1.0
147
0.09
148
0.0
170
     0
171
     2
172
     0
173
     0
174
     0
175
     0
176
     0
177
     0
178
     0
179
     0
271
     4
272
     4
273
     2
274
     2
275
     0
276
     0
277
     2
278
    46
279
     0
280
     0
281
     0
282
     0
283
     1
284
     0
285
     0
286
     0
288
     0
340
17
341
0
342
0
343
0
344
0
371
    -2
372
    -2
  0
ENDTAB
  0
TABLE
  2
BLOCK_RECORD
  5
1
100
AcDbSymbolTable
 70
     0
  0
BLOCK_RECORD
  5
A
100
AcDbSymbolTableRecord
100
AcDbBlockTableRecord
  2
*MODEL_SPACE
340
20
  0
BLOCK_RECORD
  5
B
100
AcDbSymbolTableRecord
100
AcDbBlockTableRecord
  2
*PAPER_SPACE
340
21
  0
ENDTAB
  0
ENDSEC
  0
SECTION
  2
BLOCKS
  0
BLOCK
  5
D
100
AcDbEntity
  8
0
100
AcDbBlockBegin
  2
*MODEL_SPACE
 70
     0
 10
0.0
 20
0.0
 30
0.0
  3
*MODEL_SPACE
  1

  0
ENDBLK
  5
E
100
AcDbEntity
  8
0
100
AcDbBlockEnd
  0
BLOCK
  5
F
100
AcDbEntity
 67
     1
  8
0
100
AcDbBlockBegin
  2
*PAPER_SPACE
 70
     0
 10
0.0
 20
0.0
 30
0.0
  3
*PAPER_SPACE
  1

  0
ENDBLK
  5
10
100
AcDbEntity
 67
     1
  8
0
100
AcDbBlockEnd
  0
ENDSEC
  0
SECTION
  2
ENTITIES
  0
SPLINE
  5
25
100
AcDbEntity
  8
Ebene 1
100
AcDbSpline
210
0.0
220
0.0
230
1.0
 70
     1
 71
     3
 72
   180
 73
   176
 74
     0
 42
0.0000000001
 43
0.0000000001
 40
0.0
 40
0.0
 40
0.0
 40
0.0
 40
0.0227272727272727
 40
0.0227272727272727
 40
0.0227272727272727
 40
0.0227272727272727
 40
0.0454545454545455
 40
0.0454545454545455
 40
0.0454545454545455
 40
0.0454545454545455
 40
0.0681818181818182
 40
0.0681818181818182
 40
0.0681818181818182
 40
0.0681818181818182
 40
0.0909090909090909
 40
0.0909090909090909
 40
0.0909090909090909
 40
0.0909090909090909
 40
0.1136363636363637
 40
0.1136363636363637
 40
0.1136363636363637
 40
0.1136363636363637
 40
0.1363636363636364
 40
0.1363636363636364
 40
0.1363636363636364
 40
0.1363636363636364
 40
0.1590909090909091
 40
0.1590909090909091
 40
0.1590909090909091
 40
0.1590909090909091
 40
0.1818181818181819
 40
0.1818181818181819
 40
0.1818181818181819
 40
0.1818181818181819
 40
0.2045454545454546
 40
0.2045454545454546
 40
0.2045454545454546
 40
0.2045454545454546
 40
0.2272727272727273
 40
0.2272727272727273
 40
0.2272727272727273
 40
0.2272727272727273
 40
0.2500000000000001
 40
0.2500000000000001
 40
0.2500000000000001
 40
0.2500000000000001
 40
0.2727272727272728
 40
0.2727272727272728
 40
0.2727272727272728
 40
0.2727272727272728
 40
0.2954545454545455
 40
0.2954545454545455
 40
0.2954545454545455
 40
0.2954545454545455
 40
0.3181818181818182
 40
0.3181818181818182
 40
0.3181818181818182
 40
0.3181818181818182
 40
0.3409090909090909
 40
0.3409090909090909
 40
0.3409090909090909
 40
0.3409090909090909
 40
0.3636363636363636
 40
0.3636363636363636
 40
0.3636363636363636
 40
0.3636363636363636
 40
0.3863636363636363
 40
0.3863636363636363
 40
0.3863636363636363
 40
0.3863636363636363
 40
0.409090909090909
 40
0.409090909090909
 40
0.409090909090909
 40
0.409090909090909
 40
0.4318181818181817
 40
0.4318181818181817
 40
0.4318181818181817
 40
0.4318181818181817
 40
0.4545454545454544
 40
0.4545454545454544
 40
0.4545454545454544
 40
0.4545454545454544
 40
0.4772727272727271
 40
0.4772727272727271
 40
0.4772727272727271
 40
0.4772727272727271
 40
0.4999999999999998
 40
0.4999999999999998
 40
0.4999999999999998
 40
0.4999999999999998
 40
0.5227272727272726
 40
0.5227272727272726
 40
0.5227272727272726
 40
0.5227272727272726
 40
0.5454545454545453
 40
0.5454545454545453
 40
0.5454545454545453
 40
0.5454545454545453
 40
0.568181818181818
 40
0.568181818181818
 40
0.568181818181818
 40
0.568181818181818
 40
0.5909090909090907
 40
0.5909090909090907
 40
0.5909090909090907
 40
0.5909090909090907
 40
0.6136363636363634
 40
0.6136363636363634
 40
0.6136363636363634
 40
0.6136363636363634
 40
0.6363636363636361
 40
0.6363636363636361
 40
0.6363636363636361
 40
0.6363636363636361
 40
0.6590909090909088
 40
0.6590909090909088
 40
0.6590909090909088
 40
0.6590909090909088
 40
0.6818181818181816
 40
0.6818181818181816
 40
0.6818181818181816
 40
0.6818181818181816
 40
0.7045454545454543
 40
0.7045454545454543
 40
0.7045454545454543
 40
0.7045454545454543
 40
0.727272727272727
 40
0.727272727272727
 40
0.727272727272727
 40
0.727272727272727
 40
0.7499999999999997
 40
0.7499999999999997
 40
0.7499999999999997
 40
0.7499999999999997
 40
0.7727272727272724
 40
0.7727272727272724
 40
0.7727272727272724
 40
0.7727272727272724
 40
0.7954545454545451
 40
0.7954545454545451
 40
0.7954545454545451
 40
0.7954545454545451
 40
0.8181818181818178
 40
0.8181818181818178
 40
0.8181818181818178
 40
0.8181818181818178
 40
0.8409090909090905
 40
0.8409090909090905
 40
0.8409090909090905
 40
0.8409090909090905
 40
0.8636363636363632
 40
0.8636363636363632
 40
0.8636363636363632
 40
0.8636363636363632
 40
0.8863636363636359
 40
0.8863636363636359
 40
0.8863636363636359
 40
0.8863636363636359
 40
0.9090909090909086
 40
0.9090909090909086
 40
0.9090909090909086
 40
0.9090909090909086
 40
0.9318181818181813
 40
0.9318181818181813
 40
0.9318181818181813
 40
0.9318181818181813
 40
0.954545454545454
 40
0.954545454545454
 40
0.954545454545454
 40
0.954545454545454
 40
0.9772727272727267
 40
0.9772727272727267
 40
0.9772727272727267
 40
0.9772727272727267
 40
1.0
 40
1.0
 40
1.0
 40
1.0
 10
0.21096
 20
6.9285500000000004
 30
0.0
 10
1.1583800000000002
 20
6.9564900000000005
 30
0.0
 10
1.0364600000000002
 20
5.7957100000000006
 30
0.0
 10
1.0364600000000002
 20
5.1353100000000005
 30
0.0
 10
1.0364600000000002
 20
5.1353100000000005
 30
0.0
 10
1.5393800000000002
 20
4.7771700000000008
 30
0.0
 10
1.9762600000000001
 20
5.3664500000000004
 30
0.0
 10
2.4614000000000003
 20
5.0210100000000004
 30
0.0
 10
2.4614000000000003
 20
5.0210100000000004
 30
0.0
 10
2.7484200000000003
 20
4.7924100000000003
 30
0.0
 10
2.7636600000000002
 20
4.3758500000000007
 30
0.0
 10
2.6925400000000002
 20
4.0456500000000002
 30
0.0
 10
2.6925400000000002
 20
4.0456500000000002
 30
0.0
 10
2.8932000000000002
 20
3.6875100000000005
 30
0.0
 10
3.5104200000000003
 20
3.7306900000000005
 30
0.0
 10
3.5815400000000004
 20
3.2430100000000004
 30
0.0
 10
3.5815400000000004
 20
3.2430100000000004
 30
0.0
 10
3.6958400000000005
 20
2.8569300000000002
 30
0.0
 10
3.3377000000000003
 20
2.5114900000000002
 30
0.0
 10
3.5942400000000001
 20
2.16859
 30
0.0
 10
3.5942400000000001
 20
2.16859
 30
0.0
 10
3.3377000000000003
 20
2.03905
 30
0.0
 10
3.2081600000000003
 20
1.82315
 30
0.0
 10
3.0075000000000003
 20
1.6224900000000002
 30
0.0
 10
3.0075000000000003
 20
1.6224900000000002
 30
0.0
 10
3.1065600000000004
 20
1.06369
 30
0.0
 10
3.0202000000000004
 20
0.6039500000000001
 30
0.0
 10
2.9795600000000002
 20
0.04515
 30
0.0
 10
2.9795600000000002
 20
0.04515
 30
0.0
 10
3.0506800000000003
 20
-0.32568
 30
0.0
 10
3.6526600000000005
 20
-0.6838200000000001
 30
0.0
 10
3.1776800000000001
 20
-0.9987800000000001
 30
0.0
 10
3.1776800000000001
 20
-0.9987800000000001
 30
0.0
 10
4.2114600000000006
 20
-2.9774400000000001
 30
0.0
 10
2.5630000000000002
 20
-4.9992800000000006
 30
0.0
 10
2.7357200000000002
 20
-6.9347600000000007
 30
0.0
 10
2.7357200000000002
 20
-6.9347600000000007
 30
0.0
 10
2.3039200000000002
 20
-6.0584600000000002
 30
0.0
 10
2.6925400000000002
 20
-5.0551600000000008
 30
0.0
 10
2.9643200000000003
 20
-4.2093400000000001
 30
0.0
 10
2.9643200000000003
 20
-4.2093400000000001
 30
0.0
 10
3.1065600000000004
 20
-3.2644600000000001
 30
0.0
 10
3.3377000000000003
 20
-2.1163800000000004
 30
0.0
 10
2.8347800000000003
 20
-1.2578600000000002
 30
0.0
 10
2.8347800000000003
 20
-1.2578600000000002
 30
0.0
 10
2.6620600000000003
 20
-1.3848600000000002
 30
0.0
 10
2.5477600000000002
 20
-1.5575800000000002
 30
0.0
 10
2.5782400000000001
 20
-1.7861800000000001
 30
0.0
 10
2.5782400000000001
 20
-1.7861800000000001
 30
0.0
 10
2.5198200000000002
 20
-2.2154400000000001
 30
0.0
 10
2.3750400000000003
 20
-2.6320000000000001
 30
0.0
 10
2.1312000000000002
 20
-2.9774400000000001
 30
0.0
 10
2.1312000000000002
 20
-2.9774400000000001
 30
0.0
 10
1.9610200000000002
 20
-3.1781000000000001
 30
0.0
 10
1.9610200000000002
 20
-3.4219400000000002
 30
0.0
 10
1.9178400000000002
 20
-3.6657800000000003
 30
0.0
 10
1.9178400000000002
 20
-3.6657800000000003
 30
0.0
 10
1.8467200000000001
 20
-3.3482800000000004
 30
0.0
 10
1.7171800000000002
 20
-3.5794200000000003
 30
0.0
 10
1.6155800000000002
 20
-3.7800800000000003
 30
0.0
 10
1.6155800000000002
 20
-3.7800800000000003
 30
0.0
 10
1.2295
 20
-4.4100000000000001
 30
0.0
 10
1.1152000000000002
 20
-5.1567600000000002
 30
0.0
 10
1.02884
 20
-5.8730400000000005
 30
0.0
 10
1.02884
 20
-5.8730400000000005
 30
0.0
 10
0.69864
 20
-4.9561000000000002
 30
0.0
 10
0.9856600000000001
 20
-3.8080200000000004
 30
0.0
 10
1.6308200000000002
 20
-3.0333200000000002
 30
0.0
 10
1.6308200000000002
 20
-3.0333200000000002
 30
0.0
 10
1.6892400000000001
 20
-2.8047200000000001
 30
0.0
 10
1.40222
 20
-2.5761200000000004
 30
0.0
 10
1.4149200000000002
 20
-2.31704
 30
0.0
 10
1.4149200000000002
 20
-2.31704
 30
0.0
 10
1.4149200000000002
 20
-2.31704
 30
0.0
 10
0.8408800000000001
 20
-2.5481800000000003
 30
0.0
 10
0.8408800000000001
 20
-2.5481800000000003
 30
0.0
 10
0.8408800000000001
 20
-2.5481800000000003
 30
0.0
 10
0.9704200000000001
 20
-3.8943800000000004
 30
0.0
 10
0.02554
 20
-5.0272200000000007
 30
0.0
 10
-0.00239
 20
-6.3023000000000007
 30
0.0
 10
-0.00239
 20
-6.3023000000000007
 30
0.0
 10
-0.15987
 20
-6.0178200000000004
 30
0.0
 10
-0.12939
 20
-5.6444400000000003
 30
0.0
 10
-0.08621
 20
-5.3142400000000007
 30
0.0
 10
-0.08621
 20
-5.3142400000000007
 30
0.0
 10
-0.04557
 20
-4.9561000000000002
 30
0.0
 10
0.06872
 20
-4.6259000000000006
 30
0.0
 10
0.18302
 20
-4.2804600000000006
 30
0.0
 10
0.18302
 20
-4.2804600000000006
 30
0.0
 10
0.3405
 20
-3.7800800000000003
 30
0.0
 10
0.51322
 20
-3.2644600000000001
 30
0.0
 10
0.4395600000000001
 20
-2.7031200000000002
 30
0.0
 10
0.4395600000000001
 20
-2.7031200000000002
 30
0.0
 10
0.38368
 20
-2.7031200000000002
 30
0.0
 10
0.3252600000000001
 20
-2.7463000000000002
 30
0.0
 10
0.26938
 20
-2.77678
 30
0.0
 10
0.26938
 20
-2.77678
 30
0.0
 10
-0.05827
 20
-2.9469600000000002
 30
0.0
 10
-0.40371
 20
-3.0917400000000002
 30
0.0
 10
-0.76185
 20
-3.1044400000000003
 30
0.0
 10
-0.76185
 20
-3.1044400000000003
 30
0.0
 10
-0.8329700000000001
 20
-3.5514800000000002
 30
0.0
 10
-0.48753
 20
-3.9375600000000004
 30
0.0
 10
-0.6018300000000001
 20
-4.4252400000000005
 30
0.0
 10
-0.6018300000000001
 20
-4.4252400000000005
 30
0.0
 10
-0.6018300000000001
 20
-4.4252400000000005
 30
0.0
 10
-0.71867
 20
-5.2431200000000002
 30
0.0
 10
-0.71867
 20
-5.2431200000000002
 30
0.0
 10
-0.71867
 20
-5.2431200000000002
 30
0.0
 10
-0.71867
 20
-5.2431200000000002
 30
0.0
 10
-0.76185
 20
-5.82986
 30
0.0
 10
-0.76185
 20
-5.82986
 30
0.0
 10
-0.76185
 20
-5.82986
 30
0.0
 10
-1.0615700000000001
 20
-4.9408600000000007
 30
0.0
 10
-0.71867
 20
-3.9096200000000003
 30
0.0
 10
-1.1479300000000001
 20
-3.0206200000000001
 30
0.0
 10
-1.1479300000000001
 20
-3.0206200000000001
 30
0.0
 10
-1.46289
 20
-2.9469600000000002
 30
0.0
 10
-1.7727700000000002
 20
-2.9901400000000002
 30
0.0
 10
-2.0750300000000004
 20
-3.0485600000000002
 30
0.0
 10
-2.0750300000000004
 20
-3.0485600000000002
 30
0.0
 10
-2.11313
 20
-3.1476200000000003
 30
0.0
 10
-2.14107
 20
-3.2492200000000002
 30
0.0
 10
-2.1385300000000003
 20
-3.3635200000000003
 30
0.0
 10
-2.1385300000000003
 20
-3.3635200000000003
 30
0.0
 10
-2.2604500000000001
 20
-3.9655000000000005
 30
0.0
 10
-2.06995
 20
-4.5979600000000005
 30
0.0
 10
-2.02169
 20
-5.1694600000000008
 30
0.0
 10
-2.02169
 20
-5.1694600000000008
 30
0.0
 10
-2.4230100000000001
 20
-4.44048
 30
0.0
 10
-2.5652500000000003
 20
-3.4778200000000004
 30
0.0
 10
-2.39507
 20
-2.6320000000000001
 30
0.0
 10
-2.39507
 20
-2.6320000000000001
 30
0.0
 10
-2.3696700000000002
 20
-2.5888200000000001
 30
0.0
 10
-2.3823700000000003
 20
-2.5329400000000004
 30
0.0
 10
-2.3849100000000001
 20
-2.4745200000000001
 30
0.0
 10
-2.3849100000000001
 20
-2.4745200000000001
 30
0.0
 10
-2.5525500000000001
 20
-2.6751800000000001
 30
0.0
 10
-2.7811500000000002
 20
-3.1476200000000003
 30
0.0
 10
-2.8497300000000001
 20
-3.4778200000000004
 30
0.0
 10
-2.8497300000000001
 20
-3.4778200000000004
 30
0.0
 10
-2.9157700000000002
 20
-3.3635200000000003
 30
0.0
 10
-2.8954500000000003
 20
-3.2060400000000002
 30
0.0
 10
-2.8827500000000001
 20
-3.0765000000000002
 30
0.0
 10
-2.8827500000000001
 20
-3.0765000000000002
 30
0.0
 10
-2.1537700000000002
 20
-1.6998200000000001
 30
0.0
 10
-3.4974300000000005
 20
-0.16566
 30
0.0
 10
-3.0122900000000001
 20
1.23641
 30
0.0
 10
-3.0122900000000001
 20
1.23641
 30
0.0
 10
-3.0122900000000001
 20
1.23641
 30
0.0
 10
-2.9843500000000001
 20
1.9095100000000003
 30
0.0
 10
-2.9843500000000001
 20
1.9095100000000003
 30
0.0
 10
-2.9843500000000001
 20
1.9095100000000003
 30
0.0
 10
-3.2739100000000003
 20
2.3971900000000002
 30
0.0
 10
-3.6752300000000004
 20
2.8696300000000003
 30
0.0
 10
-3.5863300000000002
 20
3.5020900000000004
 30
0.0
 10
-3.5863300000000002
 20
3.5020900000000004
 30
0.0
 10
-3.5075900000000004
 20
4.0304100000000007
 30
0.0
 10
-2.9081500000000005
 20
4.2463100000000003
 30
0.0
 10
-2.4534900000000004
 20
4.1040700000000001
 30
0.0
 10
-2.4534900000000004
 20
4.1040700000000001
 30
0.0
 10
-2.31379
 20
4.2386900000000001
 30
0.0
 10
-2.0293100000000002
 20
4.3936299999999999
 30
0.0
 10
-1.9759700000000002
 20
4.6069900000000006
 30
0.0
 10
-1.9759700000000002
 20
4.6069900000000006
 30
0.0
 10
-1.9454900000000002
 20
4.7289099999999999
 30
0.0
 10
-2.10805
 20
5.2242100000000002
 30
0.0
 10
-1.7600700000000002
 20
5.3943900000000005
 30
0.0
 10
-1.7600700000000002
 20
5.3943900000000005
 30
0.0
 10
-1.2342900000000001
 20
5.4934500000000002
 30
0.0
 10
-1.16571
 20
4.7009700000000008
 30
0.0
 10
-0.53325
 20
5.2318300000000004
 30
0.0
 10
-0.53325
 20
5.2318300000000004
 30
0.0
 10
-0.4926100000000001
 20
5.8465100000000003
 30
0.0
 10
-0.53071
 20
6.7278900000000004
 30
0.0
 10
0.21096
 20
6.9285500000000004
 30
0.0
  0
SPLINE
  5
26
100
AcDbEntity
  8
Ebene 1
100
AcDbSpline
210
0.0
220
0.0
230
1.0
 70
     1
 71
     3
 72
    12
 73
     8
 74
     0
 42
0.0000000001
 43
0.0000000001
 40
0.0
 40
0.0
 40
0.0
 40
0.0
 40
0.5
 40
0.5
 40
0.5
 40
0.5
 40
1.0
 40
1.0
 40
1.0
 40
1.0
 10
2.2759800000000001
 20
4.7212900000000007
 30
0.0
 10
2.3344
 20
4.6628700000000007
 30
0.0
 10
2.3750400000000003
 20
4.5053900000000002
 30
0.0
 10
2.4766400000000002
 20
4.5612700000000004
 30
0.0
 10
2.4766400000000002
 20
4.5612700000000004
 30
0.0
 10
2.4487000000000001
 20
4.6476300000000004
 30
0.0
 10
2.3623400000000001
 20
4.7060500000000003
 30
0.0
 10
2.2759800000000001
 20
4.7212900000000007
 30
0.0
  0
SPLINE
  5
27
100
AcDbEntity
  8
Ebene 1
100
AcDbSpline
210
0.0
220
0.0
230
1.0
 70
     1
 71
     3
 72
    24
 73
    20
 74
     0
 42
0.0000000001
 43
0.0000000001
 40
0.0
 40
0.0
 40
0.0
 40
0.0
 40
0.2
 40
0.2
 40
0.2
 40
0.2
 40
0.4
 40
0.4
 40
0.4
 40
0.4
 40
0.6000000000000001
 40
0.6000000000000001
 40
0.6000000000000001
 40
0.6000000000000001
 40
0.8
 40
0.8
 40
0.8
 40
0.8
 40
1.0
 40
1.0
 40
1.0
 40
1.0
 10
0.29732
 20
6.3418100000000006
 30
0.0
 10
-0.03033
 20
6.1259100000000002
 30
0.0
 10
-0.04557
 20
5.6661700000000002
 30
0.0
 10
-0.00239
 20
5.2927900000000001
 30
0.0
 10
-0.00239
 20
5.2927900000000001
 30
0.0
 10
-0.00239
 20
5.2927900000000001
 30
0.0
 10
0.08142
 20
5.2800900000000004
 30
0.0
 10
0.08142
 20
5.2800900000000004
 30
0.0
 10
0.08142
 20
5.2800900000000004
 30
0.0
 10
0.08142
 20
5.2216700000000005
 30
0.0
 10
0.08142
 20
5.17849
 30
0.0
 10
0.1246
 20
5.1353100000000005
 30
0.0
 10
0.1246
 20
5.1353100000000005
 30
0.0
 10
0.1246
 20
5.1353100000000005
 30
0.0
 10
0.51322
 20
5.1353100000000005
 30
0.0
 10
0.51322
 20
5.1353100000000005
 30
0.0
 10
0.51322
 20
5.1353100000000005
 30
0.0
 10
0.6122800000000001
 20
5.5239300000000009
 30
0.0
 10
0.5843400000000001
 20
6.0395500000000002
 30
0.0
 10
0.29732
 20
6.3418100000000006
 30
0.0
  0
SPLINE
  5
28
100
AcDbEntity
  8
Ebene 1
100
AcDbSpline
210
0.0
220
0.0
230
1.0
 70
     1
 71
     3
 72
    16
 73
    12
 74
     0
 42
0.0000000001
 43
0.0000000001
 40
0.0
 40
0.0
 40
0.0
 40
0.0
 40
0.3333333333333333
 40
0.3333333333333333
 40
0.3333333333333333
 40
0.3333333333333333
 40
0.6666666666666666
 40
0.6666666666666666
 40
0.6666666666666666
 40
0.6666666666666666
 40
1.0
 40
1.0
 40
1.0
 40
1.0
 10
-2.9538700000000002
 20
3.7306900000000005
 30
0.0
 10
-3.3374100000000002
 20
3.5884500000000004
 30
0.0
 10
-3.1672300000000004
 20
3.0855300000000003
 30
0.0
 10
-2.9868900000000003
 20
2.8289900000000001
 30
0.0
 10
-2.9868900000000003
 20
2.8289900000000001
 30
0.0
 10
-2.9259300000000001
 20
3.1134700000000004
 30
0.0
 10
-2.8725900000000002
 20
3.4004900000000005
 30
0.0
 10
-2.8294100000000002
 20
3.6875100000000005
 30
0.0
 10
-2.8294100000000002
 20
3.6875100000000005
 30
0.0
 10
-2.85989
 20
3.7154500000000001
 30
0.0
 10
-2.9081500000000005
 20
3.7306900000000005
 30
0.0
 10
-2.9538700000000002
 20
3.7306900000000005
 30
0.0
  0
SPLINE
  5
29
100
AcDbEntity
  8
Ebene 1
100
AcDbSpline
210
0.0
220
0.0
230
1.0
 70
     1
 71
     3
 72
    16
 73
    12
 74
     0
 42
0.0000000001
 43
0.0000000001
 40
0.0
 40
0.0
 40
0.0
 40
0.0
 40
0.3333333333333333
 40
0.3333333333333333
 40
0.3333333333333333
 40
0.3333333333333333
 40
0.6666666666666666
 40
0.6666666666666666
 40
0.6666666666666666
 40
0.6666666666666666
 40
1.0
 40
1.0
 40
1.0
 40
1.0
 10
-1.6457700000000002
 20
5.0616500000000002
 30
0.0
 10
-1.6660900000000001
 20
4.9702100000000007
 30
0.0
 10
-1.7219700000000002
 20
4.8381300000000005
 30
0.0
 10
-1.6457700000000002
 20
4.7644700000000002
 30
0.0
 10
-1.6457700000000002
 20
4.7644700000000002
 30
0.0
 10
-1.6457700000000002
 20
4.7644700000000002
 30
0.0
 10
-1.4781300000000002
 20
4.8559100000000006
 30
0.0
 10
-1.4781300000000002
 20
4.8559100000000006
 30
0.0
 10
-1.4781300000000002
 20
4.8559100000000006
 30
0.0
 10
-1.5136900000000002
 20
4.9321100000000007
 30
0.0
 10
-1.5340100000000001
 20
5.0616500000000002
 30
0.0
 10
-1.6457700000000002
 20
5.0616500000000002
 30
0.0
  0
SPLINE
  5
2A
100
AcDbEntity
  8
Ebene 1
 62
     7
100
AcDbSpline
210
0.0
220
0.0
230
1.0
 70
     1
 71
     3
 72
    32
 73
    28
 74
     0
 42
0.0000000001
 43
0.0000000001
 40
0.0
 40
0.0
 40
0.0
 40
0.0
 40
0.1428571428571429
 40
0.1428571428571429
 40
0.1428571428571429
 40
0.1428571428571429
 40
0.2857142857142857
 40
0.2857142857142857
 40
0.2857142857142857
 40
0.2857142857142857
 40
0.4285714285714286
 40
0.4285714285714286
 40
0.4285714285714286
 40
0.4285714285714286
 40
0.5714285714285714
 40
0.5714285714285714
 40
0.5714285714285714
 40
0.5714285714285714
 40
0.7142857142857142
 40
0.7142857142857142
 40
0.7142857142857142
 40
0.7142857142857142
 40
0.857142857142857
 40
0.857142857142857
 40
0.857142857142857
 40
0.857142857142857
 40
1.0
 40
1.0
 40
1.0
 40
1.0
 10
0.2389
 20
6.8853700000000009
 30
0.0
 10
0.74182
 20
6.9437900000000008
 30
0.0
 10
1.09996
 20
6.2402100000000003
 30
0.0
 10
0.82818
 20
5.8515900000000007
 30
0.0
 10
0.82818
 20
5.8515900000000007
 30
0.0
 10
0.5564
 20
5.7804700000000002
 30
0.0
 10
0.6122800000000001
 20
6.1538500000000003
 30
0.0
 10
0.4827400000000001
 20
6.2833900000000007
 30
0.0
 10
0.4827400000000001
 20
6.2833900000000007
 30
0.0
 10
0.4395600000000001
 20
6.4688100000000004
 30
0.0
 10
0.6859400000000001
 20
6.2529100000000009
 30
0.0
 10
0.74182
 20
6.1970300000000007
 30
0.0
 10
0.74182
 20
6.1970300000000007
 30
0.0
 10
0.7697600000000001
 20
6.3265700000000002
 30
0.0
 10
0.59704
 20
6.4967500000000005
 30
0.0
 10
0.47004
 20
6.4967500000000005
 30
0.0
 10
0.47004
 20
6.4967500000000005
 30
0.0
 10
-0.10145
 20
6.4688100000000004
 30
0.0
 10
-0.11669
 20
5.6966500000000009
 30
0.0
 10
-0.12939
 20
5.2496100000000006
 30
0.0
 10
-0.12939
 20
5.2496100000000006
 30
0.0
 10
-0.18781
 20
5.2369100000000008
 30
0.0
 10
-0.24369
 20
5.2064300000000001
 30
0.0
 10
-0.31735
 20
5.2064300000000001
 30
0.0
 10
-0.31735
 20
5.2064300000000001
 30
0.0
 10
-0.5180100000000001
 20
5.7525300000000001
 30
0.0
 10
-0.43165
 20
6.6847100000000008
 30
0.0
 10
0.2389
 20
6.8853700000000009
 30
0.0
  0
SPLINE
  5
2B
100
AcDbEntity
  8
Ebene 1
 62
     7
100
AcDbSpline
210
0.0
220
0.0
230
1.0
 70
     1
 71
     3
 72
    20
 73
    16
 74
     0
 42
0.0000000001
 43
0.0000000001
 40
0.0
 40
0.0
 40
0.0
 40
0.0
 40
0.25
 40
0.25
 40
0.25
 40
0.25
 40
0.5
 40
0.5
 40
0.5
 40
0.5
 40
0.75
 40
0.75
 40
0.75
 40
0.75
 40
1.0
 40
1.0
 40
1.0
 40
1.0
 10
-1.6076700000000002
 20
5.3664500000000004
 30
0.0
 10
-1.5644900000000002
 20
5.3664500000000004
 30
0.0
 10
-1.5213100000000002
 20
5.35121
 30
0.0
 10
-1.4933700000000001
 20
5.3207300000000002
 30
0.0
 10
-1.4933700000000001
 20
5.3207300000000002
 30
0.0
 10
-1.54925
 20
5.2927900000000001
 30
0.0
 10
-1.6076700000000002
 20
5.2496100000000006
 30
0.0
 10
-1.6229100000000001
 20
5.17849
 30
0.0
 10
-1.6229100000000001
 20
5.17849
 30
0.0
 10
-1.6864100000000002
 20
5.1353100000000005
 30
0.0
 10
-1.7448300000000001
 20
5.17849
 30
0.0
 10
-1.7067300000000001
 20
5.2496100000000006
 30
0.0
 10
-1.7067300000000001
 20
5.2496100000000006
 30
0.0
 10
-1.6889500000000002
 20
5.3080300000000005
 30
0.0
 10
-1.6508500000000002
 20
5.35121
 30
0.0
 10
-1.6076700000000002
 20
5.3664500000000004
 30
0.0
  0
SPLINE
  5
2C
100
AcDbEntity
  8
Ebene 1
 62
     7
100
AcDbSpline
210
0.0
220
0.0
230
1.0
 70
     1
 71
     3
 72
    12
 73
     8
 74
     0
 42
0.0000000001
 43
0.0000000001
 40
0.0
 40
0.0
 40
0.0
 40
0.0
 40
0.5
 40
0.5
 40
0.5
 40
0.5
 40
1.0
 40
1.0
 40
1.0
 40
1.0
 10
-1.7778500000000002
 20
5.2496100000000006
 30
0.0
 10
-1.7499100000000001
 20
5.1937300000000004
 30
0.0
 10
-1.75499
 20
5.0641900000000009
 30
0.0
 10
-1.8210300000000001
 20
5.0210100000000004
 30
0.0
 10
-1.8210300000000001
 20
5.0210100000000004
 30
0.0
 10
-1.8946900000000002
 20
5.09213
 30
0.0
 10
-1.8108700000000002
 20
5.17849
 30
0.0
 10
-1.7778500000000002
 20
5.2496100000000006
 30
0.0
  0
SPLINE
  5
2D
100
AcDbEntity
  8
Ebene 1
 62
     7
100
AcDbSpline
210
0.0
220
0.0
230
1.0
 70
     1
 71
     3
 72
    24
 73
    20
 74
     0
 42
0.0000000001
 43
0.0000000001
 40
0.0
 40
0.0
 40
0.0
 40
0.0
 40
0.2
 40
0.2
 40
0.2
 40
0.2
 40
0.4
 40
0.4
 40
0.4
 40
0.4
 40
0.6000000000000001
 40
0.6000000000000001
 40
0.6000000000000001
 40
0.6000000000000001
 40
0.8
 40
0.8
 40
0.8
 40
0.8
 40
1.0
 40
1.0
 40
1.0
 40
1.0
 10
-1.5213100000000002
 20
5.2496100000000006
 30
0.0
 10
-1.37653
 20
5.2800900000000004
 30
0.0
 10
-1.3206500000000001
 20
5.1226100000000008
 30
0.0
 10
-1.2622300000000002
 20
5.0210100000000004
 30
0.0
 10
-1.2622300000000002
 20
5.0210100000000004
 30
0.0
 10
-1.3206500000000001
 20
4.9625900000000005
 30
0.0
 10
-1.5340100000000001
 20
4.9346500000000004
 30
0.0
 10
-1.41971
 20
5.0514900000000003
 30
0.0
 10
-1.41971
 20
5.0514900000000003
 30
0.0
 10
-1.3917700000000002
 20
5.0794300000000003
 30
0.0
 10
-1.29271
 20
5.09213
 30
0.0
 10
-1.3638300000000001
 20
5.1353100000000005
 30
0.0
 10
-1.3638300000000001
 20
5.1353100000000005
 30
0.0
 10
-1.3638300000000001
 20
5.1353100000000005
 30
0.0
 10
-1.4349500000000002
 20
5.1226100000000008
 30
0.0
 10
-1.4349500000000002
 20
5.1226100000000008
 30
0.0
 10
-1.4349500000000002
 20
5.1226100000000008
 30
0.0
 10
-1.5213100000000002
 20
4.97783
 30
0.0
 10
-1.6229100000000001
 20
5.17849
 30
0.0
 10
-1.5213100000000002
 20
5.2496100000000006
 30
0.0
  0
SPLINE
  5
2E
100
AcDbEntity
  8
Ebene 1
 62
     7
100
AcDbSpline
210
0.0
220
0.0
230
1.0
 70
     1
 71
     3
 72
    12
 73
     8
 74
     0
 42
0.0000000001
 43
0.0000000001
 40
0.0
 40
0.0
 40
0.0
 40
0.0
 40
0.5
 40
0.5
 40
0.5
 40
0.5
 40
1.0
 40
1.0
 40
1.0
 40
1.0
 10
-0.04557
 20
5.1353100000000005
 30
0.0
 10
0.0103
 20
5.1353100000000005
 30
0.0
 10
0.04078
 20
5.0210100000000004
 30
0.0
 10
0.04078
 20
4.9625900000000005
 30
0.0
 10
0.04078
 20
4.9625900000000005
 30
0.0
 10
-0.05827
 20
4.9067100000000003
 30
0.0
 10
-0.07351
 20
5.0794300000000003
 30
0.0
 10
-0.04557
 20
5.1353100000000005
 30
0.0
  0
SPLINE
  5
2F
100
AcDbEntity
  8
Ebene 1
 62
     7
100
AcDbSpline
210
0.0
220
0.0
230
1.0
 70
     1
 71
     3
 72
    16
 73
    12
 74
     0
 42
0.0000000001
 43
0.0000000001
 40
0.0
 40
0.0
 40
0.0
 40
0.0
 40
0.3333333333333333
 40
0.3333333333333333
 40
0.3333333333333333
 40
0.3333333333333333
 40
0.6666666666666666
 40
0.6666666666666666
 40
0.6666666666666666
 40
0.6666666666666666
 40
1.0
 40
1.0
 40
1.0
 40
1.0
 10
-0.36053
 20
5.09213
 30
0.0
 10
-0.25893
 20
5.1226100000000008
 30
0.0
 10
-0.10145
 20
5.0641900000000009
 30
0.0
 10
-0.20305
 20
4.9498900000000008
 30
0.0
 10
-0.20305
 20
4.9498900000000008
 30
0.0
 10
-0.20305
 20
4.9498900000000008
 30
0.0
 10
-0.36053
 20
4.9346500000000004
 30
0.0
 10
-0.36053
 20
4.9346500000000004
 30
0.0
 10
-0.36053
 20
4.9346500000000004
 30
0.0
 10
-0.40371
 20
4.97783
 30
0.0
 10
-0.40371
 20
5.0641900000000009
 30
0.0
 10
-0.36053
 20
5.09213
 30
0.0
  0
SPLINE
  5
30
100
AcDbEntity
  8
Ebene 1
 62
     7
100
AcDbSpline
210
0.0
220
0.0
230
1.0
 70
     1
 71
     3
 72
    36
 73
    32
 74
     0
 42
0.0000000001
 43
0.0000000001
 40
0.0
 40
0.0
 40
0.0
 40
0.0
 40
0.125
 40
0.125
 40
0.125
 40
0.125
 40
0.25
 40
0.25
 40
0.25
 40
0.25
 40
0.375
 40
0.375
 40
0.375
 40
0.375
 40
0.5
 40
0.5
 40
0.5
 40
0.5
 40
0.625
 40
0.625
 40
0.625
 40
0.625
 40
0.75
 40
0.75
 40
0.75
 40
0.75
 40
0.875
 40
0.875
 40
0.875
 40
0.875
 40
1.0
 40
1.0
 40
1.0
 40
1.0
 10
0.13984
 20
5.0641900000000009
 30
0.0
 10
0.3252600000000001
 20
5.0641900000000009
 30
0.0
 10
0.5259200000000001
 20
5.0641900000000009
 30
0.0
 10
0.7138800000000001
 20
5.0362500000000008
 30
0.0
 10
0.7138800000000001
 20
5.0362500000000008
 30
0.0
 10
-0.08621
 20
4.5485700000000007
 30
0.0
 10
-0.4164100000000001
 20
3.5732100000000004
 30
0.0
 10
-0.4595900000000001
 20
2.6689700000000003
 30
0.0
 10
-0.4595900000000001
 20
2.6689700000000003
 30
0.0
 10
-1.03363
 20
2.5419700000000001
 30
0.0
 10
-1.6356100000000002
 20
2.4683100000000002
 30
0.0
 10
-2.2350500000000002
 20
2.5114900000000002
 30
0.0
 10
-2.2350500000000002
 20
2.5114900000000002
 30
0.0
 10
-2.30871
 20
3.1718900000000003
 30
0.0
 10
-2.1309100000000001
 20
3.8602300000000005
 30
0.0
 10
-1.8743700000000001
 20
4.4622100000000007
 30
0.0
 10
-1.8743700000000001
 20
4.4622100000000007
 30
0.0
 10
-1.4781300000000002
 20
4.7771700000000008
 30
0.0
 10
-0.9904500000000001
 20
4.9625900000000005
 30
0.0
 10
-0.48753
 20
5.0362500000000008
 30
0.0
 10
-0.48753
 20
5.0362500000000008
 30
0.0
 10
-0.43165
 20
4.97783
 30
0.0
 10
-0.48753
 20
4.8787700000000003
 30
0.0
 10
-0.43165
 20
4.80511
 30
0.0
 10
-0.43165
 20
4.80511
 30
0.0
 10
-0.43165
 20
4.80511
 30
0.0
 10
-0.11669
 20
4.7924100000000003
 30
0.0
 10
-0.11669
 20
4.7924100000000003
 30
0.0
 10
-0.11669
 20
4.7924100000000003
 30
0.0
 10
0.05348
 20
4.80511
 30
0.0
 10
0.15508
 20
4.9346500000000004
 30
0.0
 10
0.13984
 20
5.0641900000000009
 30
0.0
  0
SPLINE
  5
31
100
AcDbEntity
  8
Ebene 1
 62
     7
100
AcDbSpline
210
0.0
220
0.0
230
1.0
 70
     1
 71
     3
 72
    24
 73
    20
 74
     0
 42
0.0000000001
 43
0.0000000001
 40
0.0
 40
0.0
 40
0.0
 40
0.0
 40
0.2
 40
0.2
 40
0.2
 40
0.2
 40
0.4
 40
0.4
 40
0.4
 40
0.4
 40
0.6000000000000001
 40
0.6000000000000001
 40
0.6000000000000001
 40
0.6000000000000001
 40
0.8
 40
0.8
 40
0.8
 40
0.8
 40
1.0
 40
1.0
 40
1.0
 40
1.0
 10
2.1312000000000002
 20
5.0514900000000003
 30
0.0
 10
2.2455000000000003
 20
5.0362500000000008
 30
0.0
 10
2.3750400000000003
 20
5.0057700000000001
 30
0.0
 10
2.4487000000000001
 20
4.89147
 30
0.0
 10
2.4487000000000001
 20
4.89147
 30
0.0
 10
2.5325200000000003
 20
4.8203500000000004
 30
0.0
 10
2.6214200000000001
 20
4.6755700000000004
 30
0.0
 10
2.5198200000000002
 20
4.5917500000000002
 30
0.0
 10
2.5198200000000002
 20
4.5917500000000002
 30
0.0
 10
2.4334600000000002
 20
4.7924100000000003
 30
0.0
 10
2.1743800000000002
 20
4.8203500000000004
 30
0.0
 10
1.9889600000000001
 20
4.7339900000000004
 30
0.0
 10
1.9889600000000001
 20
4.7339900000000004
 30
0.0
 10
1.9178400000000002
 20
4.8203500000000004
 30
0.0
 10
1.7883000000000002
 20
4.7924100000000003
 30
0.0
 10
1.7171800000000002
 20
4.8787700000000003
 30
0.0
 10
1.7171800000000002
 20
4.8787700000000003
 30
0.0
 10
1.8162400000000001
 20
5.0210100000000004
 30
0.0
 10
2.0042
 20
4.9930700000000003
 30
0.0
 10
2.1312000000000002
 20
5.0514900000000003
 30
0.0
  0
SPLINE
  5
32
100
AcDbEntity
  8
Ebene 1
 62
     7
100
AcDbSpline
210
0.0
220
0.0
230
1.0
 70
     1
 71
     3
 72
    24
 73
    20
 74
     0
 42
0.0000000001
 43
0.0000000001
 40
0.0
 40
0.0
 40
0.0
 40
0.0
 40
0.2
 40
0.2
 40
0.2
 40
0.2
 40
0.4
 40
0.4
 40
0.4
 40
0.4
 40
0.6000000000000001
 40
0.6000000000000001
 40
0.6000000000000001
 40
0.6000000000000001
 40
0.8
 40
0.8
 40
0.8
 40
0.8
 40
1.0
 40
1.0
 40
1.0
 40
1.0
 10
0.8561200000000001
 20
5.0210100000000004
 30
0.0
 10
1.2574400000000001
 20
5.0057700000000001
 30
0.0
 10
1.6003400000000001
 20
4.8635300000000008
 30
0.0
 10
1.9457800000000001
 20
4.6628700000000007
 30
0.0
 10
1.9457800000000001
 20
4.6628700000000007
 30
0.0
 10
2.1312000000000002
 20
4.5485700000000007
 30
0.0
 10
2.3191600000000001
 20
4.3758500000000007
 30
0.0
 10
2.4614000000000003
 20
4.1904300000000001
 30
0.0
 10
2.4614000000000003
 20
4.1904300000000001
 30
0.0
 10
2.4614000000000003
 20
4.1904300000000001
 30
0.0
 10
1.2879200000000002
 20
3.8449900000000001
 30
0.0
 10
1.2879200000000002
 20
3.8449900000000001
 30
0.0
 10
1.2879200000000002
 20
3.8449900000000001
 30
0.0
 10
0.95518
 20
4.1193100000000005
 30
0.0
 10
0.5691000000000001
 20
4.3326700000000002
 30
0.0
 10
0.16778
 20
4.3910900000000002
 30
0.0
 10
0.16778
 20
4.3910900000000002
 30
0.0
 10
0.3557400000000001
 20
4.6349300000000007
 30
0.0
 10
0.5843400000000001
 20
4.89147
 30
0.0
 10
0.8561200000000001
 20
5.0210100000000004
 30
0.0
  0
SPLINE
  5
33
100
AcDbEntity
  8
Ebene 1
 62
     7
100
AcDbSpline
210
0.0
220
0.0
230
1.0
 70
     1
 71
     3
 72
    16
 73
    12
 74
     0
 42
0.0000000001
 43
0.0000000001
 40
0.0
 40
0.0
 40
0.0
 40
0.0
 40
0.3333333333333333
 40
0.3333333333333333
 40
0.3333333333333333
 40
0.3333333333333333
 40
0.6666666666666666
 40
0.6666666666666666
 40
0.6666666666666666
 40
0.6666666666666666
 40
1.0
 40
1.0
 40
1.0
 40
1.0
 10
-1.8794500000000001
 20
4.97783
 30
0.0
 10
-1.8210300000000001
 20
4.9930700000000003
 30
0.0
 10
-1.8210300000000001
 20
4.8482900000000004
 30
0.0
 10
-1.7753100000000002
 20
4.9219500000000007
 30
0.0
 10
-1.7753100000000002
 20
4.9219500000000007
 30
0.0
 10
-1.7753100000000002
 20
4.9219500000000007
 30
0.0
 10
-1.7651500000000002
 20
4.9067100000000003
 30
0.0
 10
-1.7651500000000002
 20
4.9067100000000003
 30
0.0
 10
-1.7651500000000002
 20
4.9067100000000003
 30
0.0
 10
-1.7727700000000002
 20
4.8203500000000004
 30
0.0
 10
-1.9048500000000002
 20
4.9219500000000007
 30
0.0
 10
-1.8794500000000001
 20
4.97783
 30
0.0
  0
SPLINE
  5
34
100
AcDbEntity
  8
Ebene 1
 62
     7
100
AcDbSpline
210
0.0
220
0.0
230
1.0
 70
     1
 71
     3
 72
    12
 73
     8
 74
     0
 42
0.0000000001
 43
0.0000000001
 40
0.0
 40
0.0
 40
0.0
 40
0.0
 40
0.5
 40
0.5
 40
0.5
 40
0.5
 40
1.0
 40
1.0
 40
1.0
 40
1.0
 10
-1.29271
 20
4.9625900000000005
 30
0.0
 10
-1.11999
 20
4.9498900000000008
 30
0.0
 10
-1.4781300000000002
 20
4.7924100000000003
 30
0.0
 10
-1.37653
 20
4.9219500000000007
 30
0.0
 10
-1.37653
 20
4.9219500000000007
 30
0.0
 10
-1.37653
 20
4.9219500000000007
 30
0.0
 10
-1.29271
 20
4.9625900000000005
 30
0.0
 10
-1.29271
 20
4.9625900000000005
 30
0.0
  0
SPLINE
  5
35
100
AcDbEntity
  8
Ebene 1
 62
     7
100
AcDbSpline
210
0.0
220
0.0
230
1.0
 70
     1
 71
     3
 72
    20
 73
    16
 74
     0
 42
0.0000000001
 43
0.0000000001
 40
0.0
 40
0.0
 40
0.0
 40
0.0
 40
0.25
 40
0.25
 40
0.25
 40
0.25
 40
0.5
 40
0.5
 40
0.5
 40
0.5
 40
0.75
 40
0.75
 40
0.75
 40
0.75
 40
1.0
 40
1.0
 40
1.0
 40
1.0
 10
-0.08621
 20
4.89147
 30
0.0
 10
-0.08621
 20
4.89147
 30
0.0
 10
-0.01509
 20
4.89147
 30
0.0
 10
-0.01509
 20
4.89147
 30
0.0
 10
-0.01509
 20
4.89147
 30
0.0
 10
-0.07351
 20
4.8355900000000007
 30
0.0
 10
-0.21575
 20
4.80511
 30
0.0
 10
-0.27417
 20
4.8635300000000008
 30
0.0
 10
-0.27417
 20
4.8635300000000008
 30
0.0
 10
-0.27417
 20
4.8635300000000008
 30
0.0
 10
-0.18781
 20
4.8787700000000003
 30
0.0
 10
-0.18781
 20
4.8787700000000003
 30
0.0
 10
-0.18781
 20
4.8787700000000003
 30
0.0
 10
-0.18781
 20
4.8787700000000003
 30
0.0
 10
-0.08621
 20
4.89147
 30
0.0
 10
-0.08621
 20
4.89147
 30
0.0
  0
SPLINE
  5
36
100
AcDbEntity
  8
Ebene 1
100
AcDbSpline
210
0.0
220
0.0
230
1.0
 70
     1
 71
     3
 72
    20
 73
    16
 74
     0
 42
0.0000000001
 43
0.0000000001
 40
0.0
 40
0.0
 40
0.0
 40
0.0
 40
0.25
 40
0.25
 40
0.25
 40
0.25
 40
0.5
 40
0.5
 40
0.5
 40
0.5
 40
0.75
 40
0.75
 40
0.75
 40
0.75
 40
1.0
 40
1.0
 40
1.0
 40
1.0
 10
-1.2774700000000001
 20
4.4622100000000007
 30
0.0
 10
-1.2774700000000001
 20
4.4622100000000007
 30
0.0
 10
-1.2342900000000001
 20
4.4622100000000007
 30
0.0
 10
-1.2342900000000001
 20
4.4622100000000007
 30
0.0
 10
-1.2342900000000001
 20
4.4622100000000007
 30
0.0
 10
-1.2342900000000001
 20
4.4622100000000007
 30
0.0
 10
-1.1758700000000002
 20
4.1904300000000001
 30
0.0
 10
-1.1758700000000002
 20
4.1904300000000001
 30
0.0
 10
-1.1758700000000002
 20
4.1904300000000001
 30
0.0
 10
-1.3206500000000001
 20
4.2031300000000007
 30
0.0
 10
-1.37653
 20
4.0177100000000001
 30
0.0
 10
-1.50607
 20
3.9897700000000005
 30
0.0
 10
-1.50607
 20
3.9897700000000005
 30
0.0
 10
-1.6356100000000002
 20
4.1904300000000001
 30
0.0
 10
-1.4070100000000001
 20
4.3479100000000006
 30
0.0
 10
-1.2774700000000001
 20
4.4622100000000007
 30
0.0
  0
SPLINE
  5
37
100
AcDbEntity
  8
Ebene 1
 62
     7
100
AcDbSpline
210
0.0
220
0.0
230
1.0
 70
     1
 71
     3
 72
    20
 73
    16
 74
     0
 42
0.0000000001
 43
0.0000000001
 40
0.0
 40
0.0
 40
0.0
 40
0.0
 40
0.25
 40
0.25
 40
0.25
 40
0.25
 40
0.5
 40
0.5
 40
0.5
 40
0.5
 40
0.75
 40
0.75
 40
0.75
 40
0.75
 40
1.0
 40
1.0
 40
1.0
 40
1.0
 10
-2.8548100000000001
 20
2.5419700000000001
 30
0.0
 10
-2.90307
 20
2.9128100000000003
 30
0.0
 10
-2.8624300000000003
 20
3.3446100000000003
 30
0.0
 10
-2.69225
 20
3.7027500000000004
 30
0.0
 10
-2.69225
 20
3.7027500000000004
 30
0.0
 10
-2.2960100000000003
 20
3.6443300000000005
 30
0.0
 10
-2.3493500000000003
 20
4.2615500000000006
 30
0.0
 10
-1.9962900000000001
 20
4.4063300000000005
 30
0.0
 10
-1.9962900000000001
 20
4.4063300000000005
 30
0.0
 10
-2.2833100000000002
 20
3.8170500000000005
 30
0.0
 10
-2.40523
 20
3.1566500000000004
 30
0.0
 10
-2.4560300000000002
 20
2.4962500000000003
 30
0.0
 10
-2.4560300000000002
 20
2.4962500000000003
 30
0.0
 10
-2.5982700000000003
 20
2.4556100000000001
 30
0.0
 10
-2.7455900000000004
 20
2.6562700000000001
 30
0.0
 10
-2.8548100000000001
 20
2.5419700000000001
 30
0.0
  0
SPLINE
  5
38
100
AcDbEntity
  8
Ebene 1
 62
     7
100
AcDbSpline
210
0.0
220
0.0
230
1.0
 70
     1
 71
     3
 72
    16
 73
    12
 74
     0
 42
0.0000000001
 43
0.0000000001
 40
0.0
 40
0.0
 40
0.0
 40
0.0
 40
0.3333333333333333
 40
0.3333333333333333
 40
0.3333333333333333
 40
0.3333333333333333
 40
0.6666666666666666
 40
0.6666666666666666
 40
0.6666666666666666
 40
0.6666666666666666
 40
1.0
 40
1.0
 40
1.0
 40
1.0
 10
0.05348
 20
4.2767900000000001
 30
0.0
 10
0.16778
 20
4.2767900000000001
 30
0.0
 10
0.31002
 20
4.2767900000000001
 30
0.0
 10
0.38368
 20
4.2031300000000007
 30
0.0
 10
0.38368
 20
4.2031300000000007
 30
0.0
 10
0.25414
 20
4.1040700000000001
 30
0.0
 10
0.1246
 20
3.9592900000000002
 30
0.0
 10
-0.05827
 20
4.0456500000000002
 30
0.0
 10
-0.05827
 20
4.0456500000000002
 30
0.0
 10
-0.05827
 20
4.0456500000000002
 30
0.0
 10
0.05348
 20
4.2767900000000001
 30
0.0
 10
0.05348
 20
4.2767900000000001
 30
0.0
  0
SPLINE
  5
39
100
AcDbEntity
  8
Ebene 1
100
AcDbSpline
210
0.0
220
0.0
230
1.0
 70
     1
 71
     3
 72
    32
 73
    28
 74
     0
 42
0.0000000001
 43
0.0000000001
 40
0.0
 40
0.0
 40
0.0
 40
0.0
 40
0.1428571428571429
 40
0.1428571428571429
 40
0.1428571428571429
 40
0.1428571428571429
 40
0.2857142857142857
 40
0.2857142857142857
 40
0.2857142857142857
 40
0.2857142857142857
 40
0.4285714285714286
 40
0.4285714285714286
 40
0.4285714285714286
 40
0.4285714285714286
 40
0.5714285714285714
 40
0.5714285714285714
 40
0.5714285714285714
 40
0.5714285714285714
 40
0.7142857142857142
 40
0.7142857142857142
 40
0.7142857142857142
 40
0.7142857142857142
 40
0.857142857142857
 40
0.857142857142857
 40
0.857142857142857
 40
0.857142857142857
 40
1.0
 40
1.0
 40
1.0
 40
1.0
 10
-1.1479300000000001
 20
4.1599500000000003
 30
0.0
 10
-0.9472700000000001
 20
4.1599500000000003
 30
0.0
 10
-1.00569
 20
3.8754700000000004
 30
0.0
 10
-0.9193300000000001
 20
3.7611700000000003
 30
0.0
 10
-0.9193300000000001
 20
3.7611700000000003
 30
0.0
 10
-1.1326900000000002
 20
3.5020900000000004
 30
0.0
 10
-1.3917700000000002
 20
3.1998300000000004
 30
0.0
 10
-1.5797300000000001
 20
2.9128100000000003
 30
0.0
 10
-1.5797300000000001
 20
2.9128100000000003
 30
0.0
 10
-1.5797300000000001
 20
2.9128100000000003
 30
0.0
 10
-1.6508500000000002
 20
2.9712300000000003
 30
0.0
 10
-1.6508500000000002
 20
2.9712300000000003
 30
0.0
 10
-1.6508500000000002
 20
2.9712300000000003
 30
0.0
 10
-1.6508500000000002
 20
2.9712300000000003
 30
0.0
 10
-1.8921500000000002
 20
3.8322900000000004
 30
0.0
 10
-1.8921500000000002
 20
3.8322900000000004
 30
0.0
 10
-1.8921500000000002
 20
3.8322900000000004
 30
0.0
 10
-1.8108700000000002
 20
3.9313500000000001
 30
0.0
 10
-1.7448300000000001
 20
4.1040700000000001
 30
0.0
 10
-1.6076700000000002
 20
4.1320100000000002
 30
0.0
 10
-1.6076700000000002
 20
4.1320100000000002
 30
0.0
 10
-1.6076700000000002
 20
4.1320100000000002
 30
0.0
 10
-1.4933700000000001
 20
3.8602300000000005
 30
0.0
 10
-1.4933700000000001
 20
3.8602300000000005
 30
0.0
 10
-1.4933700000000001
 20
3.8602300000000005
 30
0.0
 10
-1.4933700000000001
 20
3.8602300000000005
 30
0.0
 10
-1.1479300000000001
 20
4.1599500000000003
 30
0.0
 10
-1.1479300000000001
 20
4.1599500000000003
 30
0.0
  0
SPLINE
  5
3A
100
AcDbEntity
  8
Ebene 1
 62
     7
100
AcDbSpline
210
0.0
220
0.0
230
1.0
 70
     1
 71
     3
 72
    44
 73
    40
 74
     0
 42
0.0000000001
 43
0.0000000001
 40
0.0
 40
0.0
 40
0.0
 40
0.0
 40
0.1
 40
0.1
 40
0.1
 40
0.1
 40
0.2
 40
0.2
 40
0.2
 40
0.2
 40
0.3
 40
0.3
 40
0.3
 40
0.3
 40
0.4
 40
0.4
 40
0.4
 40
0.4
 40
0.5
 40
0.5
 40
0.5
 40
0.5
 40
0.6
 40
0.6
 40
0.6
 40
0.6
 40
0.7
 40
0.7
 40
0.7
 40
0.7
 40
0.7999999999999999
 40
0.7999999999999999
 40
0.7999999999999999
 40
0.7999999999999999
 40
0.8999999999999999
 40
0.8999999999999999
 40
0.8999999999999999
 40
0.8999999999999999
 40
1.0
 40
1.0
 40
1.0
 40
1.0
 10
0.5259200000000001
 20
4.1599500000000003
 30
0.0
 10
0.785
 20
4.0735900000000003
 30
0.0
 10
0.9424800000000001
 20
3.8754700000000004
 30
0.0
 10
1.09996
 20
3.6722700000000001
 30
0.0
 10
1.09996
 20
3.6722700000000001
 30
0.0
 10
0.8408800000000001
 20
3.1007700000000002
 30
0.0
 10
1.18632
 20
2.5267300000000001
 30
0.0
 10
1.3717400000000002
 20
2.01111
 30
0.0
 10
1.3717400000000002
 20
2.01111
 30
0.0
 10
1.3717400000000002
 20
2.01111
 30
0.0
 10
0.8561200000000001
 20
1.8383900000000002
 30
0.0
 10
0.8561200000000001
 20
1.8383900000000002
 30
0.0
 10
0.8561200000000001
 20
1.8383900000000002
 30
0.0
 10
0.7265800000000001
 20
2.1101700000000001
 30
0.0
 10
0.59704
 20
2.3971900000000002
 30
0.0
 10
0.4827400000000001
 20
2.6689700000000003
 30
0.0
 10
0.4827400000000001
 20
2.6689700000000003
 30
0.0
 10
0.4827400000000001
 20
2.6689700000000003
 30
0.0
 10
0.87136
 20
2.8848700000000003
 30
0.0
 10
0.87136
 20
2.8848700000000003
 30
0.0
 10
0.87136
 20
2.8848700000000003
 30
0.0
 10
0.87136
 20
2.8848700000000003
 30
0.0
 10
0.785
 20
3.14141
 30
0.0
 10
0.785
 20
3.14141
 30
0.0
 10
0.785
 20
3.14141
 30
0.0
 10
0.41162
 20
3.0271100000000004
 30
0.0
 10
0.08142
 20
2.7705700000000002
 30
0.0
 10
-0.3021100000000001
 20
2.7273900000000002
 30
0.0
 10
-0.3021100000000001
 20
2.7273900000000002
 30
0.0
 10
-0.31735
 20
3.1566500000000004
 30
0.0
 10
-0.3021100000000001
 20
3.6163900000000004
 30
0.0
 10
-0.08621
 20
3.9897700000000005
 30
0.0
 10
-0.08621
 20
3.9897700000000005
 30
0.0
 10
0.04078
 20
4.0177100000000001
 30
0.0
 10
0.1246
 20
3.9313500000000001
 30
0.0
 10
0.2389
 20
3.9313500000000001
 30
0.0
 10
0.2389
 20
3.9313500000000001
 30
0.0
 10
0.3252600000000001
 20
4.0177100000000001
 30
0.0
 10
0.42686
 20
4.1040700000000001
 30
0.0
 10
0.5259200000000001
 20
4.1599500000000003
 30
0.0
  0
SPLINE
  5
3B
100
AcDbEntity
  8
Ebene 1
 62
     7
100
AcDbSpline
210
0.0
220
0.0
230
1.0
 70
     1
 71
     3
 72
    36
 73
    32
 74
     0
 42
0.0000000001
 43
0.0000000001
 40
0.0
 40
0.0
 40
0.0
 40
0.0
 40
0.125
 40
0.125
 40
0.125
 40
0.125
 40
0.25
 40
0.25
 40
0.25
 40
0.25
 40
0.375
 40
0.375
 40
0.375
 40
0.375
 40
0.5
 40
0.5
 40
0.5
 40
0.5
 40
0.625
 40
0.625
 40
0.625
 40
0.625
 40
0.75
 40
0.75
 40
0.75
 40
0.75
 40
0.875
 40
0.875
 40
0.875
 40
0.875
 40
1.0
 40
1.0
 40
1.0
 40
1.0
 10
2.4055200000000001
 20
4.0735900000000003
 30
0.0
 10
2.5477600000000002
 20
4.1193100000000005
 30
0.0
 10
2.6493600000000002
 20
3.9745300000000001
 30
0.0
 10
2.7052400000000003
 20
3.8602300000000005
 30
0.0
 10
2.7052400000000003
 20
3.8602300000000005
 30
0.0
 10
2.4614000000000003
 20
3.8449900000000001
 30
0.0
 10
2.2201
 20
3.8018100000000001
 30
0.0
 10
1.9762600000000001
 20
3.7306900000000005
 30
0.0
 10
1.9762600000000001
 20
3.7306900000000005
 30
0.0
 10
1.8467200000000001
 20
3.5884500000000004
 30
0.0
 10
1.9330800000000001
 20
3.3141300000000005
 30
0.0
 10
2.1032600000000001
 20
3.2582500000000003
 30
0.0
 10
2.1032600000000001
 20
3.2582500000000003
 30
0.0
 10
2.3039200000000002
 20
3.3014300000000003
 30
0.0
 10
2.5045800000000003
 20
3.4436700000000005
 30
0.0
 10
2.7204800000000002
 20
3.3573100000000005
 30
0.0
 10
2.7204800000000002
 20
3.3573100000000005
 30
0.0
 10
3.0938600000000003
 20
3.3293700000000004
 30
0.0
 10
3.2081600000000003
 20
2.9864700000000002
 30
0.0
 10
3.2792800000000004
 20
2.6689700000000003
 30
0.0
 10
3.2792800000000004
 20
2.6689700000000003
 30
0.0
 10
2.7052400000000003
 20
2.3260700000000001
 30
0.0
 10
2.0753200000000001
 20
2.1381100000000002
 30
0.0
 10
1.4301600000000001
 20
2.03905
 30
0.0
 10
1.4301600000000001
 20
2.03905
 30
0.0
 10
1.2422000000000002
 20
2.4835500000000001
 30
0.0
 10
1.0009000000000001
 20
2.9559900000000003
 30
0.0
 10
1.1279000000000001
 20
3.4284300000000001
 30
0.0
 10
1.1279000000000001
 20
3.4284300000000001
 30
0.0
 10
1.40222
 20
3.8449900000000001
 30
0.0
 10
1.9762600000000001
 20
3.9313500000000001
 30
0.0
 10
2.4055200000000001
 20
4.0735900000000003
 30
0.0
  0
SPLINE
  5
3C
100
AcDbEntity
  8
Ebene 1
 62
     7
100
AcDbSpline
210
0.0
220
0.0
230
1.0
 70
     1
 71
     3
 72
    28
 73
    24
 74
     0
 42
0.0000000001
 43
0.0000000001
 40
0.0
 40
0.0
 40
0.0
 40
0.0
 40
0.1666666666666667
 40
0.1666666666666667
 40
0.1666666666666667
 40
0.1666666666666667
 40
0.3333333333333333
 40
0.3333333333333333
 40
0.3333333333333333
 40
0.3333333333333333
 40
0.5
 40
0.5
 40
0.5
 40
0.5
 40
0.6666666666666666
 40
0.6666666666666666
 40
0.6666666666666666
 40
0.6666666666666666
 40
0.8333333333333333
 40
0.8333333333333333
 40
0.8333333333333333
 40
0.8333333333333333
 40
1.0
 40
1.0
 40
1.0
 40
1.0
 10
-2.8548100000000001
 20
4.0024700000000006
 30
0.0
 10
-2.8548100000000001
 20
4.0024700000000006
 30
0.0
 10
-2.6389100000000001
 20
3.9745300000000001
 30
0.0
 10
-2.6389100000000001
 20
3.9745300000000001
 30
0.0
 10
-2.6389100000000001
 20
3.9745300000000001
 30
0.0
 10
-2.6719300000000001
 20
3.9313500000000001
 30
0.0
 10
-2.7100300000000002
 20
3.8881700000000001
 30
0.0
 10
-2.7278100000000003
 20
3.8322900000000004
 30
0.0
 10
-2.7278100000000003
 20
3.8322900000000004
 30
0.0
 10
-2.9284700000000004
 20
3.8449900000000001
 30
0.0
 10
-3.1418300000000001
 20
3.7738700000000005
 30
0.0
 10
-3.2662900000000001
 20
3.6443300000000005
 30
0.0
 10
-3.2662900000000001
 20
3.6443300000000005
 30
0.0
 10
-3.3323300000000002
 20
3.4004900000000005
 30
0.0
 10
-3.2891500000000002
 20
3.14141
 30
0.0
 10
-3.2281900000000001
 20
2.9128100000000003
 30
0.0
 10
-3.2281900000000001
 20
2.9128100000000003
 30
0.0
 10
-3.2408900000000003
 20
2.8848700000000003
 30
0.0
 10
-3.2637500000000004
 20
2.8416900000000003
 30
0.0
 10
-3.2993100000000002
 20
2.8289900000000001
 30
0.0
 10
-3.2993100000000002
 20
2.8289900000000001
 30
0.0
 10
-3.6472900000000004
 20
3.2303100000000002
 30
0.0
 10
-3.4618700000000002
 20
4.0304100000000007
 30
0.0
 10
-2.8548100000000001
 20
4.0024700000000006
 30
0.0
  0
SPLINE
  5
3D
100
AcDbEntity
  8
Ebene 1
 62
     7
100
AcDbSpline
210
0.0
220
0.0
230
1.0
 70
     1
 71
     3
 72
    28
 73
    24
 74
     0
 42
0.0000000001
 43
0.0000000001
 40
0.0
 40
0.0
 40
0.0
 40
0.0
 40
0.1666666666666667
 40
0.1666666666666667
 40
0.1666666666666667
 40
0.1666666666666667
 40
0.3333333333333333
 40
0.3333333333333333
 40
0.3333333333333333
 40
0.3333333333333333
 40
0.5
 40
0.5
 40
0.5
 40
0.5
 40
0.6666666666666666
 40
0.6666666666666666
 40
0.6666666666666666
 40
0.6666666666666666
 40
0.8333333333333333
 40
0.8333333333333333
 40
0.8333333333333333
 40
0.8333333333333333
 40
1.0
 40
1.0
 40
1.0
 40
1.0
 10
2.5325200000000003
 20
3.8018100000000001
 30
0.0
 10
2.7763600000000004
 20
3.7891100000000004
 30
0.0
 10
3.0354400000000004
 20
3.7459300000000004
 30
0.0
 10
3.2361000000000004
 20
3.6011500000000001
 30
0.0
 10
3.2361000000000004
 20
3.6011500000000001
 30
0.0
 10
3.4088200000000004
 20
3.5300300000000004
 30
0.0
 10
3.5815400000000004
 20
3.2150700000000003
 30
0.0
 10
3.3935800000000005
 20
3.1007700000000002
 30
0.0
 10
3.3935800000000005
 20
3.1007700000000002
 30
0.0
 10
3.3504000000000005
 20
3.1160100000000002
 30
0.0
 10
3.3224600000000004
 20
3.1287100000000003
 30
0.0
 10
3.2945200000000003
 20
3.1566500000000004
 30
0.0
 10
3.2945200000000003
 20
3.1566500000000004
 30
0.0
 10
3.1497400000000004
 20
3.4868500000000004
 30
0.0
 10
2.7357200000000002
 20
3.4741500000000003
 30
0.0
 10
2.4182200000000003
 20
3.4741500000000003
 30
0.0
 10
2.4182200000000003
 20
3.4741500000000003
 30
0.0
 10
2.3344
 20
3.5300300000000004
 30
0.0
 10
2.3191600000000001
 20
3.6316300000000004
 30
0.0
 10
2.3039200000000002
 20
3.7306900000000005
 30
0.0
 10
2.3039200000000002
 20
3.7306900000000005
 30
0.0
 10
2.3039200000000002
 20
3.7306900000000005
 30
0.0
 10
2.5325200000000003
 20
3.8018100000000001
 30
0.0
 10
2.5325200000000003
 20
3.8018100000000001
 30
0.0
  0
SPLINE
  5
3E
100
AcDbEntity
  8
Ebene 1
 62
     7
100
AcDbSpline
210
0.0
220
0.0
230
1.0
 70
     1
 71
     3
 72
    28
 73
    24
 74
     0
 42
0.0000000001
 43
0.0000000001
 40
0.0
 40
0.0
 40
0.0
 40
0.0
 40
0.1666666666666667
 40
0.1666666666666667
 40
0.1666666666666667
 40
0.1666666666666667
 40
0.3333333333333333
 40
0.3333333333333333
 40
0.3333333333333333
 40
0.3333333333333333
 40
0.5
 40
0.5
 40
0.5
 40
0.5
 40
0.6666666666666666
 40
0.6666666666666666
 40
0.6666666666666666
 40
0.6666666666666666
 40
0.8333333333333333
 40
0.8333333333333333
 40
0.8333333333333333
 40
0.8333333333333333
 40
1.0
 40
1.0
 40
1.0
 40
1.0
 10
2.20486
 20
3.7459300000000004
 30
0.0
 10
2.20486
 20
3.7459300000000004
 30
0.0
 10
2.2328000000000001
 20
3.7459300000000004
 30
0.0
 10
2.2328000000000001
 20
3.7459300000000004
 30
0.0
 10
2.2328000000000001
 20
3.7459300000000004
 30
0.0
 10
2.20486
 20
3.6443300000000005
 30
0.0
 10
2.1743800000000002
 20
3.5300300000000004
 30
0.0
 10
2.2455000000000003
 20
3.4436700000000005
 30
0.0
 10
2.2455000000000003
 20
3.4436700000000005
 30
0.0
 10
2.2455000000000003
 20
3.4436700000000005
 30
0.0
 10
2.2201
 20
3.4004900000000005
 30
0.0
 10
2.2201
 20
3.4004900000000005
 30
0.0
 10
2.2201
 20
3.4004900000000005
 30
0.0
 10
2.1896200000000001
 20
3.4004900000000005
 30
0.0
 10
2.1312000000000002
 20
3.4004900000000005
 30
0.0
 10
2.1464400000000001
 20
3.4436700000000005
 30
0.0
 10
2.1464400000000001
 20
3.4436700000000005
 30
0.0
 10
1.9762600000000001
 20
3.3852500000000001
 30
0.0
 10
1.9762600000000001
 20
3.7027500000000004
 30
0.0
 10
2.1464400000000001
 20
3.7027500000000004
 30
0.0
 10
2.1464400000000001
 20
3.7027500000000004
 30
0.0
 10
2.1464400000000001
 20
3.7027500000000004
 30
0.0
 10
2.20486
 20
3.7459300000000004
 30
0.0
 10
2.20486
 20
3.7459300000000004
 30
0.0
  0
SPLINE
  5
3F
100
AcDbEntity
  8
Ebene 1
 62
     7
100
AcDbSpline
210
0.0
220
0.0
230
1.0
 70
     1
 71
     3
 72
    12
 73
     8
 74
     0
 42
0.0000000001
 43
0.0000000001
 40
0.0
 40
0.0
 40
0.0
 40
0.0
 40
0.5
 40
0.5
 40
0.5
 40
0.5
 40
1.0
 40
1.0
 40
1.0
 40
1.0
 10
0.4827400000000001
 20
2.9128100000000003
 30
0.0
 10
0.5843400000000001
 20
2.9432900000000002
 30
0.0
 10
0.5691000000000001
 20
2.7985100000000003
 30
0.0
 10
0.4827400000000001
 20
2.7985100000000003
 30
0.0
 10
0.4827400000000001
 20
2.7985100000000003
 30
0.0
 10
0.41162
 20
2.8137500000000002
 30
0.0
 10
0.4548
 20
2.8848700000000003
 30
0.0
 10
0.4827400000000001
 20
2.9128100000000003
 30
0.0
  0
SPLINE
  5
40
100
AcDbEntity
  8
Ebene 1
 62
     7
100
AcDbSpline
210
0.0
220
0.0
230
1.0
 70
     1
 71
     3
 72
   104
 73
   100
 74
     0
 42
0.0000000001
 43
0.0000000001
 40
0.0
 40
0.0
 40
0.0
 40
0.0
 40
0.04
 40
0.04
 40
0.04
 40
0.04
 40
0.08
 40
0.08
 40
0.08
 40
0.08
 40
0.12
 40
0.12
 40
0.12
 40
0.12
 40
0.16
 40
0.16
 40
0.16
 40
0.16
 40
0.2
 40
0.2
 40
0.2
 40
0.2
 40
0.24
 40
0.24
 40
0.24
 40
0.24
 40
0.28
 40
0.28
 40
0.28
 40
0.28
 40
0.32
 40
0.32
 40
0.32
 40
0.32
 40
0.36
 40
0.36
 40
0.36
 40
0.36
 40
0.4
 40
0.4
 40
0.4
 40
0.4
 40
0.44
 40
0.44
 40
0.44
 40
0.44
 40
0.4799999999999999
 40
0.4799999999999999
 40
0.4799999999999999
 40
0.4799999999999999
 40
0.5199999999999999
 40
0.5199999999999999
 40
0.5199999999999999
 40
0.5199999999999999
 40
0.5599999999999999
 40
0.5599999999999999
 40
0.5599999999999999
 40
0.5599999999999999
 40
0.6
 40
0.6
 40
0.6
 40
0.6
 40
0.64
 40
0.64
 40
0.64
 40
0.64
 40
0.6800000000000001
 40
0.6800000000000001
 40
0.6800000000000001
 40
0.6800000000000001
 40
0.7200000000000001
 40
0.7200000000000001
 40
0.7200000000000001
 40
0.7200000000000001
 40
0.7600000000000001
 40
0.7600000000000001
 40
0.7600000000000001
 40
0.7600000000000001
 40
0.8000000000000002
 40
0.8000000000000002
 40
0.8000000000000002
 40
0.8000000000000002
 40
0.8400000000000002
 40
0.8400000000000002
 40
0.8400000000000002
 40
0.8400000000000002
 40
0.8800000000000002
 40
0.8800000000000002
 40
0.8800000000000002
 40
0.8800000000000002
 40
0.9200000000000003
 40
0.9200000000000003
 40
0.9200000000000003
 40
0.9200000000000003
 40
0.9600000000000003
 40
0.9600000000000003
 40
0.9600000000000003
 40
0.9600000000000003
 40
1.0
 40
1.0
 40
1.0
 40
1.0
 10
0.16778
 20
2.7705700000000002
 30
0.0
 10
0.28208
 20
2.6994500000000001
 30
0.0
 10
0.4548
 20
2.4251300000000002
 30
0.0
 10
0.3252600000000001
 20
2.3692500000000001
 30
0.0
 10
0.3252600000000001
 20
2.3692500000000001
 30
0.0
 10
0.8002400000000001
 20
2.0238100000000001
 30
0.0
 10
0.8002400000000001
 20
1.3075300000000001
 30
0.0
 10
0.91454
 20
0.7766700000000001
 30
0.0
 10
0.91454
 20
0.7766700000000001
 30
0.0
 10
0.59704
 20
0.23311
 30
0.0
 10
-0.04557
 20
-0.16566
 30
0.0
 10
-0.63231
 20
0.20263
 30
0.0
 10
-0.63231
 20
0.20263
 30
0.0
 10
-0.76185
 20
0.08833
 30
0.0
 10
-0.34529
 20
0.03245
 30
0.0
 10
-0.3325900000000001
 20
-0.16566
 30
0.0
 10
-0.3325900000000001
 20
-0.16566
 30
0.0
 10
-0.9472700000000001
 20
-0.00818
 30
0.0
 10
-1.6508500000000002
 20
0.17469
 30
0.0
 10
-2.3061700000000003
 20
-0.02342
 30
0.0
 10
-2.3061700000000003
 20
-0.02342
 30
0.0
 10
-2.35189
 20
0.07563
 30
0.0
 10
-2.2502900000000001
 20
0.17469
 30
0.0
 10
-2.2680700000000003
 20
0.28899
 30
0.0
 10
-2.2680700000000003
 20
0.28899
 30
0.0
 10
-2.3417300000000001
 20
0.30423
 30
0.0
 10
-2.3112500000000002
 20
0.20263
 30
0.0
 10
-2.3671300000000004
 20
0.18993
 30
0.0
 10
-2.3671300000000004
 20
0.18993
 30
0.0
 10
-2.4534900000000004
 20
0.26105
 30
0.0
 10
-2.5550900000000003
 20
0.31947
 30
0.0
 10
-2.6211300000000004
 20
0.40583
 30
0.0
 10
-2.6211300000000004
 20
0.40583
 30
0.0
 10
-2.6312900000000004
 20
0.4617100000000001
 30
0.0
 10
-2.6592300000000004
 20
0.5201300000000001
 30
0.0
 10
-2.65415
 20
0.57601
 30
0.0
 10
-2.65415
 20
0.57601
 30
0.0
 10
-2.3442700000000003
 20
1.10687
 30
0.0
 10
-3.0249900000000003
 20
1.6656700000000002
 30
0.0
 10
-2.5271500000000002
 20
2.08223
 30
0.0
 10
-2.5271500000000002
 20
2.08223
 30
0.0
 10
-2.56271
 20
2.16859
 30
0.0
 10
-2.5881100000000004
 20
2.29813
 30
0.0
 10
-2.5500100000000003
 20
2.3819500000000002
 30
0.0
 10
-2.5500100000000003
 20
2.3819500000000002
 30
0.0
 10
-2.2426700000000004
 20
2.3540100000000002
 30
0.0
 10
-1.9099300000000001
 20
2.3540100000000002
 30
0.0
 10
-1.6076700000000002
 20
2.3971900000000002
 30
0.0
 10
-1.6076700000000002
 20
2.3971900000000002
 30
0.0
 10
-1.11999
 20
2.4251300000000002
 30
0.0
 10
-0.63231
 20
2.4962500000000003
 30
0.0
 10
-0.17257
 20
2.6257900000000003
 30
0.0
 10
-0.17257
 20
2.6257900000000003
 30
0.0
 10
-0.14463
 20
2.5851500000000001
 30
0.0
 10
-0.10145
 20
2.5267300000000001
 30
0.0
 10
-0.10145
 20
2.4683100000000002
 30
0.0
 10
-0.10145
 20
2.4683100000000002
 30
0.0
 10
-0.3021100000000001
 20
2.4835500000000001
 30
0.0
 10
-0.5180100000000001
 20
2.4124300000000001
 30
0.0
 10
-0.7034300000000001
 20
2.3540100000000002
 30
0.0
 10
-0.7034300000000001
 20
2.3540100000000002
 30
0.0
 10
-0.7034300000000001
 20
2.3540100000000002
 30
0.0
 10
-1.0488700000000002
 20
2.1101700000000001
 30
0.0
 10
-1.0488700000000002
 20
2.1101700000000001
 30
0.0
 10
-1.0488700000000002
 20
2.1101700000000001
 30
0.0
 10
-1.11999
 20
2.01111
 30
0.0
 10
-1.3485900000000002
 20
1.9679300000000002
 30
0.0
 10
-1.3206500000000001
 20
1.8383900000000002
 30
0.0
 10
-1.3206500000000001
 20
1.8383900000000002
 30
0.0
 10
-0.9472700000000001
 20
2.08223
 30
0.0
 10
-0.04557
 20
2.8416900000000003
 30
0.0
 10
0.04078
 20
2.0542899999999999
 30
0.0
 10
0.04078
 20
2.0542899999999999
 30
0.0
 10
0.04078
 20
2.0542899999999999
 30
0.0
 10
-0.21575
 20
1.9095100000000003
 30
0.0
 10
-0.21575
 20
1.9095100000000003
 30
0.0
 10
-0.21575
 20
1.9095100000000003
 30
0.0
 10
-0.61707
 20
1.7952100000000002
 30
0.0
 10
-1.00569
 20
1.4218300000000001
 30
0.0
 10
-1.3917700000000002
 20
1.4370700000000001
 30
0.0
 10
-1.3917700000000002
 20
1.4370700000000001
 30
0.0
 10
-0.9193300000000001
 20
1.4370700000000001
 30
0.0
 10
-0.7466100000000001
 20
0.57601
 30
0.0
 10
-0.44689
 20
0.6776100000000001
 30
0.0
 10
-0.44689
 20
0.6776100000000001
 30
0.0
 10
-0.10145
 20
0.5201300000000001
 30
0.0
 10
0.2262
 20
0.6776100000000001
 30
0.0
 10
0.5259200000000001
 20
0.84779
 30
0.0
 10
0.5259200000000001
 20
0.84779
 30
0.0
 10
0.3252600000000001
 20
0.9925700000000001
 30
0.0
 10
0.6122800000000001
 20
1.32277
 30
0.0
 10
0.6707000000000001
 20
1.5234300000000001
 30
0.0
 10
0.6707000000000001
 20
1.5234300000000001
 30
0.0
 10
0.6707000000000001
 20
1.5234300000000001
 30
0.0
 10
0.15508
 20
1.86633
 30
0.0
 10
0.15508
 20
1.86633
 30
0.0
 10
0.15508
 20
1.86633
 30
0.0
 10
0.25414
 20
2.16859
 30
0.0
 10
0.02554
 20
2.5267300000000001
 30
0.0
 10
0.16778
 20
2.7705700000000002
 30
0.0
  0
SPLINE
  5
41
100
AcDbEntity
  8
Ebene 1
 62
     7
100
AcDbSpline
210
0.0
220
0.0
230
1.0
 70
     1
 71
     3
 72
    20
 73
    16
 74
     0
 42
0.0000000001
 43
0.0000000001
 40
0.0
 40
0.0
 40
0.0
 40
0.0
 40
0.25
 40
0.25
 40
0.25
 40
0.25
 40
0.5
 40
0.5
 40
0.5
 40
0.5
 40
0.75
 40
0.75
 40
0.75
 40
0.75
 40
1.0
 40
1.0
 40
1.0
 40
1.0
 10
-0.01509
 20
2.6994500000000001
 30
0.0
 10
-0.01509
 20
2.6994500000000001
 30
0.0
 10
0.02554
 20
2.6994500000000001
 30
0.0
 10
0.02554
 20
2.6994500000000001
 30
0.0
 10
0.02554
 20
2.6994500000000001
 30
0.0
 10
0.06872
 20
2.5114900000000002
 30
0.0
 10
0.13984
 20
2.29813
 30
0.0
 10
0.1119
 20
2.1101700000000001
 30
0.0
 10
0.1119
 20
2.1101700000000001
 30
0.0
 10
0.04078
 20
2.2828900000000001
 30
0.0
 10
-0.04557
 20
2.4683100000000002
 30
0.0
 10
-0.08621
 20
2.6562700000000001
 30
0.0
 10
-0.08621
 20
2.6562700000000001
 30
0.0
 10
-0.08621
 20
2.6562700000000001
 30
0.0
 10
-0.01509
 20
2.6994500000000001
 30
0.0
 10
-0.01509
 20
2.6994500000000001
 30
0.0
  0
SPLINE
  5
42
100
AcDbEntity
  8
Ebene 1
 62
     7
100
AcDbSpline
210
0.0
220
0.0
230
1.0
 70
     1
 71
     3
 72
    16
 73
    12
 74
     0
 42
0.0000000001
 43
0.0000000001
 40
0.0
 40
0.0
 40
0.0
 40
0.0
 40
0.3333333333333333
 40
0.3333333333333333
 40
0.3333333333333333
 40
0.3333333333333333
 40
0.6666666666666666
 40
0.6666666666666666
 40
0.6666666666666666
 40
0.6666666666666666
 40
1.0
 40
1.0
 40
1.0
 40
1.0
 10
-2.8471900000000003
 20
2.3667100000000003
 30
0.0
 10
-2.8522700000000003
 20
2.0365100000000003
 30
0.0
 10
-2.8319500000000004
 20
1.82315
 30
0.0
 10
-2.9360900000000001
 20
1.5081900000000001
 30
0.0
 10
-2.9360900000000001
 20
1.5081900000000001
 30
0.0
 10
-2.9691100000000001
 20
1.6377300000000001
 30
0.0
 10
-2.94625
 20
1.8104500000000001
 30
0.0
 10
-2.9132300000000004
 20
1.9399900000000001
 30
0.0
 10
-2.9132300000000004
 20
1.9399900000000001
 30
0.0
 10
-2.9614900000000004
 20
2.1381100000000002
 30
0.0
 10
-2.9411700000000001
 20
2.3768700000000003
 30
0.0
 10
-2.8471900000000003
 20
2.3667100000000003
 30
0.0
  0
SPLINE
  5
43
100
AcDbEntity
  8
Ebene 1
 62
     7
100
AcDbSpline
210
0.0
220
0.0
230
1.0
 70
     1
 71
     3
 72
    36
 73
    32
 74
     0
 42
0.0000000001
 43
0.0000000001
 40
0.0
 40
0.0
 40
0.0
 40
0.0
 40
0.125
 40
0.125
 40
0.125
 40
0.125
 40
0.25
 40
0.25
 40
0.25
 40
0.25
 40
0.375
 40
0.375
 40
0.375
 40
0.375
 40
0.5
 40
0.5
 40
0.5
 40
0.5
 40
0.625
 40
0.625
 40
0.625
 40
0.625
 40
0.75
 40
0.75
 40
0.75
 40
0.75
 40
0.875
 40
0.875
 40
0.875
 40
0.875
 40
1.0
 40
1.0
 40
1.0
 40
1.0
 10
3.2665800000000003
 20
2.5114900000000002
 30
0.0
 10
3.3504000000000005
 20
2.4835500000000001
 30
0.0
 10
3.5510600000000001
 20
2.21177
 30
0.0
 10
3.4088200000000004
 20
2.1533500000000001
 30
0.0
 10
3.4088200000000004
 20
2.1533500000000001
 30
0.0
 10
3.1649800000000003
 20
1.9806300000000001
 30
0.0
 10
2.8347800000000003
 20
1.9679300000000002
 30
0.0
 10
2.6061800000000002
 20
1.8104500000000001
 30
0.0
 10
2.6061800000000002
 20
1.8104500000000001
 30
0.0
 10
2.6925400000000002
 20
0.9062100000000001
 30
0.0
 10
2.8500200000000002
 20
0.01721
 30
0.0
 10
3.2513400000000003
 20
-0.7676400000000001
 30
0.0
 10
3.2513400000000003
 20
-0.7676400000000001
 30
0.0
 10
3.0633800000000004
 20
-0.8819400000000001
 30
0.0
 10
2.9363800000000002
 20
-1.0978400000000001
 30
0.0
 10
2.7484200000000003
 20
-1.21214
 30
0.0
 10
2.7484200000000003
 20
-1.21214
 30
0.0
 10
2.5198200000000002
 20
-0.7270000000000001
 30
0.0
 10
2.20486
 20
-0.1809
 30
0.0
 10
2.1464400000000001
 20
0.3905900000000001
 30
0.0
 10
2.1464400000000001
 20
0.3905900000000001
 30
0.0
 10
2.1464400000000001
 20
0.3905900000000001
 30
0.0
 10
1.9457800000000001
 20
0.48965
 30
0.0
 10
1.9457800000000001
 20
0.48965
 30
0.0
 10
1.9457800000000001
 20
0.48965
 30
0.0
 10
1.9889600000000001
 20
1.02051
 30
0.0
 10
1.7019400000000002
 20
1.4802500000000001
 30
0.0
 10
1.5165200000000001
 20
1.9399900000000001
 30
0.0
 10
1.5165200000000001
 20
1.9399900000000001
 30
0.0
 10
2.1032600000000001
 20
2.1381100000000002
 30
0.0
 10
2.7204800000000002
 20
2.2397100000000001
 30
0.0
 10
3.2665800000000003
 20
2.5114900000000002
 30
0.0
  0
SPLINE
  5
44
100
AcDbEntity
  8
Ebene 1
100
AcDbSpline
210
0.0
220
0.0
230
1.0
 70
     1
 71
     3
 72
    20
 73
    16
 74
     0
 42
0.0000000001
 43
0.0000000001
 40
0.0
 40
0.0
 40
0.0
 40
0.0
 40
0.25
 40
0.25
 40
0.25
 40
0.25
 40
0.5
 40
0.5
 40
0.5
 40
0.5
 40
0.75
 40
0.75
 40
0.75
 40
0.75
 40
1.0
 40
1.0
 40
1.0
 40
1.0
 10
-2.4230100000000001
 20
2.1533500000000001
 30
0.0
 10
-2.1817100000000003
 20
2.1838300000000004
 30
0.0
 10
-2.0623300000000002
 20
1.8968100000000001
 30
0.0
 10
-1.8210300000000001
 20
1.9247500000000002
 30
0.0
 10
-1.8210300000000001
 20
1.9247500000000002
 30
0.0
 10
-1.8210300000000001
 20
1.9247500000000002
 30
0.0
 10
-1.7499100000000001
 20
1.8815700000000002
 30
0.0
 10
-1.7499100000000001
 20
1.8815700000000002
 30
0.0
 10
-1.7499100000000001
 20
1.8815700000000002
 30
0.0
 10
-2.0140700000000002
 20
1.7367900000000001
 30
0.0
 10
-2.23251
 20
1.9806300000000001
 30
0.0
 10
-2.4204700000000003
 20
2.1101700000000001
 30
0.0
 10
-2.4204700000000003
 20
2.1101700000000001
 30
0.0
 10
-2.4204700000000003
 20
2.1101700000000001
 30
0.0
 10
-2.4230100000000001
 20
2.1533500000000001
 30
0.0
 10
-2.4230100000000001
 20
2.1533500000000001
 30
0.0
  0
SPLINE
  5
45
100
AcDbEntity
  8
Ebene 1
 62
     7
100
AcDbSpline
210
0.0
220
0.0
230
1.0
 70
     1
 71
     3
 72
    16
 73
    12
 74
     0
 42
0.0000000001
 43
0.0000000001
 40
0.0
 40
0.0
 40
0.0
 40
0.0
 40
0.3333333333333333
 40
0.3333333333333333
 40
0.3333333333333333
 40
0.3333333333333333
 40
0.6666666666666666
 40
0.6666666666666666
 40
0.6666666666666666
 40
0.6666666666666666
 40
1.0
 40
1.0
 40
1.0
 40
1.0
 10
0.05348
 20
1.9958700000000003
 30
0.0
 10
0.09666
 20
1.9958700000000003
 30
0.0
 10
0.09666
 20
1.9247500000000002
 30
0.0
 10
0.09666
 20
1.8815700000000002
 30
0.0
 10
0.09666
 20
1.8815700000000002
 30
0.0
 10
0.05348
 20
1.8815700000000002
 30
0.0
 10
-0.00239
 20
1.9095100000000003
 30
0.0
 10
-0.03033
 20
1.9247500000000002
 30
0.0
 10
-0.03033
 20
1.9247500000000002
 30
0.0
 10
-0.03033
 20
1.9247500000000002
 30
0.0
 10
0.05348
 20
1.9958700000000003
 30
0.0
 10
0.05348
 20
1.9958700000000003
 30
0.0
  0
SPLINE
  5
46
100
AcDbEntity
  8
Ebene 1
 62
     7
100
AcDbSpline
210
0.0
220
0.0
230
1.0
 70
     1
 71
     3
 72
    64
 73
    60
 74
     0
 42
0.0000000001
 43
0.0000000001
 40
0.0
 40
0.0
 40
0.0
 40
0.0
 40
0.0666666666666667
 40
0.0666666666666667
 40
0.0666666666666667
 40
0.0666666666666667
 40
0.1333333333333333
 40
0.1333333333333333
 40
0.1333333333333333
 40
0.1333333333333333
 40
0.2
 40
0.2
 40
0.2
 40
0.2
 40
0.2666666666666667
 40
0.2666666666666667
 40
0.2666666666666667
 40
0.2666666666666667
 40
0.3333333333333333
 40
0.3333333333333333
 40
0.3333333333333333
 40
0.3333333333333333
 40
0.4
 40
0.4
 40
0.4
 40
0.4
 40
0.4666666666666666
 40
0.4666666666666666
 40
0.4666666666666666
 40
0.4666666666666666
 40
0.5333333333333333
 40
0.5333333333333333
 40
0.5333333333333333
 40
0.5333333333333333
 40
0.6
 40
0.6
 40
0.6
 40
0.6
 40
0.6666666666666666
 40
0.6666666666666666
 40
0.6666666666666666
 40
0.6666666666666666
 40
0.7333333333333333
 40
0.7333333333333333
 40
0.7333333333333333
 40
0.7333333333333333
 40
0.7999999999999999
 40
0.7999999999999999
 40
0.7999999999999999
 40
0.7999999999999999
 40
0.8666666666666666
 40
0.8666666666666666
 40
0.8666666666666666
 40
0.8666666666666666
 40
0.9333333333333332
 40
0.9333333333333332
 40
0.9333333333333332
 40
0.9333333333333332
 40
1.0
 40
1.0
 40
1.0
 40
1.0
 10
1.3438000000000001
 20
1.8968100000000001
 30
0.0
 10
1.3438000000000001
 20
1.8968100000000001
 30
0.0
 10
1.4581000000000002
 20
1.8968100000000001
 30
0.0
 10
1.4581000000000002
 20
1.8968100000000001
 30
0.0
 10
1.4581000000000002
 20
1.8968100000000001
 30
0.0
 10
1.7298800000000001
 20
1.3786500000000002
 30
0.0
 10
2.09056
 20
0.72079
 30
0.0
 10
1.6740000000000002
 20
0.20263
 30
0.0
 10
1.6740000000000002
 20
0.20263
 30
0.0
 10
1.6587600000000002
 20
-0.5238
 30
0.0
 10
2.0042
 20
-1.2705600000000001
 30
0.0
 10
1.8162400000000001
 20
-2.0173200000000002
 30
0.0
 10
1.8162400000000001
 20
-2.0173200000000002
 30
0.0
 10
1.8162400000000001
 20
-2.0173200000000002
 30
0.0
 10
-0.4595900000000001
 20
-2.9774400000000001
 30
0.0
 10
-0.4595900000000001
 20
-2.9774400000000001
 30
0.0
 10
-0.4595900000000001
 20
-2.9774400000000001
 30
0.0
 10
-1.00569
 20
-2.8174200000000003
 30
0.0
 10
-1.5644900000000002
 20
-2.9063200000000005
 30
0.0
 10
-2.1182100000000004
 20
-2.8758400000000002
 30
0.0
 10
-2.1182100000000004
 20
-2.8758400000000002
 30
0.0
 10
-2.2909300000000004
 20
-2.5481800000000003
 30
0.0
 10
-2.35697
 20
-2.1875
 30
0.0
 10
-2.61097
 20
-1.9030200000000002
 30
0.0
 10
-2.61097
 20
-1.9030200000000002
 30
0.0
 10
-2.5982700000000003
 20
-1.7861800000000001
 30
0.0
 10
-2.5093700000000001
 20
-1.9868400000000002
 30
0.0
 10
-2.4407900000000002
 20
-1.9436600000000002
 30
0.0
 10
-2.4407900000000002
 20
-1.9436600000000002
 30
0.0
 10
-2.4992100000000002
 20
-1.4432800000000001
 30
0.0
 10
-2.51953
 20
-0.9124200000000001
 30
0.0
 10
-2.64907
 20
-0.43998
 30
0.0
 10
-2.64907
 20
-0.43998
 30
0.0
 10
-2.9310100000000001
 20
-0.1809
 30
0.0
 10
-3.1951700000000001
 20
0.3905900000000001
 30
0.0
 10
-3.0148300000000003
 20
0.8046100000000001
 30
0.0
 10
-3.0148300000000003
 20
0.8046100000000001
 30
0.0
 10
-3.1164300000000003
 20
0.3905900000000001
 30
0.0
 10
-2.8725900000000002
 20
0.03245
 30
0.0
 10
-2.56779
 20
-0.23678
 30
0.0
 10
-2.56779
 20
-0.23678
 30
0.0
 10
-1.8489700000000002
 20
0.03245
 30
0.0
 10
-1.0920500000000002
 20
-0.12248
 30
0.0
 10
-0.37323
 20
-0.2952
 30
0.0
 10
-0.37323
 20
-0.2952
 30
0.0
 10
-0.37323
 20
-0.2952
 30
0.0
 10
0.06872
 20
-0.1809
 30
0.0
 10
0.06872
 20
-0.1809
 30
0.0
 10
0.06872
 20
-0.1809
 30
0.0
 10
0.42686
 20
0.07563
 30
0.0
 10
0.9424800000000001
 20
0.15945
 30
0.0
 10
1.2422000000000002
 20
0.44647
 30
0.0
 10
1.2422000000000002
 20
0.44647
 30
0.0
 10
1.31586
 20
0.84779
 30
0.0
 10
0.8002400000000001
 20
1.3354700000000002
 30
0.0
 10
1.1583800000000002
 20
1.6097900000000001
 30
0.0
 10
1.1583800000000002
 20
1.6097900000000001
 30
0.0
 10
1.02884
 20
1.7952100000000002
 30
0.0
 10
1.1710800000000001
 20
1.8510900000000001
 30
0.0
 10
1.3438000000000001
 20
1.8968100000000001
 30
0.0
  0
SPLINE
  5
47
100
AcDbEntity
  8
Ebene 1
 62
     7
100
AcDbSpline
210
0.0
220
0.0
230
1.0
 70
     1
 71
     3
 72
    12
 73
     8
 74
     0
 42
0.0000000001
 43
0.0000000001
 40
0.0
 40
0.0
 40
0.0
 40
0.0
 40
0.5
 40
0.5
 40
0.5
 40
0.5
 40
1.0
 40
1.0
 40
1.0
 40
1.0
 10
0.91454
 20
1.69615
 30
0.0
 10
1.0009000000000001
 20
1.7240900000000001
 30
0.0
 10
1.02884
 20
1.5945500000000001
 30
0.0
 10
0.9424800000000001
 20
1.5793100000000002
 30
0.0
 10
0.9424800000000001
 20
1.5793100000000002
 30
0.0
 10
0.91454
 20
1.6097900000000001
 30
0.0
 10
0.8840600000000001
 20
1.6656700000000002
 30
0.0
 10
0.91454
 20
1.69615
 30
0.0
  0
SPLINE
  5
48
100
AcDbEntity
  8
Ebene 1
100
AcDbSpline
210
0.0
220
0.0
230
1.0
 70
     1
 71
     3
 72
    60
 73
    56
 74
     0
 42
0.0000000001
 43
0.0000000001
 40
0.0
 40
0.0
 40
0.0
 40
0.0
 40
0.0714285714285714
 40
0.0714285714285714
 40
0.0714285714285714
 40
0.0714285714285714
 40
0.1428571428571429
 40
0.1428571428571429
 40
0.1428571428571429
 40
0.1428571428571429
 40
0.2142857142857143
 40
0.2142857142857143
 40
0.2142857142857143
 40
0.2142857142857143
 40
0.2857142857142857
 40
0.2857142857142857
 40
0.2857142857142857
 40
0.2857142857142857
 40
0.3571428571428571
 40
0.3571428571428571
 40
0.3571428571428571
 40
0.3571428571428571
 40
0.4285714285714285
 40
0.4285714285714285
 40
0.4285714285714285
 40
0.4285714285714285
 40
0.4999999999999999
 40
0.4999999999999999
 40
0.4999999999999999
 40
0.4999999999999999
 40
0.5714285714285713
 40
0.5714285714285713
 40
0.5714285714285713
 40
0.5714285714285713
 40
0.6428571428571427
 40
0.6428571428571427
 40
0.6428571428571427
 40
0.6428571428571427
 40
0.7142857142857141
 40
0.7142857142857141
 40
0.7142857142857141
 40
0.7142857142857141
 40
0.7857142857142855
 40
0.7857142857142855
 40
0.7857142857142855
 40
0.7857142857142855
 40
0.8571428571428569
 40
0.8571428571428569
 40
0.8571428571428569
 40
0.8571428571428569
 40
0.9285714285714283
 40
0.9285714285714283
 40
0.9285714285714283
 40
0.9285714285714283
 40
1.0
 40
1.0
 40
1.0
 40
1.0
 10
-2.3442700000000003
 20
1.5869300000000002
 30
0.0
 10
-2.18425
 20
1.4726300000000001
 30
0.0
 10
-2.02169
 20
1.27959
 30
0.0
 10
-1.8337300000000001
 20
1.4370700000000001
 30
0.0
 10
-1.8337300000000001
 20
1.4370700000000001
 30
0.0
 10
-1.8083300000000002
 20
1.4370700000000001
 30
0.0
 10
-1.7702300000000002
 20
1.4497700000000002
 30
0.0
 10
-1.7524500000000001
 20
1.4218300000000001
 30
0.0
 10
-1.7524500000000001
 20
1.4218300000000001
 30
0.0
 10
-1.8642100000000001
 20
1.3354700000000002
 30
0.0
 10
-1.9886700000000002
 20
1.19323
 30
0.0
 10
-2.0039100000000003
 20
1.0509900000000001
 30
0.0
 10
-2.0039100000000003
 20
1.0509900000000001
 30
0.0
 10
-1.5924300000000002
 20
1.19323
 30
0.0
 10
-1.4933700000000001
 20
0.61919
 30
0.0
 10
-1.1479300000000001
 20
0.5048900000000001
 30
0.0
 10
-1.1479300000000001
 20
0.5048900000000001
 30
0.0
 10
-1.1479300000000001
 20
0.5048900000000001
 30
0.0
 10
-1.07681
 20
0.40583
 30
0.0
 10
-1.07681
 20
0.40583
 30
0.0
 10
-1.07681
 20
0.40583
 30
0.0
 10
-1.07681
 20
0.40583
 30
0.0
 10
-1.0615700000000001
 20
0.26105
 30
0.0
 10
-1.0615700000000001
 20
0.26105
 30
0.0
 10
-1.0615700000000001
 20
0.26105
 30
0.0
 10
-1.24699
 20
0.04515
 30
0.0
 10
-1.7016500000000001
 20
0.53537
 30
0.0
 10
-1.6508500000000002
 20
0.13405
 30
0.0
 10
-1.6508500000000002
 20
0.13405
 30
0.0
 10
-1.7880100000000001
 20
0.12135
 30
0.0
 10
-1.7118100000000001
 20
0.25597
 30
0.0
 10
-1.7803900000000001
 20
0.28391
 30
0.0
 10
-1.7803900000000001
 20
0.28391
 30
0.0
 10
-1.9150100000000001
 20
0.3372500000000001
 30
0.0
 10
-1.9658100000000001
 20
0.17215
 30
0.0
 10
-2.0039100000000003
 20
0.17469
 30
0.0
 10
-2.0039100000000003
 20
0.17469
 30
0.0
 10
-2.0242300000000002
 20
0.3905900000000001
 30
0.0
 10
-1.9200900000000001
 20
0.6039500000000001
 30
0.0
 10
-1.9835900000000002
 20
0.8198500000000001
 30
0.0
 10
-1.9835900000000002
 20
0.8198500000000001
 30
0.0
 10
-2.0242300000000002
 20
0.74873
 30
0.0
 10
-1.9962900000000001
 20
0.6039500000000001
 30
0.0
 10
-2.0623300000000002
 20
0.74873
 30
0.0
 10
-2.0623300000000002
 20
0.74873
 30
0.0
 10
-2.05979
 20
0.53283
 30
0.0
 10
-2.30871
 20
0.6039500000000001
 30
0.0
 10
-2.4331700000000001
 20
0.6496700000000001
 30
0.0
 10
-2.4331700000000001
 20
0.6496700000000001
 30
0.0
 10
-2.4966700000000004
 20
0.9214500000000001
 30
0.0
 10
-2.48651
 20
1.23641
 30
0.0
 10
-2.6389100000000001
 20
1.4929500000000002
 30
0.0
 10
-2.6389100000000001
 20
1.4929500000000002
 30
0.0
 10
-2.4839700000000002
 20
1.6224900000000002
 30
0.0
 10
-2.5703300000000002
 20
1.7469500000000002
 30
0.0
 10
-2.3442700000000003
 20
1.5869300000000002
 30
0.0
  0
SPLINE
  5
49
100
AcDbEntity
  8
Ebene 1
 62
     7
100
AcDbSpline
210
0.0
220
0.0
230
1.0
 70
     1
 71
     3
 72
    16
 73
    12
 74
     0
 42
0.0000000001
 43
0.0000000001
 40
0.0
 40
0.0
 40
0.0
 40
0.0
 40
0.3333333333333333
 40
0.3333333333333333
 40
0.3333333333333333
 40
0.3333333333333333
 40
0.6666666666666666
 40
0.6666666666666666
 40
0.6666666666666666
 40
0.6666666666666666
 40
1.0
 40
1.0
 40
1.0
 40
1.0
 10
-0.6069100000000001
 20
1.4497700000000002
 30
0.0
 10
-0.6069100000000001
 20
1.4497700000000002
 30
0.0
 10
-0.42403
 20
1.4497700000000002
 30
0.0
 10
-0.42403
 20
1.4497700000000002
 30
0.0
 10
-0.42403
 20
1.4497700000000002
 30
0.0
 10
-0.42403
 20
1.4497700000000002
 30
0.0
 10
-0.33005
 20
1.3913500000000001
 30
0.0
 10
-0.33005
 20
1.3913500000000001
 30
0.0
 10
-0.33005
 20
1.3913500000000001
 30
0.0
 10
-0.42403
 20
1.23641
 30
0.0
 10
-0.9142500000000001
 20
1.2668900000000001
 30
0.0
 10
-0.6069100000000001
 20
1.4497700000000002
 30
0.0
  0
SPLINE
  5
4A
100
AcDbEntity
  8
Ebene 1
 62
     7
100
AcDbSpline
210
0.0
220
0.0
230
1.0
 70
     1
 71
     3
 72
    16
 73
    12
 74
     0
 42
0.0000000001
 43
0.0000000001
 40
0.0
 40
0.0
 40
0.0
 40
0.0
 40
0.3333333333333333
 40
0.3333333333333333
 40
0.3333333333333333
 40
0.3333333333333333
 40
0.6666666666666666
 40
0.6666666666666666
 40
0.6666666666666666
 40
0.6666666666666666
 40
1.0
 40
1.0
 40
1.0
 40
1.0
 10
1.9457800000000001
 20
0.3905900000000001
 30
0.0
 10
2.0600800000000001
 20
0.41853
 30
0.0
 10
2.16168
 20
0.31947
 30
0.0
 10
2.1312000000000002
 20
0.20263
 30
0.0
 10
2.1312000000000002
 20
0.20263
 30
0.0
 10
2.0321400000000001
 20
0.31947
 30
0.0
 10
1.9178400000000002
 20
0.26105
 30
0.0
 10
1.8314800000000002
 20
0.17469
 30
0.0
 10
1.8314800000000002
 20
0.17469
 30
0.0
 10
1.7730600000000001
 20
0.26105
 30
0.0
 10
1.8746600000000002
 20
0.37535
 30
0.0
 10
1.9457800000000001
 20
0.3905900000000001
 30
0.0
  0
SPLINE
  5
4B
100
AcDbEntity
  8
Ebene 1
 62
     7
100
AcDbSpline
210
0.0
220
0.0
230
1.0
 70
     1
 71
     3
 72
    28
 73
    24
 74
     0
 42
0.0000000001
 43
0.0000000001
 40
0.0
 40
0.0
 40
0.0
 40
0.0
 40
0.1666666666666667
 40
0.1666666666666667
 40
0.1666666666666667
 40
0.1666666666666667
 40
0.3333333333333333
 40
0.3333333333333333
 40
0.3333333333333333
 40
0.3333333333333333
 40
0.5
 40
0.5
 40
0.5
 40
0.5
 40
0.6666666666666666
 40
0.6666666666666666
 40
0.6666666666666666
 40
0.6666666666666666
 40
0.8333333333333333
 40
0.8333333333333333
 40
0.8333333333333333
 40
0.8333333333333333
 40
1.0
 40
1.0
 40
1.0
 40
1.0
 10
1.9610200000000002
 20
0.06039
 30
0.0
 10
2.7916000000000003
 20
-0.78288
 30
0.0
 10
2.6925400000000002
 20
-2.3322800000000004
 30
0.0
 10
1.9026000000000001
 20
-3.1628600000000002
 30
0.0
 10
1.9026000000000001
 20
-3.1628600000000002
 30
0.0
 10
1.9026000000000001
 20
-3.1628600000000002
 30
0.0
 10
1.6587600000000002
 20
-3.5362400000000003
 30
0.0
 10
1.6587600000000002
 20
-3.5362400000000003
 30
0.0
 10
1.6587600000000002
 20
-3.5362400000000003
 30
0.0
 10
1.4301600000000001
 20
-3.8791400000000005
 30
0.0
 10
1.2295
 20
-4.26776
 30
0.0
 10
1.09996
 20
-4.6538400000000006
 30
0.0
 10
1.09996
 20
-4.6538400000000006
 30
0.0
 10
1.09996
 20
-3.7496000000000005
 30
0.0
 10
1.7451200000000002
 20
-3.0638000000000001
 30
0.0
 10
2.1464400000000001
 20
-2.3018000000000001
 30
0.0
 10
2.1464400000000001
 20
-2.3018000000000001
 30
0.0
 10
2.4334600000000002
 20
-1.6007600000000002
 30
0.0
 10
2.2759800000000001
 20
-0.78288
 30
0.0
 10
1.8873600000000001
 20
-0.12248
 30
0.0
 10
1.8873600000000001
 20
-0.12248
 30
0.0
 10
1.8314800000000002
 20
-0.05136
 30
0.0
 10
1.9330800000000001
 20
0.00451
 30
0.0
 10
1.9610200000000002
 20
0.06039
 30
0.0
  0
SPLINE
  5
4C
100
AcDbEntity
  8
Ebene 1
100
AcDbSpline
210
0.0
220
0.0
230
1.0
 70
     1
 71
     3
 72
    20
 73
    16
 74
     0
 42
0.0000000001
 43
0.0000000001
 40
0.0
 40
0.0
 40
0.0
 40
0.0
 40
0.25
 40
0.25
 40
0.25
 40
0.25
 40
0.5
 40
0.5
 40
0.5
 40
0.5
 40
0.75
 40
0.75
 40
0.75
 40
0.75
 40
1.0
 40
1.0
 40
1.0
 40
1.0
 10
-1.5924300000000002
 20
-0.27996
 30
0.0
 10
-0.5027700000000001
 20
-0.33838
 30
0.0
 10
-0.40371
 20
-1.7150600000000003
 30
0.0
 10
-0.43165
 20
-2.56088
 30
0.0
 10
-0.43165
 20
-2.56088
 30
0.0
 10
-0.9777500000000001
 20
-2.5761200000000004
 30
0.0
 10
-1.5924300000000002
 20
-2.4465800000000004
 30
0.0
 10
-2.1055100000000002
 20
-2.5888200000000001
 30
0.0
 10
-2.1055100000000002
 20
-2.5888200000000001
 30
0.0
 10
-2.2579100000000003
 20
-1.9284200000000002
 30
0.0
 10
-2.2248900000000003
 20
-1.16896
 30
0.0
 10
-2.1334500000000003
 20
-0.48316
 30
0.0
 10
-2.1334500000000003
 20
-0.48316
 30
0.0
 10
-1.9988300000000001
 20
-0.32568
 30
0.0
 10
-1.7778500000000002
 20
-0.2952
 30
0.0
 10
-1.5924300000000002
 20
-0.27996
 30
0.0
  0
SPLINE
  5
4D
100
AcDbEntity
  8
Ebene 1
100
AcDbSpline
210
0.0
220
0.0
230
1.0
 70
     1
 71
     3
 72
    16
 73
    12
 74
     0
 42
0.0000000001
 43
0.0000000001
 40
0.0
 40
0.0
 40
0.0
 40
0.0
 40
0.3333333333333333
 40
0.3333333333333333
 40
0.3333333333333333
 40
0.3333333333333333
 40
0.6666666666666666
 40
0.6666666666666666
 40
0.6666666666666666
 40
0.6666666666666666
 40
1.0
 40
1.0
 40
1.0
 40
1.0
 10
0.8129400000000001
 20
-0.27996
 30
0.0
 10
1.5165200000000001
 20
-0.20884
 30
0.0
 10
1.6003400000000001
 20
-1.0978400000000001
 30
0.0
 10
1.4581000000000002
 20
-1.6007600000000002
 30
0.0
 10
1.4581000000000002
 20
-1.6007600000000002
 30
0.0
 10
0.8840600000000001
 20
-1.6871200000000002
 30
0.0
 10
0.47004
 20
-2.2154400000000001
 30
0.0
 10
-0.08621
 20
-2.3322800000000004
 30
0.0
 10
-0.08621
 20
-2.3322800000000004
 30
0.0
 10
0.0103
 20
-1.6007600000000002
 30
0.0
 10
-0.05827
 20
-0.5238
 30
0.0
 10
0.8129400000000001
 20
-0.27996
 30
0.0
  0
SPLINE
  5
4E
100
AcDbEntity
  8
Ebene 1
 62
     7
100
AcDbSpline
210
0.0
220
0.0
230
1.0
 70
     1
 71
     3
 72
    16
 73
    12
 74
     0
 42
0.0000000001
 43
0.0000000001
 40
0.0
 40
0.0
 40
0.0
 40
0.0
 40
0.3333333333333333
 40
0.3333333333333333
 40
0.3333333333333333
 40
0.3333333333333333
 40
0.6666666666666666
 40
0.6666666666666666
 40
0.6666666666666666
 40
0.6666666666666666
 40
1.0
 40
1.0
 40
1.0
 40
1.0
 10
-1.6508500000000002
 20
-0.3968
 30
0.0
 10
-1.6508500000000002
 20
-0.3968
 30
0.0
 10
-1.5924300000000002
 20
-0.4095
 30
0.0
 10
-1.5924300000000002
 20
-0.4095
 30
0.0
 10
-1.5924300000000002
 20
-0.4095
 30
0.0
 10
-1.54925
 20
-0.5390400000000001
 30
0.0
 10
-1.50607
 20
-0.7270000000000001
 30
0.0
 10
-1.6356100000000002
 20
-0.82606
 30
0.0
 10
-1.6356100000000002
 20
-0.82606
 30
0.0
 10
-1.6787900000000002
 20
-0.69652
 30
0.0
 10
-1.7067300000000001
 20
-0.5238
 30
0.0
 10
-1.6508500000000002
 20
-0.3968
 30
0.0
  0
SPLINE
  5
4F
100
AcDbEntity
  8
Ebene 1
 62
     7
100
AcDbSpline
210
0.0
220
0.0
230
1.0
 70
     1
 71
     3
 72
    20
 73
    16
 74
     0
 42
0.0000000001
 43
0.0000000001
 40
0.0
 40
0.0
 40
0.0
 40
0.0
 40
0.25
 40
0.25
 40
0.25
 40
0.25
 40
0.5
 40
0.5
 40
0.5
 40
0.5
 40
0.75
 40
0.75
 40
0.75
 40
0.75
 40
1.0
 40
1.0
 40
1.0
 40
1.0
 10
1.0136000000000001
 20
-0.3968
 30
0.0
 10
1.0440800000000001
 20
-0.3968
 30
0.0
 10
1.0847200000000001
 20
-0.4095
 30
0.0
 10
1.1152000000000002
 20
-0.43998
 30
0.0
 10
1.1152000000000002
 20
-0.43998
 30
0.0
 10
1.1152000000000002
 20
-0.43998
 30
0.0
 10
0.49798
 20
-0.6838200000000001
 30
0.0
 10
0.49798
 20
-0.6838200000000001
 30
0.0
 10
0.49798
 20
-0.6838200000000001
 30
0.0
 10
0.49798
 20
-0.6838200000000001
 30
0.0
 10
0.6859400000000001
 20
-0.55428
 30
0.0
 10
0.6859400000000001
 20
-0.55428
 30
0.0
 10
0.6859400000000001
 20
-0.55428
 30
0.0
 10
0.785
 20
-0.48316
 30
0.0
 10
0.8993000000000001
 20
-0.4247400000000001
 30
0.0
 10
1.0136000000000001
 20
-0.3968
 30
0.0
  0
SPLINE
  5
50
100
AcDbEntity
  8
Ebene 1
 62
     7
100
AcDbSpline
210
0.0
220
0.0
230
1.0
 70
     1
 71
     3
 72
    12
 73
     8
 74
     0
 42
0.0000000001
 43
0.0000000001
 40
0.0
 40
0.0
 40
0.0
 40
0.0
 40
0.5
 40
0.5
 40
0.5
 40
0.5
 40
1.0
 40
1.0
 40
1.0
 40
1.0
 10
-1.46289
 20
-0.4095
 30
0.0
 10
-1.2622300000000002
 20
-0.38156
 30
0.0
 10
-1.2190500000000002
 20
-0.7676400000000001
 30
0.0
 10
-1.3917700000000002
 20
-0.82606
 30
0.0
 10
-1.3917700000000002
 20
-0.82606
 30
0.0
 10
-1.41971
 20
-0.6838200000000001
 30
0.0
 10
-1.4781300000000002
 20
-0.5390400000000001
 30
0.0
 10
-1.46289
 20
-0.4095
 30
0.0
  0
SPLINE
  5
51
100
AcDbEntity
  8
Ebene 1
 62
     7
100
AcDbSpline
210
0.0
220
0.0
230
1.0
 70
     1
 71
     3
 72
    12
 73
     8
 74
     0
 42
0.0000000001
 43
0.0000000001
 40
0.0
 40
0.0
 40
0.0
 40
0.0
 40
0.5
 40
0.5
 40
0.5
 40
0.5
 40
1.0
 40
1.0
 40
1.0
 40
1.0
 10
-1.8210300000000001
 20
-0.45268
 30
0.0
 10
-1.6940300000000001
 20
-0.4679200000000001
 30
0.0
 10
-1.6940300000000001
 20
-0.6685800000000001
 30
0.0
 10
-1.7245100000000002
 20
-0.7676400000000001
 30
0.0
 10
-1.7245100000000002
 20
-0.7676400000000001
 30
0.0
 10
-1.8769100000000001
 20
-0.7981200000000001
 30
0.0
 10
-1.8388100000000001
 20
-0.55428
 30
0.0
 10
-1.8210300000000001
 20
-0.45268
 30
0.0
  0
SPLINE
  5
52
100
AcDbEntity
  8
Ebene 1
 62
     7
100
AcDbSpline
210
0.0
220
0.0
230
1.0
 70
     1
 71
     3
 72
    12
 73
     8
 74
     0
 42
0.0000000001
 43
0.0000000001
 40
0.0
 40
0.0
 40
0.0
 40
0.0
 40
0.5
 40
0.5
 40
0.5
 40
0.5
 40
1.0
 40
1.0
 40
1.0
 40
1.0
 10
-1.9378700000000002
 20
-0.48316
 30
0.0
 10
-1.8565900000000002
 20
-0.49586
 30
0.0
 10
-1.9175500000000001
 20
-0.61016
 30
0.0
 10
-1.9404100000000002
 20
-0.6685800000000001
 30
0.0
 10
-1.9404100000000002
 20
-0.6685800000000001
 30
0.0
 10
-1.9886700000000002
 20
-0.6254000000000001
 30
0.0
 10
-2.0039100000000003
 20
-0.5111
 30
0.0
 10
-1.9378700000000002
 20
-0.48316
 30
0.0
  0
SPLINE
  5
53
100
AcDbEntity
  8
Ebene 1
 62
     7
100
AcDbSpline
210
0.0
220
0.0
230
1.0
 70
     1
 71
     3
 72
    12
 73
     8
 74
     0
 42
0.0000000001
 43
0.0000000001
 40
0.0
 40
0.0
 40
0.0
 40
0.0
 40
0.5
 40
0.5
 40
0.5
 40
0.5
 40
1.0
 40
1.0
 40
1.0
 40
1.0
 10
-1.1911100000000001
 20
-0.48316
 30
0.0
 10
-1.1326900000000002
 20
-0.48316
 30
0.0
 10
-1.11999
 20
-0.56698
 30
0.0
 10
-1.16317
 20
-0.5974600000000001
 30
0.0
 10
-1.16317
 20
-0.5974600000000001
 30
0.0
 10
-1.20635
 20
-0.5822200000000001
 30
0.0
 10
-1.20635
 20
-0.5111
 30
0.0
 10
-1.1911100000000001
 20
-0.48316
 30
0.0
  0
SPLINE
  5
54
100
AcDbEntity
  8
Ebene 1
 62
     7
100
AcDbSpline
210
0.0
220
0.0
230
1.0
 70
     1
 71
     3
 72
    24
 73
    20
 74
     0
 42
0.0000000001
 43
0.0000000001
 40
0.0
 40
0.0
 40
0.0
 40
0.0
 40
0.2
 40
0.2
 40
0.2
 40
0.2
 40
0.4
 40
0.4
 40
0.4
 40
0.4
 40
0.6000000000000001
 40
0.6000000000000001
 40
0.6000000000000001
 40
0.6000000000000001
 40
0.8
 40
0.8
 40
0.8
 40
0.8
 40
1.0
 40
1.0
 40
1.0
 40
1.0
 10
1.1279000000000001
 20
-0.48316
 30
0.0
 10
1.18632
 20
-0.48316
 30
0.0
 10
1.2879200000000002
 20
-0.4679200000000001
 30
0.0
 10
1.3006200000000001
 20
-0.55428
 30
0.0
 10
1.3006200000000001
 20
-0.55428
 30
0.0
 10
1.0136000000000001
 20
-0.61016
 30
0.0
 10
0.7570600000000001
 20
-0.7549400000000001
 30
0.0
 10
0.49798
 20
-0.8540000000000001
 30
0.0
 10
0.49798
 20
-0.8540000000000001
 30
0.0
 10
0.49798
 20
-0.8540000000000001
 30
0.0
 10
0.5843400000000001
 20
-0.78288
 30
0.0
 10
0.5843400000000001
 20
-0.78288
 30
0.0
 10
0.5843400000000001
 20
-0.78288
 30
0.0
 10
0.5843400000000001
 20
-0.78288
 30
0.0
 10
0.8129400000000001
 20
-0.6381
 30
0.0
 10
0.8129400000000001
 20
-0.6381
 30
0.0
 10
0.8129400000000001
 20
-0.6381
 30
0.0
 10
0.91454
 20
-0.56698
 30
0.0
 10
1.02884
 20
-0.5238
 30
0.0
 10
1.1279000000000001
 20
-0.48316
 30
0.0
  0
SPLINE
  5
55
100
AcDbEntity
  8
Ebene 1
 62
     7
100
AcDbSpline
210
0.0
220
0.0
230
1.0
 70
     1
 71
     3
 72
    16
 73
    12
 74
     0
 42
0.0000000001
 43
0.0000000001
 40
0.0
 40
0.0
 40
0.0
 40
0.0
 40
0.3333333333333333
 40
0.3333333333333333
 40
0.3333333333333333
 40
0.3333333333333333
 40
0.6666666666666666
 40
0.6666666666666666
 40
0.6666666666666666
 40
0.6666666666666666
 40
1.0
 40
1.0
 40
1.0
 40
1.0
 10
0.3557400000000001
 20
-1.1130800000000001
 30
0.0
 10
0.64276
 20
-0.8819400000000001
 30
0.0
 10
1.0009000000000001
 20
-0.6381
 30
0.0
 10
1.35904
 20
-0.6381
 30
0.0
 10
1.35904
 20
-0.6381
 30
0.0
 10
1.3717400000000002
 20
-0.6685800000000001
 30
0.0
 10
1.3311000000000002
 20
-0.6838200000000001
 30
0.0
 10
1.31586
 20
-0.69652
 30
0.0
 10
1.31586
 20
-0.69652
 30
0.0
 10
0.9704200000000001
 20
-0.7549400000000001
 30
0.0
 10
0.6707000000000001
 20
-0.9556000000000001
 30
0.0
 10
0.3557400000000001
 20
-1.1130800000000001
 30
0.0
  0
SPLINE
  5
56
100
AcDbEntity
  8
Ebene 1
 62
     7
100
AcDbSpline
210
0.0
220
0.0
230
1.0
 70
     1
 71
     3
 72
    12
 73
     8
 74
     0
 42
0.0000000001
 43
0.0000000001
 40
0.0
 40
0.0
 40
0.0
 40
0.0
 40
0.5
 40
0.5
 40
0.5
 40
0.5
 40
1.0
 40
1.0
 40
1.0
 40
1.0
 10
-0.9904500000000001
 20
-0.6685800000000001
 30
0.0
 10
-0.9345700000000001
 20
-0.69652
 30
0.0
 10
-0.9040900000000001
 20
-0.7549400000000001
 30
0.0
 10
-0.9625100000000001
 20
-0.7981200000000001
 30
0.0
 10
-0.9625100000000001
 20
-0.7981200000000001
 30
0.0
 10
-1.00569
 20
-0.7676400000000001
 30
0.0
 10
-1.0183900000000001
 20
-0.7117600000000001
 30
0.0
 10
-0.9904500000000001
 20
-0.6685800000000001
 30
0.0
  0
SPLINE
  5
57
100
AcDbEntity
  8
Ebene 1
 62
     7
100
AcDbSpline
210
0.0
220
0.0
230
1.0
 70
     1
 71
     3
 72
    48
 73
    44
 74
     0
 42
0.0000000001
 43
0.0000000001
 40
0.0
 40
0.0
 40
0.0
 40
0.0
 40
0.0909090909090909
 40
0.0909090909090909
 40
0.0909090909090909
 40
0.0909090909090909
 40
0.1818181818181818
 40
0.1818181818181818
 40
0.1818181818181818
 40
0.1818181818181818
 40
0.2727272727272727
 40
0.2727272727272727
 40
0.2727272727272727
 40
0.2727272727272727
 40
0.3636363636363637
 40
0.3636363636363637
 40
0.3636363636363637
 40
0.3636363636363637
 40
0.4545454545454546
 40
0.4545454545454546
 40
0.4545454545454546
 40
0.4545454545454546
 40
0.5454545454545455
 40
0.5454545454545455
 40
0.5454545454545455
 40
0.5454545454545455
 40
0.6363636363636365
 40
0.6363636363636365
 40
0.6363636363636365
 40
0.6363636363636365
 40
0.7272727272727274
 40
0.7272727272727274
 40
0.7272727272727274
 40
0.7272727272727274
 40
0.8181818181818183
 40
0.8181818181818183
 40
0.8181818181818183
 40
0.8181818181818183
 40
0.9090909090909093
 40
0.9090909090909093
 40
0.9090909090909093
 40
0.9090909090909093
 40
1.0
 40
1.0
 40
1.0
 40
1.0
 10
0.3684400000000001
 20
-1.2985000000000002
 30
0.0
 10
0.3684400000000001
 20
-1.2985000000000002
 30
0.0
 10
0.8408800000000001
 20
-0.9556000000000001
 30
0.0
 10
0.8408800000000001
 20
-0.9556000000000001
 30
0.0
 10
0.8408800000000001
 20
-0.9556000000000001
 30
0.0
 10
1.0009000000000001
 20
-0.8692400000000001
 30
0.0
 10
1.1279000000000001
 20
-0.7549400000000001
 30
0.0
 10
1.31586
 20
-0.7549400000000001
 30
0.0
 10
1.31586
 20
-0.7549400000000001
 30
0.0
 10
1.3438000000000001
 20
-0.7397
 30
0.0
 10
1.3717400000000002
 20
-0.7117600000000001
 30
0.0
 10
1.40222
 20
-0.7270000000000001
 30
0.0
 10
1.40222
 20
-0.7270000000000001
 30
0.0
 10
1.4149200000000002
 20
-0.7981200000000001
 30
0.0
 10
1.4454
 20
-0.8692400000000001
 30
0.0
 10
1.4454
 20
-0.9556000000000001
 30
0.0
 10
1.4454
 20
-0.9556000000000001
 30
0.0
 10
1.09996
 20
-1.0546600000000002
 30
0.0
 10
0.7570600000000001
 20
-1.2273800000000001
 30
0.0
 10
0.42686
 20
-1.3848600000000002
 30
0.0
 10
0.42686
 20
-1.3848600000000002
 30
0.0
 10
0.42686
 20
-1.3848600000000002
 30
0.0
 10
0.5843400000000001
 20
-1.2705600000000001
 30
0.0
 10
0.5843400000000001
 20
-1.2705600000000001
 30
0.0
 10
0.5843400000000001
 20
-1.2705600000000001
 30
0.0
 10
0.6707000000000001
 20
-1.21214
 30
0.0
 10
0.7570600000000001
 20
-1.1410200000000001
 30
0.0
 10
0.8561200000000001
 20
-1.1130800000000001
 30
0.0
 10
0.8561200000000001
 20
-1.1130800000000001
 30
0.0
 10
0.9704200000000001
 20
-1.04196
 30
0.0
 10
1.09996
 20
-0.97084
 30
0.0
 10
1.2422000000000002
 20
-0.9403600000000001
 30
0.0
 10
1.2422000000000002
 20
-0.9403600000000001
 30
0.0
 10
1.4149200000000002
 20
-0.9251200000000001
 30
0.0
 10
1.4301600000000001
 20
-0.7981200000000001
 30
0.0
 10
1.2422000000000002
 20
-0.8819400000000001
 30
0.0
 10
1.2422000000000002
 20
-0.8819400000000001
 30
0.0
 10
1.2422000000000002
 20
-0.8819400000000001
 30
0.0
 10
1.0567800000000001
 20
-0.9556000000000001
 30
0.0
 10
1.0567800000000001
 20
-0.9556000000000001
 30
0.0
 10
1.0567800000000001
 20
-0.9556000000000001
 30
0.0
 10
0.8129400000000001
 20
-1.0546600000000002
 30
0.0
 10
0.5843400000000001
 20
-1.1842000000000001
 30
0.0
 10
0.3684400000000001
 20
-1.2985000000000002
 30
0.0
  0
SPLINE
  5
58
100
AcDbEntity
  8
Ebene 1
 62
     7
100
AcDbSpline
210
0.0
220
0.0
230
1.0
 70
     1
 71
     3
 72
    12
 73
     8
 74
     0
 42
0.0000000001
 43
0.0000000001
 40
0.0
 40
0.0
 40
0.0
 40
0.0
 40
0.5
 40
0.5
 40
0.5
 40
0.5
 40
1.0
 40
1.0
 40
1.0
 40
1.0
 10
-2.0369300000000004
 20
-0.9987800000000001
 30
0.0
 10
-1.9962900000000001
 20
-1.0114800000000002
 30
0.0
 10
-1.9480300000000002
 20
-1.08514
 30
0.0
 10
-1.9835900000000002
 20
-1.12832
 30
0.0
 10
-1.9835900000000002
 20
-1.12832
 30
0.0
 10
-2.0293100000000002
 20
-1.0978400000000001
 30
0.0
 10
-2.0445500000000001
 20
-1.04196
 30
0.0
 10
-2.0369300000000004
 20
-0.9987800000000001
 30
0.0
  0
SPLINE
  5
59
100
AcDbEntity
  8
Ebene 1
 62
     7
100
AcDbSpline
210
0.0
220
0.0
230
1.0
 70
     1
 71
     3
 72
    16
 73
    12
 74
     0
 42
0.0000000001
 43
0.0000000001
 40
0.0
 40
0.0
 40
0.0
 40
0.0
 40
0.3333333333333333
 40
0.3333333333333333
 40
0.3333333333333333
 40
0.3333333333333333
 40
0.6666666666666666
 40
0.6666666666666666
 40
0.6666666666666666
 40
0.6666666666666666
 40
1.0
 40
1.0
 40
1.0
 40
1.0
 10
1.3438000000000001
 20
-1.0267200000000001
 30
0.0
 10
1.4149200000000002
 20
-0.9987800000000001
 30
0.0
 10
1.4149200000000002
 20
-1.08514
 30
0.0
 10
1.3869800000000001
 20
-1.12832
 30
0.0
 10
1.3869800000000001
 20
-1.12832
 30
0.0
 10
1.0136000000000001
 20
-1.2426200000000001
 30
0.0
 10
0.64276
 20
-1.4128000000000001
 30
0.0
 10
0.31002
 20
-1.6287
 30
0.0
 10
0.31002
 20
-1.6287
 30
0.0
 10
0.59704
 20
-1.3569200000000001
 30
0.0
 10
1.0136000000000001
 20
-1.2273800000000001
 30
0.0
 10
1.3438000000000001
 20
-1.0267200000000001
 30
0.0
  0
SPLINE
  5
5A
100
AcDbEntity
  8
Ebene 1
 62
     7
100
AcDbSpline
210
0.0
220
0.0
230
1.0
 70
     1
 71
     3
 72
    12
 73
     8
 74
     0
 42
0.0000000001
 43
0.0000000001
 40
0.0
 40
0.0
 40
0.0
 40
0.0
 40
0.5
 40
0.5
 40
0.5
 40
0.5
 40
1.0
 40
1.0
 40
1.0
 40
1.0
 10
-0.8329700000000001
 20
-1.1842000000000001
 30
0.0
 10
-0.7745500000000001
 20
-1.2578600000000002
 30
0.0
 10
-0.6907300000000001
 20
-1.4001000000000001
 30
0.0
 10
-0.80503
 20
-1.4712200000000002
 30
0.0
 10
-0.80503
 20
-1.4712200000000002
 30
0.0
 10
-0.84821
 20
-1.3848600000000002
 30
0.0
 10
-0.8329700000000001
 20
-1.2705600000000001
 30
0.0
 10
-0.8329700000000001
 20
-1.1842000000000001
 30
0.0
  0
SPLINE
  5
5B
100
AcDbEntity
  8
Ebene 1
 62
     7
100
AcDbSpline
210
0.0
220
0.0
230
1.0
 70
     1
 71
     3
 72
    16
 73
    12
 74
     0
 42
0.0000000001
 43
0.0000000001
 40
0.0
 40
0.0
 40
0.0
 40
0.0
 40
0.3333333333333333
 40
0.3333333333333333
 40
0.3333333333333333
 40
0.3333333333333333
 40
0.6666666666666666
 40
0.6666666666666666
 40
0.6666666666666666
 40
0.6666666666666666
 40
1.0
 40
1.0
 40
1.0
 40
1.0
 10
0.3252600000000001
 20
-1.8293600000000001
 30
0.0
 10
0.6122800000000001
 20
-1.54234
 30
0.0
 10
0.9856600000000001
 20
-1.3137400000000001
 30
0.0
 10
1.3717400000000002
 20
-1.1994400000000001
 30
0.0
 10
1.3717400000000002
 20
-1.1994400000000001
 30
0.0
 10
1.3717400000000002
 20
-1.1994400000000001
 30
0.0
 10
1.3717400000000002
 20
-1.2985000000000002
 30
0.0
 10
1.3717400000000002
 20
-1.2985000000000002
 30
0.0
 10
1.3717400000000002
 20
-1.2985000000000002
 30
0.0
 10
1.3717400000000002
 20
-1.2985000000000002
 30
0.0
 10
0.3252600000000001
 20
-1.8293600000000001
 30
0.0
 10
0.3252600000000001
 20
-1.8293600000000001
 30
0.0
  0
SPLINE
  5
5C
100
AcDbEntity
  8
Ebene 1
 62
     7
100
AcDbSpline
210
0.0
220
0.0
230
1.0
 70
     1
 71
     3
 72
    72
 73
    68
 74
     0
 42
0.0000000001
 43
0.0000000001
 40
0.0
 40
0.0
 40
0.0
 40
0.0
 40
0.0588235294117647
 40
0.0588235294117647
 40
0.0588235294117647
 40
0.0588235294117647
 40
0.1176470588235294
 40
0.1176470588235294
 40
0.1176470588235294
 40
0.1176470588235294
 40
0.1764705882352941
 40
0.1764705882352941
 40
0.1764705882352941
 40
0.1764705882352941
 40
0.2352941176470588
 40
0.2352941176470588
 40
0.2352941176470588
 40
0.2352941176470588
 40
0.2941176470588235
 40
0.2941176470588235
 40
0.2941176470588235
 40
0.2941176470588235
 40
0.3529411764705883
 40
0.3529411764705883
 40
0.3529411764705883
 40
0.3529411764705883
 40
0.411764705882353
 40
0.411764705882353
 40
0.411764705882353
 40
0.411764705882353
 40
0.4705882352941177
 40
0.4705882352941177
 40
0.4705882352941177
 40
0.4705882352941177
 40
0.5294117647058824
 40
0.5294117647058824
 40
0.5294117647058824
 40
0.5294117647058824
 40
0.5882352941176471
 40
0.5882352941176471
 40
0.5882352941176471
 40
0.5882352941176471
 40
0.6470588235294118
 40
0.6470588235294118
 40
0.6470588235294118
 40
0.6470588235294118
 40
0.7058823529411765
 40
0.7058823529411765
 40
0.7058823529411765
 40
0.7058823529411765
 40
0.7647058823529412
 40
0.7647058823529412
 40
0.7647058823529412
 40
0.7647058823529412
 40
0.823529411764706
 40
0.823529411764706
 40
0.823529411764706
 40
0.823529411764706
 40
0.8823529411764707
 40
0.8823529411764707
 40
0.8823529411764707
 40
0.8823529411764707
 40
0.9411764705882354
 40
0.9411764705882354
 40
0.9411764705882354
 40
0.9411764705882354
 40
1.0
 40
1.0
 40
1.0
 40
1.0
 10
-1.8794500000000001
 20
-1.3848600000000002
 30
0.0
 10
-1.7067300000000001
 20
-1.5702800000000001
 30
0.0
 10
-1.7803900000000001
 20
-1.7734800000000002
 30
0.0
 10
-1.6889500000000002
 20
-2.0020800000000003
 30
0.0
 10
-1.6889500000000002
 20
-2.0020800000000003
 30
0.0
 10
-1.63053
 20
-2.0859000000000001
 30
0.0
 10
-1.6660900000000001
 20
-1.8598400000000002
 30
0.0
 10
-1.6559300000000001
 20
-1.8319000000000001
 30
0.0
 10
-1.6559300000000001
 20
-1.8319000000000001
 30
0.0
 10
-1.6330700000000002
 20
-1.7455400000000001
 30
0.0
 10
-1.5721100000000001
 20
-1.8877800000000002
 30
0.0
 10
-1.4933700000000001
 20
-2.0884400000000003
 30
0.0
 10
-1.4933700000000001
 20
-2.0884400000000003
 30
0.0
 10
-1.4781300000000002
 20
-1.9741400000000002
 30
0.0
 10
-1.5644900000000002
 20
-1.7430000000000001
 30
0.0
 10
-1.3638300000000001
 20
-1.7303000000000002
 30
0.0
 10
-1.3638300000000001
 20
-1.7303000000000002
 30
0.0
 10
-1.29271
 20
-1.7861800000000001
 30
0.0
 10
-1.3638300000000001
 20
-1.9589000000000001
 30
0.0
 10
-1.29271
 20
-2.0173200000000002
 30
0.0
 10
-1.29271
 20
-2.0173200000000002
 30
0.0
 10
-1.29271
 20
-2.0173200000000002
 30
0.0
 10
-1.2774700000000001
 20
-1.67188
 30
0.0
 10
-1.2774700000000001
 20
-1.67188
 30
0.0
 10
-1.2774700000000001
 20
-1.67188
 30
0.0
 10
-1.1047500000000001
 20
-1.6160000000000001
 30
0.0
 10
-1.20635
 20
-1.8877800000000002
 30
0.0
 10
-1.1326900000000002
 20
-1.9589000000000001
 30
0.0
 10
-1.1326900000000002
 20
-1.9589000000000001
 30
0.0
 10
-1.1479300000000001
 20
-1.8141200000000002
 30
0.0
 10
-1.03363
 20
-1.67188
 30
0.0
 10
-0.88885
 20
-1.67188
 30
0.0
 10
-0.88885
 20
-1.67188
 30
0.0
 10
-0.84821
 20
-1.7734800000000002
 30
0.0
 10
-0.9625100000000001
 20
-1.9589000000000001
 30
0.0
 10
-0.8609100000000001
 20
-2.0020800000000003
 30
0.0
 10
-0.8609100000000001
 20
-2.0020800000000003
 30
0.0
 10
-0.76185
 20
-1.7430000000000001
 30
0.0
 10
-0.63231
 20
-1.49916
 30
0.0
 10
-0.67549
 20
-1.2273800000000001
 30
0.0
 10
-0.67549
 20
-1.2273800000000001
 30
0.0
 10
-0.67549
 20
-1.2273800000000001
 30
0.0
 10
-0.63231
 20
-1.3289800000000001
 30
0.0
 10
-0.63231
 20
-1.3289800000000001
 30
0.0
 10
-0.63231
 20
-1.3289800000000001
 30
0.0
 10
-0.6018300000000001
 20
-1.5144000000000002
 30
0.0
 10
-0.5459500000000001
 20
-1.6998200000000001
 30
0.0
 10
-0.5459500000000001
 20
-1.8877800000000002
 30
0.0
 10
-0.5459500000000001
 20
-1.8877800000000002
 30
0.0
 10
-0.71867
 20
-2.0300200000000004
 30
0.0
 10
-0.84821
 20
-2.2459200000000004
 30
0.0
 10
-1.0488700000000002
 20
-2.3449800000000001
 30
0.0
 10
-1.0488700000000002
 20
-2.3449800000000001
 30
0.0
 10
-1.2342900000000001
 20
-2.27386
 30
0.0
 10
-1.5924300000000002
 20
-2.1316200000000003
 30
0.0
 10
-1.6940300000000001
 20
-2.31704
 30
0.0
 10
-1.6940300000000001
 20
-2.31704
 30
0.0
 10
-1.7245100000000002
 20
-2.31704
 30
0.0
 10
-1.7499100000000001
 20
-2.31704
 30
0.0
 10
-1.7753100000000002
 20
-2.3018000000000001
 30
0.0
 10
-1.7753100000000002
 20
-2.3018000000000001
 30
0.0
 10
-1.8845300000000003
 20
-2.1163800000000004
 30
0.0
 10
-1.8565900000000002
 20
-1.8877800000000002
 30
0.0
 10
-1.9505700000000001
 20
-1.6998200000000001
 30
0.0
 10
-1.9505700000000001
 20
-1.6998200000000001
 30
0.0
 10
-1.7778500000000002
 20
-1.7861800000000001
 30
0.0
 10
-1.9404100000000002
 20
-1.4864600000000001
 30
0.0
 10
-1.8794500000000001
 20
-1.3848600000000002
 30
0.0
  0
SPLINE
  5
5D
100
AcDbEntity
  8
Ebene 1
 62
     7
100
AcDbSpline
210
0.0
220
0.0
230
1.0
 70
     1
 71
     3
 72
    20
 73
    16
 74
     0
 42
0.0000000001
 43
0.0000000001
 40
0.0
 40
0.0
 40
0.0
 40
0.0
 40
0.25
 40
0.25
 40
0.25
 40
0.25
 40
0.5
 40
0.5
 40
0.5
 40
0.5
 40
0.75
 40
0.75
 40
0.75
 40
0.75
 40
1.0
 40
1.0
 40
1.0
 40
1.0
 10
3.1497400000000004
 20
-1.2273800000000001
 30
0.0
 10
3.8025200000000003
 20
-2.4491200000000002
 30
0.0
 10
3.2513400000000003
 20
-3.7800800000000003
 30
0.0
 10
2.9033600000000002
 20
-5.0678600000000005
 30
0.0
 10
2.9033600000000002
 20
-5.0678600000000005
 30
0.0
 10
2.8398600000000003
 20
-5.3015400000000001
 30
0.0
 10
2.75604
 20
-5.6520600000000005
 30
0.0
 10
2.6773000000000002
 20
-5.7308000000000003
 30
0.0
 10
2.6773000000000002
 20
-5.7308000000000003
 30
0.0
 10
2.9922600000000004
 20
-4.3668200000000006
 30
0.0
 10
3.3935800000000005
 20
-2.8910800000000001
 30
0.0
 10
3.0633800000000004
 20
-1.4432800000000001
 30
0.0
 10
3.0633800000000004
 20
-1.4432800000000001
 30
0.0
 10
3.0506800000000003
 20
-1.3569200000000001
 30
0.0
 10
3.0786200000000004
 20
-1.2705600000000001
 30
0.0
 10
3.1497400000000004
 20
-1.2273800000000001
 30
0.0
  0
SPLINE
  5
5E
100
AcDbEntity
  8
Ebene 1
 62
     7
100
AcDbSpline
210
0.0
220
0.0
230
1.0
 70
     1
 71
     3
 72
    16
 73
    12
 74
     0
 42
0.0000000001
 43
0.0000000001
 40
0.0
 40
0.0
 40
0.0
 40
0.0
 40
0.3333333333333333
 40
0.3333333333333333
 40
0.3333333333333333
 40
0.3333333333333333
 40
0.6666666666666666
 40
0.6666666666666666
 40
0.6666666666666666
 40
0.6666666666666666
 40
1.0
 40
1.0
 40
1.0
 40
1.0
 10
-1.6635500000000001
 20
-1.2832600000000001
 30
0.0
 10
-1.5924300000000002
 20
-1.4128000000000001
 30
0.0
 10
-1.50607
 20
-1.58552
 30
0.0
 10
-1.5644900000000002
 20
-1.7582400000000002
 30
0.0
 10
-1.5644900000000002
 20
-1.7582400000000002
 30
0.0
 10
-1.5644900000000002
 20
-1.7582400000000002
 30
0.0
 10
-1.6508500000000002
 20
-1.7582400000000002
 30
0.0
 10
-1.6508500000000002
 20
-1.7582400000000002
 30
0.0
 10
-1.6508500000000002
 20
-1.7582400000000002
 30
0.0
 10
-1.7219700000000002
 20
-1.6160000000000001
 30
0.0
 10
-1.6940300000000001
 20
-1.4280400000000002
 30
0.0
 10
-1.6635500000000001
 20
-1.2832600000000001
 30
0.0
  0
SPLINE
  5
5F
100
AcDbEntity
  8
Ebene 1
 62
     7
100
AcDbSpline
210
0.0
220
0.0
230
1.0
 70
     1
 71
     3
 72
    12
 73
     8
 74
     0
 42
0.0000000001
 43
0.0000000001
 40
0.0
 40
0.0
 40
0.0
 40
0.0
 40
0.5
 40
0.5
 40
0.5
 40
0.5
 40
1.0
 40
1.0
 40
1.0
 40
1.0
 10
-1.2342900000000001
 20
-1.3289800000000001
 30
0.0
 10
-1.16317
 20
-1.4001000000000001
 30
0.0
 10
-1.1758700000000002
 20
-1.5144000000000002
 30
0.0
 10
-1.1758700000000002
 20
-1.6160000000000001
 30
0.0
 10
-1.1758700000000002
 20
-1.6160000000000001
 30
0.0
 10
-1.3485900000000002
 20
-1.6439400000000002
 30
0.0
 10
-1.24699
 20
-1.4128000000000001
 30
0.0
 10
-1.2342900000000001
 20
-1.3289800000000001
 30
0.0
  0
SPLINE
  5
60
100
AcDbEntity
  8
Ebene 1
 62
     7
100
AcDbSpline
210
0.0
220
0.0
230
1.0
 70
     1
 71
     3
 72
    12
 73
     8
 74
     0
 42
0.0000000001
 43
0.0000000001
 40
0.0
 40
0.0
 40
0.0
 40
0.0
 40
0.5
 40
0.5
 40
0.5
 40
0.5
 40
1.0
 40
1.0
 40
1.0
 40
1.0
 10
-1.4781300000000002
 20
-1.37216
 30
0.0
 10
-1.3638300000000001
 20
-1.4432800000000001
 30
0.0
 10
-1.2774700000000001
 20
-1.6871200000000002
 30
0.0
 10
-1.4781300000000002
 20
-1.7303000000000002
 30
0.0
 10
-1.4781300000000002
 20
-1.7303000000000002
 30
0.0
 10
-1.4781300000000002
 20
-1.6287
 30
0.0
 10
-1.50607
 20
-1.4864600000000001
 30
0.0
 10
-1.4781300000000002
 20
-1.37216
 30
0.0
  0
SPLINE
  5
61
100
AcDbEntity
  8
Ebene 1
 62
     7
100
AcDbSpline
210
0.0
220
0.0
230
1.0
 70
     1
 71
     3
 72
    12
 73
     8
 74
     0
 42
0.0000000001
 43
0.0000000001
 40
0.0
 40
0.0
 40
0.0
 40
0.0
 40
0.5
 40
0.5
 40
0.5
 40
0.5
 40
1.0
 40
1.0
 40
1.0
 40
1.0
 10
-0.9777500000000001
 20
-1.37216
 30
0.0
 10
-0.8761500000000001
 20
-1.4432800000000001
 30
0.0
 10
-0.9040900000000001
 20
-1.67188
 30
0.0
 10
-1.0488700000000002
 20
-1.67188
 30
0.0
 10
-1.0488700000000002
 20
-1.67188
 30
0.0
 10
-1.1047500000000001
 20
-1.58552
 30
0.0
 10
-1.00569
 20
-1.4559800000000001
 30
0.0
 10
-0.9777500000000001
 20
-1.37216
 30
0.0
  0
SPLINE
  5
62
100
AcDbEntity
  8
Ebene 1
 62
     7
100
AcDbSpline
210
0.0
220
0.0
230
1.0
 70
     1
 71
     3
 72
    20
 73
    16
 74
     0
 42
0.0000000001
 43
0.0000000001
 40
0.0
 40
0.0
 40
0.0
 40
0.0
 40
0.25
 40
0.25
 40
0.25
 40
0.25
 40
0.5
 40
0.5
 40
0.5
 40
0.5
 40
0.75
 40
0.75
 40
0.75
 40
0.75
 40
1.0
 40
1.0
 40
1.0
 40
1.0
 10
1.2879200000000002
 20
-1.4001000000000001
 30
0.0
 10
1.2879200000000002
 20
-1.4001000000000001
 30
0.0
 10
1.3438000000000001
 20
-1.4128000000000001
 30
0.0
 10
1.3438000000000001
 20
-1.4128000000000001
 30
0.0
 10
1.3438000000000001
 20
-1.4128000000000001
 30
0.0
 10
1.3438000000000001
 20
-1.4128000000000001
 30
0.0
 10
1.3006200000000001
 20
-1.49916
 30
0.0
 10
1.3006200000000001
 20
-1.49916
 30
0.0
 10
1.3006200000000001
 20
-1.49916
 30
0.0
 10
1.3006200000000001
 20
-1.49916
 30
0.0
 10
0.3557400000000001
 20
-1.9868400000000002
 30
0.0
 10
0.3557400000000001
 20
-1.9868400000000002
 30
0.0
 10
0.3557400000000001
 20
-1.9868400000000002
 30
0.0
 10
0.6275200000000001
 20
-1.7303000000000002
 30
0.0
 10
0.9424800000000001
 20
-1.5271000000000001
 30
0.0
 10
1.2879200000000002
 20
-1.4001000000000001
 30
0.0
  0
SPLINE
  5
63
100
AcDbEntity
  8
Ebene 1
 62
     7
100
AcDbSpline
210
0.0
220
0.0
230
1.0
 70
     1
 71
     3
 72
    24
 73
    20
 74
     0
 42
0.0000000001
 43
0.0000000001
 40
0.0
 40
0.0
 40
0.0
 40
0.0
 40
0.2
 40
0.2
 40
0.2
 40
0.2
 40
0.4
 40
0.4
 40
0.4
 40
0.4
 40
0.6000000000000001
 40
0.6000000000000001
 40
0.6000000000000001
 40
0.6000000000000001
 40
0.8
 40
0.8
 40
0.8
 40
0.8
 40
1.0
 40
1.0
 40
1.0
 40
1.0
 10
2.0600800000000001
 20
-1.5144000000000002
 30
0.0
 10
2.1312000000000002
 20
-1.5271000000000001
 30
0.0
 10
2.04738
 20
-1.6160000000000001
 30
0.0
 10
2.0753200000000001
 20
-1.6566400000000001
 30
0.0
 10
2.0753200000000001
 20
-1.6566400000000001
 30
0.0
 10
2.09056
 20
-1.7303000000000002
 30
0.0
 10
2.1312000000000002
 20
-1.7861800000000001
 30
0.0
 10
2.1743800000000002
 20
-1.8293600000000001
 30
0.0
 10
2.1743800000000002
 20
-1.8293600000000001
 30
0.0
 10
2.1464400000000001
 20
-2.1722600000000001
 30
0.0
 10
2.0169000000000001
 20
-2.4897600000000004
 30
0.0
 10
1.8162400000000001
 20
-2.7615400000000001
 30
0.0
 10
1.8162400000000001
 20
-2.7615400000000001
 30
0.0
 10
1.6892400000000001
 20
-2.5024600000000001
 30
0.0
 10
1.6460600000000001
 20
-2.1163800000000004
 30
0.0
 10
1.9889600000000001
 20
-2.0173200000000002
 30
0.0
 10
1.9889600000000001
 20
-2.0173200000000002
 30
0.0
 10
2.0042
 20
-1.8573000000000002
 30
0.0
 10
1.8746600000000002
 20
-1.58552
 30
0.0
 10
2.0600800000000001
 20
-1.5144000000000002
 30
0.0
  0
SPLINE
  5
64
100
AcDbEntity
  8
Ebene 1
 62
     7
100
AcDbSpline
210
0.0
220
0.0
230
1.0
 70
     1
 71
     3
 72
    12
 73
     8
 74
     0
 42
0.0000000001
 43
0.0000000001
 40
0.0
 40
0.0
 40
0.0
 40
0.0
 40
0.5
 40
0.5
 40
0.5
 40
0.5
 40
1.0
 40
1.0
 40
1.0
 40
1.0
 10
-2.6262100000000004
 20
-2.6193000000000004
 30
0.0
 10
-2.6363700000000003
 20
-2.77678
 30
0.0
 10
-2.7227300000000003
 20
-2.9774400000000001
 30
0.0
 10
-2.7735300000000001
 20
-3.1349200000000002
 30
0.0
 10
-2.7735300000000001
 20
-3.1349200000000002
 30
0.0
 10
-2.8014700000000001
 20
-2.9469600000000002
 30
0.0
 10
-2.7278100000000003
 20
-2.7463000000000002
 30
0.0
 10
-2.6262100000000004
 20
-2.6193000000000004
 30
0.0
  0
SPLINE
  5
65
100
AcDbEntity
  8
Ebene 1
 62
     7
100
AcDbSpline
210
0.0
220
0.0
230
1.0
 70
     1
 71
     3
 72
    20
 73
    16
 74
     0
 42
0.0000000001
 43
0.0000000001
 40
0.0
 40
0.0
 40
0.0
 40
0.0
 40
0.25
 40
0.25
 40
0.25
 40
0.25
 40
0.5
 40
0.5
 40
0.5
 40
0.5
 40
0.75
 40
0.75
 40
0.75
 40
0.75
 40
1.0
 40
1.0
 40
1.0
 40
1.0
 10
0.6707000000000001
 20
-2.9469600000000002
 30
0.0
 10
0.7138800000000001
 20
-2.9342600000000001
 30
0.0
 10
0.7265800000000001
 20
-2.9774400000000001
 30
0.0
 10
0.74182
 20
-3.0053800000000002
 30
0.0
 10
0.74182
 20
-3.0053800000000002
 30
0.0
 10
0.74182
 20
-3.7800800000000003
 30
0.0
 10
0.4827400000000001
 20
-4.4836600000000004
 30
0.0
 10
0.08142
 20
-5.1288200000000002
 30
0.0
 10
0.08142
 20
-5.1288200000000002
 30
0.0
 10
0.16778
 20
-4.4684200000000001
 30
0.0
 10
0.4827400000000001
 20
-3.8385000000000002
 30
0.0
 10
0.5691000000000001
 20
-3.1628600000000002
 30
0.0
 10
0.5691000000000001
 20
-3.1628600000000002
 30
0.0
 10
0.59704
 20
-3.0917400000000002
 30
0.0
 10
0.6122800000000001
 20
-3.0053800000000002
 30
0.0
 10
0.6707000000000001
 20
-2.9469600000000002
 30
0.0
  0
SPLINE
  5
66
100
AcDbEntity
  8
Ebene 1
 62
     7
100
AcDbSpline
210
0.0
220
0.0
230
1.0
 70
     1
 71
     3
 72
    20
 73
    16
 74
     0
 42
0.0000000001
 43
0.0000000001
 40
0.0
 40
0.0
 40
0.0
 40
0.0
 40
0.25
 40
0.25
 40
0.25
 40
0.25
 40
0.5
 40
0.5
 40
0.5
 40
0.5
 40
0.75
 40
0.75
 40
0.75
 40
0.75
 40
1.0
 40
1.0
 40
1.0
 40
1.0
 10
-2.1664700000000003
 20
-4.7122600000000006
 30
0.0
 10
-2.3544300000000002
 20
-4.26776
 30
0.0
 10
-2.3976100000000002
 20
-3.7496000000000005
 30
0.0
 10
-2.39507
 20
-3.2492200000000002
 30
0.0
 10
-2.39507
 20
-3.2492200000000002
 30
0.0
 10
-2.3722100000000004
 20
-3.1933400000000001
 30
0.0
 10
-2.3645900000000002
 20
-3.1196800000000002
 30
0.0
 10
-2.30871
 20
-3.0765000000000002
 30
0.0
 10
-2.30871
 20
-3.0765000000000002
 30
0.0
 10
-2.2731500000000002
 20
-3.0917400000000002
 30
0.0
 10
-2.2477500000000004
 20
-3.1044400000000003
 30
0.0
 10
-2.23759
 20
-3.1476200000000003
 30
0.0
 10
-2.23759
 20
-3.1476200000000003
 30
0.0
 10
-2.2147300000000003
 20
-3.6657800000000003
 30
0.0
 10
-2.2045700000000004
 20
-4.2093400000000001
 30
0.0
 10
-2.1664700000000003
 20
-4.7122600000000006
 30
0.0
  0
SPLINE
  5
67
100
AcDbEntity
  8
Ebene 1
 62
     7
100
AcDbSpline
210
0.0
220
0.0
230
1.0
 70
     1
 71
     3
 72
    16
 73
    12
 74
     0
 42
0.0000000001
 43
0.0000000001
 40
0.0
 40
0.0
 40
0.0
 40
0.0
 40
0.3333333333333333
 40
0.3333333333333333
 40
0.3333333333333333
 40
0.3333333333333333
 40
0.6666666666666666
 40
0.6666666666666666
 40
0.6666666666666666
 40
0.6666666666666666
 40
1.0
 40
1.0
 40
1.0
 40
1.0
 10
-0.9777500000000001
 20
-3.0130000000000003
 30
0.0
 10
-0.8177300000000001
 20
-3.5387800000000005
 30
0.0
 10
-0.58913
 20
-4.1509200000000002
 30
0.0
 10
-0.7897900000000001
 20
-4.7122600000000006
 30
0.0
 10
-0.7897900000000001
 20
-4.7122600000000006
 30
0.0
 10
-0.84821
 20
-4.2398199999999999
 30
0.0
 10
-0.7745500000000001
 20
-3.6962600000000001
 30
0.0
 10
-0.9904500000000001
 20
-3.2593800000000002
 30
0.0
 10
-0.9904500000000001
 20
-3.2593800000000002
 30
0.0
 10
-0.9904500000000001
 20
-3.2593800000000002
 30
0.0
 10
-0.9777500000000001
 20
-3.0130000000000003
 30
0.0
 10
-0.9777500000000001
 20
-3.0130000000000003
 30
0.0
  0
ENDSEC
  0
SECTION
  2
OBJECTS
  0
DICTIONARY
  5
19
100
AcDbDictionary
280
     0
281
     1
  3
ACAD_GROUP
350
1A
  3
ACAD_MLINESTYLE
350
1B
  3
ACAD_LAYOUT
350
1E
  3
ACAD_PLOTSETTINGS
350
22
  3
ACAD_PLOTSTYLENAME
350
1F
  3
ACAD_WIPEOUT_VARS
350
23
  0
DICTIONARY
  5
1A
102
{ACAD_REACTORS
330
19
102
}
100
AcDbDictionary
280
     0
281
     1
  0
DICTIONARY
  5
1B
102
{ACAD_REACTORS
330
19
102
}
100
AcDbDictionary
280
     0
281
     1
  3
Standard
350
1C
  0
MLINESTYLE
  5
1C
102
{ACAD_REACTORS
330
1B
102
}
100
AcDbMlineStyle
  2
Standard
 70
     0
  3

 62
     0
 51
90.0
 52
90.0
 71
     2
 49
0.5
 62
   256
  6
BYLAYER
 49
-0.5
 62
   256
  6
BYLAYER
  0
ACDBDICTIONARYWDFLT
  5
1F
102
{ACAD_REACTORS
330
19
102
}
100
AcDbDictionary
281
     1
  3
Normal
350
1D
100
AcDbDictionaryWithDefault
340
1D
  0
ACDBPLACEHOLDER
  5
1D
102
{ACAD_REACTORS
330
1F
102
}
  0
LAYOUT
  5
20
102
{ACAD_REACTORS
330
1E
102
}
100
AcDbPlotSettings
  1

  2

  4

  6

 40
0.0
 41
0.0
 42
0.0
 43
0.0
 44
0.0
 45
0.0
 46
0.0
 47
0.0
 48
0.0
 49
0.0
140
0.0
141
0.0
142
1.0
143
1.0
 70
  1024
 72
     0
 73
     0
 74
     0
  7

 75
     0
147
1.0
148
0.0
149
0.0
100
AcDbLayout
  1
Model
 70
     0
 71
     0
 10
0.0
 20
0.0
 11
0.0
 21
0.0
 12
0.0
 22
0.0
 32
0.0
 14
0.0
 24
0.0
 34
0.0
 15
0.0
 25
0.0
 35
0.0
146
0.0
 13
0.0
 23
0.0
 33
0.0
 16
0.0
 26
0.0
 36
0.0
 17
0.0
 27
0.0
 37
0.0
 76
     0
330
A
331
0
345
0
346
0
  0
LAYOUT
  5
21
102
{ACAD_REACTORS
330
1E
102
}
100
AcDbPlotSettings
  1

  2

  4

  6

 40
0.0
 41
0.0
 42
0.0
 43
0.0
 44
0.0
 45
0.0
 46
0.0
 47
0.0
 48
0.0
 49
0.0
140
0.0
141
0.0
142
1.0
143
1.0
 70
     0
 72
     0
 73
     0
 74
     0
  7

 75
     0
147
1.0
148
0.0
149
0.0
100
AcDbLayout
  1
Layout1
 70
     0
 71
     0
 10
0.0
 20
0.0
 11
0.0
 21
0.0
 12
0.0
 22
0.0
 32
0.0
 14
0.0
 24
0.0
 34
0.0
 15
0.0
 25
0.0
 35
0.0
146
0.0
 13
0.0
 23
0.0
 33
0.0
 16
0.0
 26
0.0
 36
0.0
 17
0.0
 27
0.0
 37
0.0
 76
     0
330
B
331
0
345
0
346
0
  0
DICTIONARY
  5
1E
102
{ACAD_REACTORS
330
19
102
}
100
AcDbDictionary
280
     0
281
     1
  3
Layout1
350
21
  3
Model
350
20
  0
DICTIONARY
  5
22
102
{ACAD_REACTORS
330
19
102
}
100
AcDbDictionary
280
     0
281
     1
  0
WIPEOUTVARIABLES
  5
23
100
AcDbWipeoutVariables
 70
     1
  0
ENDSEC
  0
EOF
