  0
SECTION
  2
HEADER
  9
$ACADVER
  1
AC1015
  9
$ACADMAINTVER
 70
     6
  9
$DWGCODEPAGE
  3
DOS850
  9
$INSBASE
 10
0.0
 20
0.0
 30
0.0
  9
$EXTMIN
 10
-3.93177
 20
-6.56138
 30
1.000000E+20
  9
$EXTMAX
 10
3.93714
 20
6.55517
 30
-1.000000E+20
  9
$LIMMIN
 10
0.0
 20
0.0
  9
$LIMMAX
 10
0.0
 20
0.0
  9
$ORTHOMODE
 70
     0
  9
$REGENMODE
 70
     1
  9
$FILLMODE
 70
     1
  9
$QTEXTMODE
 70
     0
  9
$MIRRTEXT
 70
     1
  9
$LTSCALE
 40
1.0
  9
$ATTMODE
 70
     1
  9
$TEXTSIZE
 40
0.2
  9
$TRACEWID
 40
0.05
  9
$TEXTSTYLE
  7
Standard
  9
$CLAYER
  8
0
  9
$CELTYPE
  6
Continuous
  9
$CECOLOR
 62
   256
  9
$CELTSCALE
 40
1.0
  9
$DISPSILH
 70
     0
  9
$DIMSCALE
 40
1.0
  9
$DIMASZ
 40
0.18
  9
$DIMEXO
 40
0.0625
  9
$DIMDLI
 40
0.38
  9
$DIMRND
 40
0.0
  9
$DIMDLE
 40
0.0
  9
$DIMEXE
 40
0.18
  9
$DIMTP
 40
0.0
  9
$DIMTM
 40
0.0
  9
$DIMTXT
 40
0.18
  9
$DIMCEN
 40
0.09
  9
$DIMTSZ
 40
0.0
  9
$DIMTOL
 70
     0
  9
$DIMLIM
 70
     0
  9
$DIMTIH
 70
     1
  9
$DIMTOH
 70
     1
  9
$DIMSE1
 70
     0
  9
$DIMSE2
 70
     0
  9
$DIMTAD
 70
     0
  9
$DIMZIN
 70
     0
  9
$DIMBLK
  1

  9
$DIMASO
 70
     1
  9
$DIMSHO
 70
     1
  9
$DIMPOST
  1

  9
$DIMAPOST
  1

  9
$DIMALT
 70
     0
  9
$DIMALTD
 70
     2
  9
$DIMALTF
 40
25.4
  9
$DIMLFAC
 40
1.0
  9
$DIMTOFL
 70
     0
  9
$DIMTVP
 40
0.0
  9
$DIMTIX
 70
     0
  9
$DIMSOXD
 70
     0
  9
$DIMSAH
 70
     0
  9
$DIMBLK1
  1

  9
$DIMBLK2
  1

  9
$DIMSTYLE
  2
Standard
  9
$DIMCLRD
 70
     0
  9
$DIMCLRE
 70
     0
  9
$DIMCLRT
 70
     0
  9
$DIMTFAC
 40
1.0
  9
$DIMGAP
 40
0.09
  9
$DIMJUST
 70
     0
  9
$DIMSD1
 70
     0
  9
$DIMSD2
 70
     0
  9
$DIMTOLJ
 70
     1
  9
$DIMTZIN
 70
     0
  9
$DIMALTZ
 70
     0
  9
$DIMALTTZ
 70
     0
  9
$DIMUPT
 70
     0
  9
$DIMDEC
 70
     4
  9
$DIMTDEC
 70
     4
  9
$DIMALTU
 70
     2
  9
$DIMALTTD
 70
     2
  9
$DIMTXSTY
  7
Standard
  9
$DIMAUNIT
 70
     0
  9
$DIMADEC
 70
     0
  9
$DIMALTRND
 40
0.0
  9
$DIMAZIN
 70
     0
  9
$DIMDSEP
 70
     0
  9
$DIMATFIT
 70
     3
  9
$DIMFRAC
 70
     0
  9
$DIMLDRBLK
  1

  9
$DIMLUNIT
 70
     2
  9
$DIMLWD
 70
     0
  9
$DIMLWE
 70
     0
  9
$DIMTMOVE
 70
     0
  9
$LUNITS
 70
     2
  9
$LUPREC
 70
     4
  9
$SKETCHINC
 40
0.1
  9
$FILLETRAD
 40
0.0
  9
$AUNITS
 70
     0
  9
$AUPREC
 70
     0
  9
$MENU
  1
acad
  9
$ELEVATION
 40
0.0
  9
$PELEVATION
 40
0.0
  9
$THICKNESS
 40
0.0
  9
$LIMCHECK
 70
     0
  9
$CHAMFERA
 40
0.0
  9
$CHAMFERB
 40
0.0
  9
$CHAMFERC
 40
0.0
  9
$CHAMFERD
 40
0.0
  9
$SKPOLY
 70
     0
  9
$TDCREATE
 40
0.000000000
  9
$TDUCREATE
 40
0.000000000
  9
$TDUPDATE
 40
0.000000000
  9
$TDUUPDATE
 40
0.000000000
  9
$TDINDWG
 40
0.0000000000
  9
$TDUSRTIMER
 40
0.0000000000
  9
$USRTIMER
 70
     1
  9
$ANGBASE
 50
0.0
  9
$ANGDIR
 70
     0
  9
$PDMODE
 70
     0
  9
$PDSIZE
 40
0.0
  9
$PLINEWID
 40
0.0
  9
$SPLFRAME
 70
     0
  9
$SPLINETYPE
 70
     6
  9
$SPLINESEGS
 70
     8
  9
$HANDSEED
  5
66
  9
$SURFTAB1
 70
     6
  9
$SURFTAB2
 70
     6
  9
$SURFTYPE
 70
     6
  9
$SURFU
 70
     6
  9
$SURFV
 70
     6
  9
$UCSBASE
  2

  9
$UCSNAME
  2

  9
$UCSORG
 10
0.0
 20
0.0
 30
0.0
  9
$UCSXDIR
 10
1.0
 20
0.0
 30
0.0
  9
$UCSYDIR
 10
0.0
 20
1.0
 30
0.0
  9
$UCSORTHOREF
  2

  9
$UCSORTHOVIEW
 70
     0
  9
$UCSORGTOP
 10
0.0
 20
0.0
 30
0.0
  9
$UCSORGBOTTOM
 10
0.0
 20
0.0
 30
0.0
  9
$UCSORGLEFT
 10
0.0
 20
0.0
 30
0.0
  9
$UCSORGRIGHT
 10
0.0
 20
0.0
 30
0.0
  9
$UCSORGFRONT
 10
0.0
 20
0.0
 30
0.0
  9
$UCSORGBACK
 10
0.0
 20
0.0
 30
0.0
  9
$PUCSBASE
  2

  9
$PUCSNAME
  2

  9
$PUCSORG
 10
0.0
 20
0.0
 30
0.0
  9
$PUCSXDIR
 10
1.0
 20
0.0
 30
0.0
  9
$PUCSYDIR
 10
0.0
 20
1.0
 30
0.0
  9
$PUCSORTHOREF
  2

  9
$PUCSORTHOVIEW
 70
     0
  9
$PUCSORGTOP
 10
0.0
 20
0.0
 30
0.0
  9
$PUCSORGBOTTOM
 10
0.0
 20
0.0
 30
0.0
  9
$PUCSORGLEFT
 10
0.0
 20
0.0
 30
0.0
  9
$PUCSORGRIGHT
 10
0.0
 20
0.0
 30
0.0
  9
$PUCSORGFRONT
 10
0.0
 20
0.0
 30
0.0
  9
$PUCSORGBACK
 10
0.0
 20
0.0
 30
0.0
  9
$USERI1
 70
     0
  9
$USERI2
 70
     0
  9
$USERI3
 70
     0
  9
$USERI4
 70
     0
  9
$USERI5
 70
     0
  9
$USERR1
 40
0.0
  9
$USERR2
 40
0.0
  9
$USERR3
 40
0.0
  9
$USERR4
 40
0.0
  9
$USERR5
 40
0.0
  9
$WORLDVIEW
 70
     1
  9
$SHADEDGE
 70
     3
  9
$SHADEDIF
 70
    70
  9
$TILEMODE
 70
     1
  9
$MAXACTVP
 70
    16
  9
$PINSBASE
 10
0.0
 20
0.0
 30
0.0
  9
$PLIMCHECK
 70
     0
  9
$PEXTMIN
 10
1.000000E+20
 20
1.000000E+20
 30
1.000000E+20
  9
$PEXTMAX
 10
-1.000000E+20
 20
-1.000000E+20
 30
-1.000000E+20
  9
$PLIMMIN
 10
0.0
 20
0.0
  9
$PLIMMAX
 10
12.0
 20
9.0
  9
$UNITMODE
 70
     0
  9
$VISRETAIN
 70
     0
  9
$PLINEGEN
 70
     1
  9
$PSLTSCALE
 70
     0
  9
$TREEDEPTH
 70
  3020
  9
$CMLSTYLE
  2
Standard
  9
$CMLJUST
 70
     0
  9
$CMLSCALE
 40
1.0
  9
$PROXYGRAPHICS
 70
     0
  9
$MEASUREMENT
 70
     0
  9
$CELWEIGHT
370
     0
  9
$ENDCAPS
280
     0
  9
$JOINSTYLE
280
     0
  9
$LWDISPLAY
290
     0
  9
$INSUNITS
 70
     5
  9
$HYPERLINKBASE
  1

  9
$XEDIT
290
     1
  9
$CEPSNTYPE
380
     0
  9
$PSTYLEMODE
290
     1
  9
$FINGERPRINTGUID
  2

  9
$VERSIONGUID
  2

  9
$EXTNAMES
290
     1
  9
$PSVPSCALE
 40
0.0
  0
ENDSEC
  0
SECTION
  2
CLASSES
  0
CLASS
  1
LWPOLYLINE
  2
AcDbPolyline
  3
AutoCAD 2000
 90
    32768
280
     0
281
     1
  0
CLASS
  1
IMAGE
  2
AcDbRasterImage
  3
ISM
 90
    32895
280
     0
281
     1
  0
CLASS
  1
OLE2FRAME
  2
AcDbOle2Frame
  3
AutoCAD 2000
 90
    32768
280
     0
281
     1
  0
CLASS
  1
HATCH
  2
AcDbHatch
  3
AutoCAD 2000
 90
    32768
280
     0
281
     1
  0
CLASS
  1
DICTIONARYVAR
  2
AcDbDictionaryVar
  3
AutoCAD 2000
 90
    32768
280
     0
281
     0
  0
CLASS
  1
RASTERVARIABLES
  2
AcDbRasterVariables
  3
ISM
 90
    32768
280
     0
281
     0
  0
CLASS
  1
IMAGEDEF
  2
AcDbRasterImageDef
  3
ISM
 90
    32768
280
     0
281
     0
  0
CLASS
  1
IMAGEDEF_REACTOR
  2
AcDbRasterImageDefReactor
  3
ISM
 90
    32769
280
     0
281
     0
  0
CLASS
  1
IDBUFFER
  2
AcDbIdBuffer
  3
AutoCAD 2000
 90
    32768
280
     0
281
     0
  0
CLASS
  1
SPATIAL_FILTER
  2
AcDbSpatialFilter
  3
AutoCAD 2000
 90
    32768
280
     0
281
     0
  0
CLASS
  1
XRECORD
  2
AcDbXrecord
  3
AutoCAD 2000
 90
    32768
280
     0
281
     0
  0
CLASS
  1
SORTENTSTABLE
  2
AcDbSortentsTable
  3
AutoCAD 2000
 90
    32768
280
     0
281
     0
  0
CLASS
  1
LAYER_INDEX
  2
AcDbLayerIndex
  3
AutoCAD 2000
 90
    32768
280
     0
281
     0
  0
CLASS
  1
SPATIAL_INDEX
  2
AcDbSpatialIndex
  3
AutoCAD 2000
 90
    32768
280
     0
281
     0
  0
CLASS
  1
OBJECT_PTR
  2
CAseDLPNTableRecord
  3
"ASE-LPNTableRecord"
 90
    32769
280
     0
281
     0
  0
CLASS
  1
LAYOUT
  2
AcDbLayout
  3
AutoCAD 2000
 90
        0
280
     0
281
     0
  0
CLASS
  1
PLOTSETTINGS
  2
AcDbPlotSettings
  3
AutoCAD 2000
 90
    32768
280
     0
281
     0
  0
CLASS
  1
ACDBDICTIONARYWDFLT
  2
AcDbDictionaryWithDefault
  3
AutoCAD 2000
 90
        0
280
     0
281
     0
  0
CLASS
  1
ACDBPLACEHOLDER
  2
AcDbPlaceHolder
  3
AutoCAD 2000
 90
        0
280
     0
281
     0
  0
CLASS
  1
VBA_PROJECT
  2
AcDbVbaProject
  3
acadvba
 90
    32768
280
     0
281
     0
  0
CLASS
  1
WIPEOUT
  2
AcDbWipeout
  3
WipeOut|AutoCAD Express Tool|expresstools@autodesk.com
 90
    32895
280
     0
281
     1
  0
CLASS
  1
WIPEOUTVARIABLES
  2
AcDbWipeoutVariables
  3
WipeOut|AutoCAD Express Tool|expresstools@autodesk.com
 90
        0
280
     0
281
     0
  0
CLASS
  1
RTEXT
  2
RText
  3
RText|AutoCAD Express Tool|expresstools@autodesk.com
 90
    32768
280
     0
281
     1
  0
CLASS
  1
ARCALIGNEDTEXT
  2
AcDbArcAlignedText
  3
ATEXT|AutoCAD Express Tool|expresstools@autodesk.com
 90
    32768
280
     0
281
     1
  0
ENDSEC
  0
SECTION
  2
TABLES
  0
TABLE
  2
VPORT
  5
7
100
AcDbSymbolTable
 70
     1
  0
VPORT
  5
15
100
AcDbSymbolTableRecord
100
AcDbViewportTableRecord
  2
*ACTIVE
 70
     0
 10
0.0
 20
0.0
 11
1.0
 21
1.0
 12
6.591288
 22
4.579184
 13
0.0
 23
0.0
 14
1.0
 24
1.0
 15
0.0
 25
0.0
 16
0.0
 26
0.0
 36
1.0
 17
0.0
 27
0.0
 37
0.0
 40
9.158369
 41
0.688564
 42
50.0
 43
0.0
 44
0.0
 50
0.0
 51
0.0
 71
     0
 72
   100
 73
     1
 74
     1
 75
     0
 76
     0
 77
     0
 78
     0
281
     0
 65
     0
110
0.0
120
0.0
130
0.0
111
1.0
121
0.0
131
0.0
112
0.0
122
1.0
132
0.0
345
0
346
0
 79
     0
146
0.0
  0
ENDTAB
  0
TABLE
  2
LTYPE
  5
4
100
AcDbSymbolTable
 70
     3
  0
LTYPE
  5
11
100
AcDbSymbolTableRecord
100
AcDbLinetypeTableRecord
  2
ByBlock
 70
    64
  3

 72
    65
 73
     0
 40
0.0
  0
LTYPE
  5
12
100
AcDbSymbolTableRecord
100
AcDbLinetypeTableRecord
  2
ByLayer
 70
    64
  3

 72
    65
 73
     0
 40
0.0
  0
LTYPE
  5
13
100
AcDbSymbolTableRecord
100
AcDbLinetypeTableRecord
  2
Continuous
 70
    64
  3
Solid line
 72
    65
 73
     0
 40
0.0
  0
ENDTAB
  0
TABLE
  2
LAYER
  5
2
100
AcDbSymbolTable
 70
     2
  0
LAYER
  5
14
100
AcDbSymbolTableRecord
100
AcDbLayerTableRecord
  2
0
 70
     0
 62
     7
  6
Continuous
290
     1
370
    -3
390
1D
  0
LAYER
  5
24
100
AcDbSymbolTableRecord
100
AcDbLayerTableRecord
  2
Ebene 1
 70
     0
 62
     7
  6
Continuous
290
     1
370
    -3
390
1F
  0
ENDTAB
  0
TABLE
  2
STYLE
  5
3
100
AcDbSymbolTable
 70
     1
  0
STYLE
  5
17
100
AcDbSymbolTableRecord
100
AcDbTextStyleTableRecord
  2
Standard
 70
     0
 40
0.0
 41
1.0
 50
0.0
 71
     0
 42
0.0
  3
txt
  4

  0
ENDTAB
  0
TABLE
  2
VIEW
  5
5
100
AcDbSymbolTable
 70
     0
  0
ENDTAB
  0
TABLE
  2
UCS
  5
6
100
AcDbSymbolTable
 70
     0
  0
ENDTAB
  0
TABLE
  2
APPID
  5
8
100
AcDbSymbolTable
 70
     1
  0
APPID
  5
16
100
AcDbSymbolTableRecord
100
AcDbRegAppTableRecord
  2
ACAD
 70
     0
  0
ENDTAB
  0
TABLE
  2
DIMSTYLE
  5
9
100
AcDbSymbolTable
 70
     1
100
AcDbDimStyleTable
 71
     0
  0
DIMSTYLE
105
18
100
AcDbSymbolTableRecord
100
AcDbDimStyleTableRecord
  2
Standard
 70
     0
  3

  4

 40
1.0
 41
0.18
 42
0.0625
 43
0.38
 44
0.18
 45
0.0
 46
0.0
 47
0.0
 48
0.0
 71
     0
 72
     0
 73
     1
 74
     1
 75
     0
 76
     0
 77
     0
 78
     0
 79
     0
140
0.18
141
0.09
142
0.0
143
25.4
144
1.0
145
0.0
146
1.0
147
0.09
148
0.0
170
     0
171
     2
172
     0
173
     0
174
     0
175
     0
176
     0
177
     0
178
     0
179
     0
271
     4
272
     4
273
     2
274
     2
275
     0
276
     0
277
     2
278
    46
279
     0
280
     0
281
     0
282
     0
283
     1
284
     0
285
     0
286
     0
288
     0
340
17
341
0
342
0
343
0
344
0
371
    -2
372
    -2
  0
ENDTAB
  0
TABLE
  2
BLOCK_RECORD
  5
1
100
AcDbSymbolTable
 70
     0
  0
BLOCK_RECORD
  5
A
100
AcDbSymbolTableRecord
100
AcDbBlockTableRecord
  2
*MODEL_SPACE
340
20
  0
BLOCK_RECORD
  5
B
100
AcDbSymbolTableRecord
100
AcDbBlockTableRecord
  2
*PAPER_SPACE
340
21
  0
ENDTAB
  0
ENDSEC
  0
SECTION
  2
BLOCKS
  0
BLOCK
  5
D
100
AcDbEntity
  8
0
100
AcDbBlockBegin
  2
*MODEL_SPACE
 70
     0
 10
0.0
 20
0.0
 30
0.0
  3
*MODEL_SPACE
  1

  0
ENDBLK
  5
E
100
AcDbEntity
  8
0
100
AcDbBlockEnd
  0
BLOCK
  5
F
100
AcDbEntity
 67
     1
  8
0
100
AcDbBlockBegin
  2
*PAPER_SPACE
 70
     0
 10
0.0
 20
0.0
 30
0.0
  3
*PAPER_SPACE
  1

  0
ENDBLK
  5
10
100
AcDbEntity
 67
     1
  8
0
100
AcDbBlockEnd
  0
ENDSEC
  0
SECTION
  2
ENTITIES
  0
SPLINE
  5
25
100
AcDbEntity
  8
Ebene 1
100
AcDbSpline
210
0.0
220
0.0
230
1.0
 70
     1
 71
     3
 72
   108
 73
   104
 74
     0
 42
0.0000000001
 43
0.0000000001
 40
0.0
 40
0.0
 40
0.0
 40
0.0
 40
0.0384615384615385
 40
0.0384615384615385
 40
0.0384615384615385
 40
0.0384615384615385
 40
0.0769230769230769
 40
0.0769230769230769
 40
0.0769230769230769
 40
0.0769230769230769
 40
0.1153846153846154
 40
0.1153846153846154
 40
0.1153846153846154
 40
0.1153846153846154
 40
0.1538461538461539
 40
0.1538461538461539
 40
0.1538461538461539
 40
0.1538461538461539
 40
0.1923076923076923
 40
0.1923076923076923
 40
0.1923076923076923
 40
0.1923076923076923
 40
0.2307692307692308
 40
0.2307692307692308
 40
0.2307692307692308
 40
0.2307692307692308
 40
0.2692307692307693
 40
0.2692307692307693
 40
0.2692307692307693
 40
0.2692307692307693
 40
0.3076923076923077
 40
0.3076923076923077
 40
0.3076923076923077
 40
0.3076923076923077
 40
0.3461538461538462
 40
0.3461538461538462
 40
0.3461538461538462
 40
0.3461538461538462
 40
0.3846153846153846
 40
0.3846153846153846
 40
0.3846153846153846
 40
0.3846153846153846
 40
0.423076923076923
 40
0.423076923076923
 40
0.423076923076923
 40
0.423076923076923
 40
0.4615384615384615
 40
0.4615384615384615
 40
0.4615384615384615
 40
0.4615384615384615
 40
0.4999999999999999
 40
0.4999999999999999
 40
0.4999999999999999
 40
0.4999999999999999
 40
0.5384615384615383
 40
0.5384615384615383
 40
0.5384615384615383
 40
0.5384615384615383
 40
0.5769230769230768
 40
0.5769230769230768
 40
0.5769230769230768
 40
0.5769230769230768
 40
0.6153846153846152
 40
0.6153846153846152
 40
0.6153846153846152
 40
0.6153846153846152
 40
0.6538461538461536
 40
0.6538461538461536
 40
0.6538461538461536
 40
0.6538461538461536
 40
0.6923076923076921
 40
0.6923076923076921
 40
0.6923076923076921
 40
0.6923076923076921
 40
0.7307692307692305
 40
0.7307692307692305
 40
0.7307692307692305
 40
0.7307692307692305
 40
0.7692307692307689
 40
0.7692307692307689
 40
0.7692307692307689
 40
0.7692307692307689
 40
0.8076923076923074
 40
0.8076923076923074
 40
0.8076923076923074
 40
0.8076923076923074
 40
0.8461538461538458
 40
0.8461538461538458
 40
0.8461538461538458
 40
0.8461538461538458
 40
0.8846153846153843
 40
0.8846153846153843
 40
0.8846153846153843
 40
0.8846153846153843
 40
0.9230769230769227
 40
0.9230769230769227
 40
0.9230769230769227
 40
0.9230769230769227
 40
0.9615384615384611
 40
0.9615384615384611
 40
0.9615384615384611
 40
0.9615384615384611
 40
1.0
 40
1.0
 40
1.0
 40
1.0
 10
0.57418
 20
6.5551700000000004
 30
0.0
 10
1.6638400000000002
 20
6.4764300000000006
 30
0.0
 10
2.7941400000000001
 20
5.8515900000000007
 30
0.0
 10
3.2919800000000001
 20
4.9879900000000008
 30
0.0
 10
3.2919800000000001
 20
4.9879900000000008
 30
0.0
 10
3.3554800000000005
 20
5.0819700000000001
 30
0.0
 10
3.3123000000000005
 20
5.4121700000000006
 30
0.0
 10
3.4723200000000003
 20
5.3334300000000008
 30
0.0
 10
3.4723200000000003
 20
5.3334300000000008
 30
0.0
 10
3.8888800000000003
 20
4.5815900000000003
 30
0.0
 10
3.6831400000000003
 20
3.6722700000000001
 30
0.0
 10
3.9295200000000001
 20
2.88741
 30
0.0
 10
3.9295200000000001
 20
2.88741
 30
0.0
 10
3.6094800000000005
 20
2.3540100000000002
 30
0.0
 10
3.6653600000000002
 20
1.8206100000000001
 30
0.0
 10
3.9371400000000003
 20
1.27197
 30
0.0
 10
3.9371400000000003
 20
1.27197
 30
0.0
 10
3.8406200000000004
 20
0.8020700000000001
 30
0.0
 10
3.5180400000000005
 20
0.7563500000000001
 30
0.0
 10
3.4266000000000001
 20
0.48965
 30
0.0
 10
3.4266000000000001
 20
0.48965
 30
0.0
 10
3.2767400000000002
 20
0.05531
 30
0.0
 10
3.3427800000000003
 20
-0.36632
 30
0.0
 10
3.3656400000000004
 20
-0.8667
 30
0.0
 10
3.3656400000000004
 20
-0.8667
 30
0.0
 10
3.3808800000000003
 20
-1.1562600000000001
 30
0.0
 10
3.2716600000000002
 20
-1.3493000000000002
 30
0.0
 10
3.2665800000000003
 20
-1.6490200000000002
 30
0.0
 10
3.2665800000000003
 20
-1.6490200000000002
 30
0.0
 10
3.2615000000000003
 20
-1.9665200000000003
 30
0.0
 10
3.6145600000000004
 20
-2.35514
 30
0.0
 10
3.3148400000000002
 20
-2.6599400000000002
 30
0.0
 10
3.3148400000000002
 20
-2.6599400000000002
 30
0.0
 10
2.7839800000000001
 20
-2.86314
 30
0.0
 10
2.1591400000000003
 20
-2.9088600000000002
 30
0.0
 10
1.6105
 20
-2.9571200000000002
 30
0.0
 10
1.6105
 20
-2.9571200000000002
 30
0.0
 10
0.8027800000000001
 20
-2.4415
 30
0.0
 10
-0.10653
 20
-1.9538200000000001
 30
0.0
 10
-0.11669
 20
-0.8565400000000001
 30
0.0
 10
-0.11669
 20
-0.8565400000000001
 30
0.0
 10
-0.11669
 20
-0.8565400000000001
 30
0.0
 10
-0.4291100000000001
 20
-0.32314
 30
0.0
 10
-0.4291100000000001
 20
-0.32314
 30
0.0
 10
-0.4291100000000001
 20
-0.32314
 30
0.0
 10
-1.1403100000000002
 20
-0.25964
 30
0.0
 10
-1.71435
 20
0.06547
 30
0.0
 10
-2.3976100000000002
 20
0.30169
 30
0.0
 10
-2.3976100000000002
 20
0.30169
 30
0.0
 10
-2.4179300000000001
 20
-0.02596
 30
0.0
 10
-2.0293100000000002
 20
-0.21392
 30
0.0
 10
-2.1817100000000003
 20
-0.5593600000000001
 30
0.0
 10
-2.1817100000000003
 20
-0.5593600000000001
 30
0.0
 10
-2.01661
 20
-1.9538200000000001
 30
0.0
 10
-0.8101100000000001
 20
-3.2238200000000004
 30
0.0
 10
-1.1352300000000002
 20
-4.7275
 30
0.0
 10
-1.1352300000000002
 20
-4.7275
 30
0.0
 10
-1.4679700000000002
 20
-4.7452800000000002
 30
0.0
 10
-1.8997700000000002
 20
-4.00868
 30
0.0
 10
-2.05471
 20
-4.2753800000000002
 30
0.0
 10
-2.05471
 20
-4.2753800000000002
 30
0.0
 10
-1.8337300000000001
 20
-4.9789600000000007
 30
0.0
 10
-1.84135
 20
-5.8730400000000005
 30
0.0
 10
-2.10297
 20
-6.5613800000000007
 30
0.0
 10
-2.10297
 20
-6.5613800000000007
 30
0.0
 10
-2.6236700000000002
 20
-6.2184800000000005
 30
0.0
 10
-2.9056100000000002
 20
-5.5758600000000005
 30
0.0
 10
-3.1164300000000003
 20
-5.0577000000000005
 30
0.0
 10
-3.1164300000000003
 20
-5.0577000000000005
 30
0.0
 10
-3.6422100000000004
 20
-3.1933400000000001
 30
0.0
 10
-3.7946100000000005
 20
-1.3264400000000001
 30
0.0
 10
-3.3424900000000002
 20
0.5683900000000001
 30
0.0
 10
-3.3424900000000002
 20
0.5683900000000001
 30
0.0
 10
-3.5837900000000005
 20
0.01975
 30
0.0
 10
-3.4974300000000005
 20
-0.6685800000000001
 30
0.0
 10
-3.7844500000000001
 20
-1.20198
 30
0.0
 10
-3.7844500000000001
 20
-1.20198
 30
0.0
 10
-3.8479500000000004
 20
-1.2172200000000002
 30
0.0
 10
-3.9012900000000004
 20
-1.1537200000000001
 30
0.0
 10
-3.9317700000000002
 20
-1.1080000000000001
 30
0.0
 10
-3.9317700000000002
 20
-1.1080000000000001
 30
0.0
 10
-3.5456900000000005
 20
-0.15042
 30
0.0
 10
-3.5888700000000004
 20
0.7563500000000001
 30
0.0
 10
-3.1697700000000002
 20
1.6809100000000001
 30
0.0
 10
-3.1697700000000002
 20
1.6809100000000001
 30
0.0
 10
-3.3374100000000002
 20
2.9331300000000002
 30
0.0
 10
-3.8301700000000003
 20
4.17265
 30
0.0
 10
-3.3374100000000002
 20
5.5061500000000008
 30
0.0
 10
-3.3374100000000002
 20
5.5061500000000008
 30
0.0
 10
-3.0605500000000001
 20
5.5366300000000006
 30
0.0
 10
-3.1316700000000002
 20
5.0819700000000001
 30
0.0
 10
-3.0275300000000001
 20
4.9244900000000005
 30
0.0
 10
-3.0275300000000001
 20
4.9244900000000005
 30
0.0
 10
-2.8852900000000004
 20
5.1149900000000006
 30
0.0
 10
-2.9056100000000002
 20
5.4121700000000006
 30
0.0
 10
-2.7100300000000002
 20
5.6001300000000001
 30
0.0
 10
-2.7100300000000002
 20
5.6001300000000001
 30
0.0
 10
-2.5881100000000004
 20
5.7245900000000001
 30
0.0
 10
-2.5754100000000002
 20
5.5061500000000008
 30
0.0
 10
-2.4788900000000003
 20
5.4578900000000008
 30
0.0
 10
-2.4788900000000003
 20
5.4578900000000008
 30
0.0
 10
-1.6203700000000001
 20
6.1944900000000009
 30
0.0
 10
-0.4926100000000001
 20
6.4154700000000009
 30
0.0
 10
0.57418
 20
6.5551700000000004
 30
0.0
  0
SPLINE
  5
26
100
AcDbEntity
  8
Ebene 1
 62
     7
100
AcDbSpline
210
0.0
220
0.0
230
1.0
 70
     1
 71
     3
 72
    64
 73
    60
 74
     0
 42
0.0000000001
 43
0.0000000001
 40
0.0
 40
0.0
 40
0.0
 40
0.0
 40
0.0666666666666667
 40
0.0666666666666667
 40
0.0666666666666667
 40
0.0666666666666667
 40
0.1333333333333333
 40
0.1333333333333333
 40
0.1333333333333333
 40
0.1333333333333333
 40
0.2
 40
0.2
 40
0.2
 40
0.2
 40
0.2666666666666667
 40
0.2666666666666667
 40
0.2666666666666667
 40
0.2666666666666667
 40
0.3333333333333333
 40
0.3333333333333333
 40
0.3333333333333333
 40
0.3333333333333333
 40
0.4
 40
0.4
 40
0.4
 40
0.4
 40
0.4666666666666666
 40
0.4666666666666666
 40
0.4666666666666666
 40
0.4666666666666666
 40
0.5333333333333333
 40
0.5333333333333333
 40
0.5333333333333333
 40
0.5333333333333333
 40
0.6
 40
0.6
 40
0.6
 40
0.6
 40
0.6666666666666666
 40
0.6666666666666666
 40
0.6666666666666666
 40
0.6666666666666666
 40
0.7333333333333333
 40
0.7333333333333333
 40
0.7333333333333333
 40
0.7333333333333333
 40
0.7999999999999999
 40
0.7999999999999999
 40
0.7999999999999999
 40
0.7999999999999999
 40
0.8666666666666666
 40
0.8666666666666666
 40
0.8666666666666666
 40
0.8666666666666666
 40
0.9333333333333332
 40
0.9333333333333332
 40
0.9333333333333332
 40
0.9333333333333332
 40
1.0
 40
1.0
 40
1.0
 40
1.0
 10
0.2617600000000001
 20
6.3672100000000009
 30
0.0
 10
1.5546200000000001
 20
6.4154700000000009
 30
0.0
 10
3.1751400000000003
 20
5.7093500000000006
 30
0.0
 10
3.2996000000000003
 20
4.2844100000000003
 30
0.0
 10
3.2996000000000003
 20
4.2844100000000003
 30
0.0
 10
3.1675200000000001
 20
4.04819
 30
0.0
 10
2.9135200000000001
 20
4.04819
 30
0.0
 10
2.67476
 20
3.9389700000000003
 30
0.0
 10
2.67476
 20
3.9389700000000003
 30
0.0
 10
2.5122
 20
4.04819
 30
0.0
 10
2.5045800000000003
 20
4.3148900000000001
 30
0.0
 10
2.3318600000000003
 20
4.3758500000000007
 30
0.0
 10
2.3318600000000003
 20
4.3758500000000007
 30
0.0
 10
2.20486
 20
4.2209099999999999
 30
0.0
 10
2.09056
 20
4.04819
 30
0.0
 10
2.0143600000000004
 20
3.8449900000000001
 30
0.0
 10
2.0143600000000004
 20
3.8449900000000001
 30
0.0
 10
2.0143600000000004
 20
3.8449900000000001
 30
0.0
 10
0.83072
 20
3.9542100000000002
 30
0.0
 10
0.83072
 20
3.9542100000000002
 30
0.0
 10
0.83072
 20
3.9542100000000002
 30
0.0
 10
0.6707000000000001
 20
4.2513900000000007
 30
0.0
 10
0.7951600000000001
 20
4.7695500000000006
 30
0.0
 10
0.43448
 20
4.9244900000000005
 30
0.0
 10
0.43448
 20
4.9244900000000005
 30
0.0
 10
0.0738
 20
4.6577900000000003
 30
0.0
 10
0.48528
 20
3.8449900000000001
 30
0.0
 10
-0.10653
 20
3.9211900000000002
 30
0.0
 10
-0.10653
 20
3.9211900000000002
 30
0.0
 10
-0.21321
 20
4.17265
 30
0.0
 10
-0.15987
 20
4.6908100000000008
 30
0.0
 10
-0.5154700000000001
 20
4.7212900000000007
 30
0.0
 10
-0.5154700000000001
 20
4.7212900000000007
 30
0.0
 10
-0.7085100000000001
 20
4.34537
 30
0.0
 10
-0.57389
 20
3.6544900000000005
 30
0.0
 10
-1.1733300000000002
 20
3.7484700000000002
 30
0.0
 10
-1.1733300000000002
 20
3.7484700000000002
 30
0.0
 10
-1.38161
 20
4.0304100000000007
 30
0.0
 10
-1.1961900000000001
 20
4.46983
 30
0.0
 10
-1.4755900000000002
 20
4.7060500000000003
 30
0.0
 10
-1.4755900000000002
 20
4.7060500000000003
 30
0.0
 10
-1.8896100000000002
 20
4.5815900000000003
 30
0.0
 10
-1.54671
 20
3.6722700000000001
 30
0.0
 10
-2.1309100000000001
 20
3.7814900000000002
 30
0.0
 10
-2.1309100000000001
 20
3.7814900000000002
 30
0.0
 10
-2.3214100000000002
 20
4.0786700000000007
 30
0.0
 10
-2.06995
 20
4.6577900000000003
 30
0.0
 10
-2.4585700000000004
 20
4.8152700000000008
 30
0.0
 10
-2.4585700000000004
 20
4.8152700000000008
 30
0.0
 10
-2.4585700000000004
 20
4.8152700000000008
 30
0.0
 10
-2.5220700000000003
 20
4.6908100000000008
 30
0.0
 10
-2.5220700000000003
 20
4.6908100000000008
 30
0.0
 10
-2.5220700000000003
 20
4.6908100000000008
 30
0.0
 10
-2.6617700000000002
 20
4.5028500000000005
 30
0.0
 10
-2.5881100000000004
 20
4.2209099999999999
 30
0.0
 10
-2.7151100000000001
 20
4.04819
 30
0.0
 10
-2.7151100000000001
 20
4.04819
 30
0.0
 10
-2.9310100000000001
 20
5.6458500000000003
 30
0.0
 10
-0.9802900000000001
 20
6.2427500000000009
 30
0.0
 10
0.2617600000000001
 20
6.3672100000000009
 30
0.0
  0
SPLINE
  5
27
100
AcDbEntity
  8
Ebene 1
100
AcDbSpline
210
0.0
220
0.0
230
1.0
 70
     1
 71
     3
 72
    20
 73
    16
 74
     0
 42
0.0000000001
 43
0.0000000001
 40
0.0
 40
0.0
 40
0.0
 40
0.0
 40
0.25
 40
0.25
 40
0.25
 40
0.25
 40
0.5
 40
0.5
 40
0.5
 40
0.5
 40
0.75
 40
0.75
 40
0.75
 40
0.75
 40
1.0
 40
1.0
 40
1.0
 40
1.0
 10
0.9196200000000001
 20
5.8363500000000004
 30
0.0
 10
0.9856600000000001
 20
5.8363500000000004
 30
0.0
 10
1.0466200000000001
 20
5.8363500000000004
 30
0.0
 10
1.10504
 20
5.8185700000000002
 30
0.0
 10
1.10504
 20
5.8185700000000002
 30
0.0
 10
1.2472800000000002
 20
5.5696500000000002
 30
0.0
 10
1.7756000000000001
 20
5.5696500000000002
 30
0.0
 10
1.8721200000000002
 20
5.2394500000000006
 30
0.0
 10
1.8721200000000002
 20
5.2394500000000006
 30
0.0
 10
1.5749400000000002
 20
5.4578900000000008
 30
0.0
 10
1.2168000000000001
 20
5.6306100000000008
 30
0.0
 10
0.8764400000000001
 20
5.77285
 30
0.0
 10
0.8764400000000001
 20
5.77285
 30
0.0
 10
0.8764400000000001
 20
5.77285
 30
0.0
 10
0.9196200000000001
 20
5.8363500000000004
 30
0.0
 10
0.9196200000000001
 20
5.8363500000000004
 30
0.0
  0
SPLINE
  5
28
100
AcDbEntity
  8
Ebene 1
 62
     7
100
AcDbSpline
210
0.0
220
0.0
230
1.0
 70
     1
 71
     3
 72
    20
 73
    16
 74
     0
 42
0.0000000001
 43
0.0000000001
 40
0.0
 40
0.0
 40
0.0
 40
0.0
 40
0.25
 40
0.25
 40
0.25
 40
0.25
 40
0.5
 40
0.5
 40
0.5
 40
0.5
 40
0.75
 40
0.75
 40
0.75
 40
0.75
 40
1.0
 40
1.0
 40
1.0
 40
1.0
 10
-3.2789900000000003
 20
5.2394500000000006
 30
0.0
 10
-3.1291300000000004
 20
5.2242100000000002
 30
0.0
 10
-3.1951700000000001
 20
5.0337100000000001
 30
0.0
 10
-3.1723100000000004
 20
4.9244900000000005
 30
0.0
 10
-3.1723100000000004
 20
4.9244900000000005
 30
0.0
 10
-3.1926300000000003
 20
4.9092500000000001
 30
0.0
 10
-3.2027900000000002
 20
4.8940100000000006
 30
0.0
 10
-3.2332700000000001
 20
4.8940100000000006
 30
0.0
 10
-3.2332700000000001
 20
4.8940100000000006
 30
0.0
 10
-3.3374100000000002
 20
4.9727500000000004
 30
0.0
 10
-3.1850100000000001
 20
5.1149900000000006
 30
0.0
 10
-3.2942300000000002
 20
5.1911900000000006
 30
0.0
 10
-3.2942300000000002
 20
5.1911900000000006
 30
0.0
 10
-3.2942300000000002
 20
5.1911900000000006
 30
0.0
 10
-3.2789900000000003
 20
5.2394500000000006
 30
0.0
 10
-3.2789900000000003
 20
5.2394500000000006
 30
0.0
  0
SPLINE
  5
29
100
AcDbEntity
  8
Ebene 1
 62
     7
100
AcDbSpline
210
0.0
220
0.0
230
1.0
 70
     1
 71
     3
 72
    12
 73
     8
 74
     0
 42
0.0000000001
 43
0.0000000001
 40
0.0
 40
0.0
 40
0.0
 40
0.0
 40
0.5
 40
0.5
 40
0.5
 40
0.5
 40
1.0
 40
1.0
 40
1.0
 40
1.0
 10
3.4113600000000002
 20
5.0032300000000003
 30
0.0
 10
3.4113600000000002
 20
5.0032300000000003
 30
0.0
 10
3.4570800000000004
 20
4.7847900000000001
 30
0.0
 10
3.4570800000000004
 20
4.7847900000000001
 30
0.0
 10
3.4570800000000004
 20
4.7847900000000001
 30
0.0
 10
3.3453200000000001
 20
4.7695500000000006
 30
0.0
 10
3.4215200000000001
 20
4.9422700000000006
 30
0.0
 10
3.4113600000000002
 20
5.0032300000000003
 30
0.0
  0
SPLINE
  5
2A
100
AcDbEntity
  8
Ebene 1
 62
     7
100
AcDbSpline
210
0.0
220
0.0
230
1.0
 70
     1
 71
     3
 72
    28
 73
    24
 74
     0
 42
0.0000000001
 43
0.0000000001
 40
0.0
 40
0.0
 40
0.0
 40
0.0
 40
0.1666666666666667
 40
0.1666666666666667
 40
0.1666666666666667
 40
0.1666666666666667
 40
0.3333333333333333
 40
0.3333333333333333
 40
0.3333333333333333
 40
0.3333333333333333
 40
0.5
 40
0.5
 40
0.5
 40
0.5
 40
0.6666666666666666
 40
0.6666666666666666
 40
0.6666666666666666
 40
0.6666666666666666
 40
0.8333333333333333
 40
0.8333333333333333
 40
0.8333333333333333
 40
0.8333333333333333
 40
1.0
 40
1.0
 40
1.0
 40
1.0
 10
-3.1850100000000001
 20
4.8482900000000004
 30
0.0
 10
-3.1850100000000001
 20
4.8482900000000004
 30
0.0
 10
-3.1215100000000002
 20
4.8305100000000003
 30
0.0
 10
-3.1215100000000002
 20
4.8305100000000003
 30
0.0
 10
-3.1215100000000002
 20
4.8305100000000003
 30
0.0
 10
-3.0961100000000004
 20
4.4088700000000003
 30
0.0
 10
-3.4288500000000002
 20
4.0939100000000002
 30
0.0
 10
-3.3424900000000002
 20
3.6722700000000001
 30
0.0
 10
-3.3424900000000002
 20
3.6722700000000001
 30
0.0
 10
-3.3882100000000004
 20
3.6240100000000002
 30
0.0
 10
-3.3170900000000003
 20
3.5147900000000001
 30
0.0
 10
-3.3882100000000004
 20
3.4995500000000002
 30
0.0
 10
-3.3882100000000004
 20
3.4995500000000002
 30
0.0
 10
-3.4821900000000001
 20
3.8272100000000004
 30
0.0
 10
-3.3450300000000004
 20
4.1878900000000003
 30
0.0
 10
-3.3983700000000003
 20
4.5333300000000003
 30
0.0
 10
-3.3983700000000003
 20
4.5333300000000003
 30
0.0
 10
-3.3983700000000003
 20
4.5333300000000003
 30
0.0
 10
-3.2510500000000002
 20
4.5968300000000006
 30
0.0
 10
-3.2510500000000002
 20
4.5968300000000006
 30
0.0
 10
-3.2510500000000002
 20
4.5968300000000006
 30
0.0
 10
-3.3450300000000004
 20
4.64255
 30
0.0
 10
-3.2967700000000004
 20
4.8305100000000003
 30
0.0
 10
-3.1850100000000001
 20
4.8482900000000004
 30
0.0
  0
SPLINE
  5
2B
100
AcDbEntity
  8
Ebene 1
 62
     7
100
AcDbSpline
210
0.0
220
0.0
230
1.0
 70
     1
 71
     3
 72
    12
 73
     8
 74
     0
 42
0.0000000001
 43
0.0000000001
 40
0.0
 40
0.0
 40
0.0
 40
0.0
 40
0.5
 40
0.5
 40
0.5
 40
0.5
 40
1.0
 40
1.0
 40
1.0
 40
1.0
 10
3.4443800000000002
 20
4.6908100000000008
 30
0.0
 10
3.5028000000000001
 20
4.7060500000000003
 30
0.0
 10
3.5434400000000004
 20
4.5968300000000006
 30
0.0
 10
3.4875600000000002
 20
4.5663500000000008
 30
0.0
 10
3.4875600000000002
 20
4.5663500000000008
 30
0.0
 10
3.4012000000000002
 20
4.5333300000000003
 30
0.0
 10
3.4291400000000003
 20
4.64255
 30
0.0
 10
3.4443800000000002
 20
4.6908100000000008
 30
0.0
  0
SPLINE
  5
2C
100
AcDbEntity
  8
Ebene 1
 62
     7
100
AcDbSpline
210
0.0
220
0.0
230
1.0
 70
     1
 71
     3
 72
    20
 73
    16
 74
     0
 42
0.0000000001
 43
0.0000000001
 40
0.0
 40
0.0
 40
0.0
 40
0.0
 40
0.25
 40
0.25
 40
0.25
 40
0.25
 40
0.5
 40
0.5
 40
0.5
 40
0.5
 40
0.75
 40
0.75
 40
0.75
 40
0.75
 40
1.0
 40
1.0
 40
1.0
 40
1.0
 10
0.51322
 20
4.6755700000000004
 30
0.0
 10
0.51322
 20
4.6755700000000004
 30
0.0
 10
0.5564
 20
4.6755700000000004
 30
0.0
 10
0.5564
 20
4.6755700000000004
 30
0.0
 10
0.5564
 20
4.6755700000000004
 30
0.0
 10
0.61482
 20
4.5180899999999999
 30
0.0
 10
0.658
 20
4.3758500000000007
 30
0.0
 10
0.6503800000000001
 20
4.2031300000000007
 30
0.0
 10
0.6503800000000001
 20
4.2031300000000007
 30
0.0
 10
0.59958
 20
4.1574100000000005
 30
0.0
 10
0.5183000000000001
 20
4.17265
 30
0.0
 10
0.4548
 20
4.17265
 30
0.0
 10
0.4548
 20
4.17265
 30
0.0
 10
0.42178
 20
4.34537
 30
0.0
 10
0.4294000000000001
 20
4.5180899999999999
 30
0.0
 10
0.51322
 20
4.6755700000000004
 30
0.0
  0
SPLINE
  5
2D
100
AcDbEntity
  8
Ebene 1
 62
     7
100
AcDbSpline
210
0.0
220
0.0
230
1.0
 70
     1
 71
     3
 72
    16
 73
    12
 74
     0
 42
0.0000000001
 43
0.0000000001
 40
0.0
 40
0.0
 40
0.0
 40
0.0
 40
0.3333333333333333
 40
0.3333333333333333
 40
0.3333333333333333
 40
0.3333333333333333
 40
0.6666666666666666
 40
0.6666666666666666
 40
0.6666666666666666
 40
0.6666666666666666
 40
1.0
 40
1.0
 40
1.0
 40
1.0
 10
-2.9335500000000003
 20
4.6120700000000001
 30
0.0
 10
-2.8573500000000003
 20
4.5333300000000003
 30
0.0
 10
-2.8776700000000002
 20
4.4088700000000003
 30
0.0
 10
-2.8751300000000004
 20
4.2996500000000006
 30
0.0
 10
-2.8751300000000004
 20
4.2996500000000006
 30
0.0
 10
-2.8751300000000004
 20
4.2996500000000006
 30
0.0
 10
-2.94625
 20
4.2844100000000003
 30
0.0
 10
-2.94625
 20
4.2844100000000003
 30
0.0
 10
-2.94625
 20
4.2844100000000003
 30
0.0
 10
-2.9284700000000004
 20
4.3936299999999999
 30
0.0
 10
-2.8979900000000001
 20
4.5028500000000005
 30
0.0
 10
-2.9335500000000003
 20
4.6120700000000001
 30
0.0
  0
SPLINE
  5
2E
100
AcDbEntity
  8
Ebene 1
 62
     7
100
AcDbSpline
210
0.0
220
0.0
230
1.0
 70
     1
 71
     3
 72
    12
 73
     8
 74
     0
 42
0.0000000001
 43
0.0000000001
 40
0.0
 40
0.0
 40
0.0
 40
0.0
 40
0.5
 40
0.5
 40
0.5
 40
0.5
 40
1.0
 40
1.0
 40
1.0
 40
1.0
 10
-2.4636500000000003
 20
4.5815900000000003
 30
0.0
 10
-2.3899900000000001
 20
4.5663500000000008
 30
0.0
 10
-2.4534900000000004
 20
4.4545900000000005
 30
0.0
 10
-2.4915900000000004
 20
4.4393500000000001
 30
0.0
 10
-2.4915900000000004
 20
4.4393500000000001
 30
0.0
 10
-2.4915900000000004
 20
4.4393500000000001
 30
0.0
 10
-2.4636500000000003
 20
4.5815900000000003
 30
0.0
 10
-2.4636500000000003
 20
4.5815900000000003
 30
0.0
  0
SPLINE
  5
2F
100
AcDbEntity
  8
Ebene 1
 62
     7
100
AcDbSpline
210
0.0
220
0.0
230
1.0
 70
     1
 71
     3
 72
    24
 73
    20
 74
     0
 42
0.0000000001
 43
0.0000000001
 40
0.0
 40
0.0
 40
0.0
 40
0.0
 40
0.2
 40
0.2
 40
0.2
 40
0.2
 40
0.4
 40
0.4
 40
0.4
 40
0.4
 40
0.6000000000000001
 40
0.6000000000000001
 40
0.6000000000000001
 40
0.6000000000000001
 40
0.8
 40
0.8
 40
0.8
 40
0.8
 40
1.0
 40
1.0
 40
1.0
 40
1.0
 10
-0.45705
 20
4.5815900000000003
 30
0.0
 10
-0.30973
 20
4.46983
 30
0.0
 10
-0.28687
 20
4.2361500000000003
 30
0.0
 10
-0.28941
 20
4.04819
 30
0.0
 10
-0.28941
 20
4.04819
 30
0.0
 10
-0.28941
 20
4.04819
 30
0.0
 10
-0.37831
 20
4.0177100000000001
 30
0.0
 10
-0.37831
 20
4.0177100000000001
 30
0.0
 10
-0.37831
 20
4.0177100000000001
 30
0.0
 10
-0.4799100000000001
 20
4.1421700000000001
 30
0.0
 10
-0.33005
 20
4.34537
 30
0.0
 10
-0.4367300000000001
 20
4.46983
 30
0.0
 10
-0.4367300000000001
 20
4.46983
 30
0.0
 10
-0.55611
 20
4.3301300000000005
 30
0.0
 10
-0.4062500000000001
 20
4.1421700000000001
 30
0.0
 10
-0.5027700000000001
 20
4.0177100000000001
 30
0.0
 10
-0.5027700000000001
 20
4.0177100000000001
 30
0.0
 10
-0.57135
 20
4.17265
 30
0.0
 10
-0.5180100000000001
 20
4.4241100000000007
 30
0.0
 10
-0.45705
 20
4.5815900000000003
 30
0.0
  0
SPLINE
  5
30
100
AcDbEntity
  8
Ebene 1
 62
     7
100
AcDbSpline
210
0.0
220
0.0
230
1.0
 70
     1
 71
     3
 72
    12
 73
     8
 74
     0
 42
0.0000000001
 43
0.0000000001
 40
0.0
 40
0.0
 40
0.0
 40
0.0
 40
0.5
 40
0.5
 40
0.5
 40
0.5
 40
1.0
 40
1.0
 40
1.0
 40
1.0
 10
-3.0275300000000001
 20
4.5485700000000007
 30
0.0
 10
-2.9614900000000004
 20
4.4850700000000003
 30
0.0
 10
-2.9970500000000002
 20
4.34537
 30
0.0
 10
-3.0605500000000001
 20
4.2996500000000006
 30
0.0
 10
-3.0605500000000001
 20
4.2996500000000006
 30
0.0
 10
-3.1037300000000001
 20
4.3758500000000007
 30
0.0
 10
-3.0605500000000001
 20
4.46983
 30
0.0
 10
-3.0275300000000001
 20
4.5485700000000007
 30
0.0
  0
SPLINE
  5
31
100
AcDbEntity
  8
Ebene 1
 62
     7
100
AcDbSpline
210
0.0
220
0.0
230
1.0
 70
     1
 71
     3
 72
    20
 73
    16
 74
     0
 42
0.0000000001
 43
0.0000000001
 40
0.0
 40
0.0
 40
0.0
 40
0.0
 40
0.25
 40
0.25
 40
0.25
 40
0.25
 40
0.5
 40
0.5
 40
0.5
 40
0.5
 40
0.75
 40
0.75
 40
0.75
 40
0.75
 40
1.0
 40
1.0
 40
1.0
 40
1.0
 10
-1.4908300000000001
 20
4.5485700000000007
 30
0.0
 10
-1.3587500000000001
 20
4.3936299999999999
 30
0.0
 10
-1.37907
 20
4.1574100000000005
 30
0.0
 10
-1.3689100000000001
 20
3.9542100000000002
 30
0.0
 10
-1.3689100000000001
 20
3.9542100000000002
 30
0.0
 10
-1.4146300000000001
 20
3.9059500000000003
 30
0.0
 10
-1.4908300000000001
 20
3.9211900000000002
 30
0.0
 10
-1.54925
 20
3.9211900000000002
 30
0.0
 10
-1.54925
 20
3.9211900000000002
 30
0.0
 10
-1.5187700000000002
 20
4.0786700000000007
 30
0.0
 10
-1.3943100000000002
 20
4.3148900000000001
 30
0.0
 10
-1.54925
 20
4.4545900000000005
 30
0.0
 10
-1.54925
 20
4.4545900000000005
 30
0.0
 10
-1.54925
 20
4.4545900000000005
 30
0.0
 10
-1.4908300000000001
 20
4.5485700000000007
 30
0.0
 10
-1.4908300000000001
 20
4.5485700000000007
 30
0.0
  0
SPLINE
  5
32
100
AcDbEntity
  8
Ebene 1
 62
     7
100
AcDbSpline
210
0.0
220
0.0
230
1.0
 70
     1
 71
     3
 72
    24
 73
    20
 74
     0
 42
0.0000000001
 43
0.0000000001
 40
0.0
 40
0.0
 40
0.0
 40
0.0
 40
0.2
 40
0.2
 40
0.2
 40
0.2
 40
0.4
 40
0.4
 40
0.4
 40
0.4
 40
0.6000000000000001
 40
0.6000000000000001
 40
0.6000000000000001
 40
0.6000000000000001
 40
0.8
 40
0.8
 40
0.8
 40
0.8
 40
1.0
 40
1.0
 40
1.0
 40
1.0
 10
3.4596200000000001
 20
4.5028500000000005
 30
0.0
 10
3.4596200000000001
 20
4.5028500000000005
 30
0.0
 10
3.5663000000000005
 20
4.5028500000000005
 30
0.0
 10
3.5663000000000005
 20
4.5028500000000005
 30
0.0
 10
3.5663000000000005
 20
4.5028500000000005
 30
0.0
 10
3.6069400000000003
 20
4.2361500000000003
 30
0.0
 10
3.7110800000000004
 20
3.9211900000000002
 30
0.0
 10
3.6323400000000001
 20
3.6544900000000005
 30
0.0
 10
3.6323400000000001
 20
3.6544900000000005
 30
0.0
 10
3.6018600000000003
 20
3.6722700000000001
 30
0.0
 10
3.5637600000000003
 20
3.6722700000000001
 30
0.0
 10
3.5434400000000004
 20
3.6875100000000005
 30
0.0
 10
3.5434400000000004
 20
3.6875100000000005
 30
0.0
 10
3.5459800000000001
 20
3.9542100000000002
 30
0.0
 10
3.4723200000000003
 20
4.2031300000000007
 30
0.0
 10
3.4113600000000002
 20
4.4545900000000005
 30
0.0
 10
3.4113600000000002
 20
4.4545900000000005
 30
0.0
 10
3.4113600000000002
 20
4.4545900000000005
 30
0.0
 10
3.4596200000000001
 20
4.5028500000000005
 30
0.0
 10
3.4596200000000001
 20
4.5028500000000005
 30
0.0
  0
SPLINE
  5
33
100
AcDbEntity
  8
Ebene 1
 62
     7
100
AcDbSpline
210
0.0
220
0.0
230
1.0
 70
     1
 71
     3
 72
    16
 73
    12
 74
     0
 42
0.0000000001
 43
0.0000000001
 40
0.0
 40
0.0
 40
0.0
 40
0.0
 40
0.3333333333333333
 40
0.3333333333333333
 40
0.3333333333333333
 40
0.3333333333333333
 40
0.6666666666666666
 40
0.6666666666666666
 40
0.6666666666666666
 40
0.6666666666666666
 40
1.0
 40
1.0
 40
1.0
 40
1.0
 10
-2.4179300000000001
 20
4.3758500000000007
 30
0.0
 10
-2.4179300000000001
 20
4.3758500000000007
 30
0.0
 10
-2.3899900000000001
 20
4.3758500000000007
 30
0.0
 10
-2.3899900000000001
 20
4.3758500000000007
 30
0.0
 10
-2.3899900000000001
 20
4.3758500000000007
 30
0.0
 10
-2.3899900000000001
 20
4.3758500000000007
 30
0.0
 10
-2.35697
 20
4.1269300000000007
 30
0.0
 10
-2.35697
 20
4.1269300000000007
 30
0.0
 10
-2.35697
 20
4.1269300000000007
 30
0.0
 10
-2.4687300000000003
 20
4.1116900000000003
 30
0.0
 10
-2.43825
 20
4.3148900000000001
 30
0.0
 10
-2.4179300000000001
 20
4.3758500000000007
 30
0.0
  0
SPLINE
  5
34
100
AcDbEntity
  8
Ebene 1
 62
     7
100
AcDbSpline
210
0.0
220
0.0
230
1.0
 70
     1
 71
     3
 72
    12
 73
     8
 74
     0
 42
0.0000000001
 43
0.0000000001
 40
0.0
 40
0.0
 40
0.0
 40
0.0
 40
0.5
 40
0.5
 40
0.5
 40
0.5
 40
1.0
 40
1.0
 40
1.0
 40
1.0
 10
-1.58735
 20
4.34537
 30
0.0
 10
-1.4781300000000002
 20
4.2996500000000006
 30
0.0
 10
-1.5695700000000001
 20
4.1269300000000007
 30
0.0
 10
-1.6000500000000002
 20
4.04819
 30
0.0
 10
-1.6000500000000002
 20
4.04819
 30
0.0
 10
-1.6406900000000002
 20
4.1269300000000007
 30
0.0
 10
-1.6102100000000001
 20
4.2513900000000007
 30
0.0
 10
-1.58735
 20
4.34537
 30
0.0
  0
SPLINE
  5
35
100
AcDbEntity
  8
Ebene 1
 62
     7
100
AcDbSpline
210
0.0
220
0.0
230
1.0
 70
     1
 71
     3
 72
    36
 73
    32
 74
     0
 42
0.0000000001
 43
0.0000000001
 40
0.0
 40
0.0
 40
0.0
 40
0.0
 40
0.125
 40
0.125
 40
0.125
 40
0.125
 40
0.25
 40
0.25
 40
0.25
 40
0.25
 40
0.375
 40
0.375
 40
0.375
 40
0.375
 40
0.5
 40
0.5
 40
0.5
 40
0.5
 40
0.625
 40
0.625
 40
0.625
 40
0.625
 40
0.75
 40
0.75
 40
0.75
 40
0.75
 40
0.875
 40
0.875
 40
0.875
 40
0.875
 40
1.0
 40
1.0
 40
1.0
 40
1.0
 10
-2.9487900000000002
 20
4.2031300000000007
 30
0.0
 10
-2.9487900000000002
 20
4.2031300000000007
 30
0.0
 10
-2.8751300000000004
 20
4.2031300000000007
 30
0.0
 10
-2.8751300000000004
 20
4.2031300000000007
 30
0.0
 10
-2.8751300000000004
 20
4.2031300000000007
 30
0.0
 10
-2.81671
 20
3.7967300000000002
 30
0.0
 10
-2.9487900000000002
 20
3.4055700000000004
 30
0.0
 10
-2.9208500000000002
 20
2.9813900000000002
 30
0.0
 10
-2.9208500000000002
 20
2.9813900000000002
 30
0.0
 10
-2.9208500000000002
 20
2.9813900000000002
 30
0.0
 10
-3.1062700000000003
 20
2.9178900000000003
 30
0.0
 10
-3.1062700000000003
 20
2.9178900000000003
 30
0.0
 10
-3.1062700000000003
 20
2.9178900000000003
 30
0.0
 10
-3.4110700000000005
 20
3.1693500000000001
 30
0.0
 10
-3.1926300000000003
 20
3.7027500000000004
 30
0.0
 10
-3.2281900000000001
 20
4.0786700000000007
 30
0.0
 10
-3.2281900000000001
 20
4.0786700000000007
 30
0.0
 10
-3.1215100000000002
 20
4.04819
 30
0.0
 10
-3.1900900000000001
 20
3.6392500000000001
 30
0.0
 10
-3.0910300000000004
 20
3.8119700000000005
 30
0.0
 10
-3.0910300000000004
 20
3.8119700000000005
 30
0.0
 10
-3.0910300000000004
 20
3.8119700000000005
 30
0.0
 10
-3.0630900000000003
 20
3.9389700000000003
 30
0.0
 10
-3.0630900000000003
 20
3.9389700000000003
 30
0.0
 10
-3.0630900000000003
 20
3.9389700000000003
 30
0.0
 10
-3.0122900000000001
 20
3.8907100000000003
 30
0.0
 10
-2.8802100000000004
 20
3.9211900000000002
 30
0.0
 10
-2.8903700000000003
 20
3.9999300000000004
 30
0.0
 10
-2.8903700000000003
 20
3.9999300000000004
 30
0.0
 10
-3.0884900000000002
 20
3.9059500000000003
 30
0.0
 10
-3.1443700000000003
 20
4.1878900000000003
 30
0.0
 10
-2.9487900000000002
 20
4.2031300000000007
 30
0.0
  0
SPLINE
  5
36
100
AcDbEntity
  8
Ebene 1
 62
     7
100
AcDbSpline
210
0.0
220
0.0
230
1.0
 70
     1
 71
     3
 72
    32
 73
    28
 74
     0
 42
0.0000000001
 43
0.0000000001
 40
0.0
 40
0.0
 40
0.0
 40
0.0
 40
0.1428571428571429
 40
0.1428571428571429
 40
0.1428571428571429
 40
0.1428571428571429
 40
0.2857142857142857
 40
0.2857142857142857
 40
0.2857142857142857
 40
0.2857142857142857
 40
0.4285714285714286
 40
0.4285714285714286
 40
0.4285714285714286
 40
0.4285714285714286
 40
0.5714285714285714
 40
0.5714285714285714
 40
0.5714285714285714
 40
0.5714285714285714
 40
0.7142857142857142
 40
0.7142857142857142
 40
0.7142857142857142
 40
0.7142857142857142
 40
0.857142857142857
 40
0.857142857142857
 40
0.857142857142857
 40
0.857142857142857
 40
1.0
 40
1.0
 40
1.0
 40
1.0
 10
2.3166200000000003
 20
4.1421700000000001
 30
0.0
 10
2.4868000000000001
 20
4.1116900000000003
 30
0.0
 10
2.5528400000000002
 20
3.8602300000000005
 30
0.0
 10
2.59348
 20
3.7027500000000004
 30
0.0
 10
2.59348
 20
3.7027500000000004
 30
0.0
 10
2.5096600000000002
 20
3.6875100000000005
 30
0.0
 10
2.5172800000000004
 20
3.8272100000000004
 30
0.0
 10
2.4563200000000003
 20
3.8602300000000005
 30
0.0
 10
2.4563200000000003
 20
3.8602300000000005
 30
0.0
 10
2.4563200000000003
 20
3.8602300000000005
 30
0.0
 10
2.3979000000000004
 20
3.8602300000000005
 30
0.0
 10
2.3979000000000004
 20
3.8602300000000005
 30
0.0
 10
2.3979000000000004
 20
3.8602300000000005
 30
0.0
 10
2.1896200000000001
 20
3.5630500000000005
 30
0.0
 10
2.2556600000000002
 20
3.1058500000000002
 30
0.0
 10
2.4995000000000003
 20
2.8416900000000003
 30
0.0
 10
2.4995000000000003
 20
2.8416900000000003
 30
0.0
 10
2.4995000000000003
 20
2.8416900000000003
 30
0.0
 10
2.4842600000000004
 20
2.7299300000000004
 30
0.0
 10
2.4842600000000004
 20
2.7299300000000004
 30
0.0
 10
2.4842600000000004
 20
2.7299300000000004
 30
0.0
 10
2.3547200000000004
 20
2.8721700000000001
 30
0.0
 10
2.2328000000000001
 20
3.0601300000000005
 30
0.0
 10
2.1261200000000002
 20
3.2328500000000004
 30
0.0
 10
2.1261200000000002
 20
3.2328500000000004
 30
0.0
 10
2.0829400000000002
 20
3.5782900000000004
 30
0.0
 10
2.1566000000000001
 20
3.8602300000000005
 30
0.0
 10
2.3166200000000003
 20
4.1421700000000001
 30
0.0
  0
SPLINE
  5
37
100
AcDbEntity
  8
Ebene 1
 62
     7
100
AcDbSpline
210
0.0
220
0.0
230
1.0
 70
     1
 71
     3
 72
    40
 73
    36
 74
     0
 42
0.0000000001
 43
0.0000000001
 40
0.0
 40
0.0
 40
0.0
 40
0.0
 40
0.1111111111111111
 40
0.1111111111111111
 40
0.1111111111111111
 40
0.1111111111111111
 40
0.2222222222222222
 40
0.2222222222222222
 40
0.2222222222222222
 40
0.2222222222222222
 40
0.3333333333333333
 40
0.3333333333333333
 40
0.3333333333333333
 40
0.3333333333333333
 40
0.4444444444444444
 40
0.4444444444444444
 40
0.4444444444444444
 40
0.4444444444444444
 40
0.5555555555555556
 40
0.5555555555555556
 40
0.5555555555555556
 40
0.5555555555555556
 40
0.6666666666666667
 40
0.6666666666666667
 40
0.6666666666666667
 40
0.6666666666666667
 40
0.7777777777777779
 40
0.7777777777777779
 40
0.7777777777777779
 40
0.7777777777777779
 40
0.8888888888888891
 40
0.8888888888888891
 40
0.8888888888888891
 40
0.8888888888888891
 40
1.0
 40
1.0
 40
1.0
 40
1.0
 10
0.6072000000000001
 20
4.1116900000000003
 30
0.0
 10
0.6072000000000001
 20
4.1116900000000003
 30
0.0
 10
0.6656200000000001
 20
4.1116900000000003
 30
0.0
 10
0.6656200000000001
 20
4.1116900000000003
 30
0.0
 10
0.6656200000000001
 20
4.1116900000000003
 30
0.0
 10
0.8002400000000001
 20
3.7179900000000004
 30
0.0
 10
0.7697600000000001
 20
3.2785700000000002
 30
0.0
 10
0.74436
 20
2.8416900000000003
 30
0.0
 10
0.74436
 20
2.8416900000000003
 30
0.0
 10
0.6300600000000001
 20
2.7477100000000001
 30
0.0
 10
0.48782
 20
2.8086700000000002
 30
0.0
 10
0.36082
 20
2.8239100000000001
 30
0.0
 10
0.36082
 20
2.8239100000000001
 30
0.0
 10
0.36082
 20
2.8239100000000001
 30
0.0
 10
0.29732
 20
3.7357700000000005
 30
0.0
 10
0.29732
 20
3.7357700000000005
 30
0.0
 10
0.29732
 20
3.7357700000000005
 30
0.0
 10
0.4294000000000001
 20
3.7357700000000005
 30
0.0
 10
0.5640200000000001
 20
3.7484700000000002
 30
0.0
 10
0.6656200000000001
 20
3.8272100000000004
 30
0.0
 10
0.6656200000000001
 20
3.8272100000000004
 30
0.0
 10
0.5818000000000001
 20
3.9059500000000003
 30
0.0
 10
0.4675
 20
3.7662500000000003
 30
0.0
 10
0.36082
 20
3.8119700000000005
 30
0.0
 10
0.36082
 20
3.8119700000000005
 30
0.0
 10
0.34304
 20
3.8754700000000004
 30
0.0
 10
0.3659
 20
4.0304100000000007
 30
0.0
 10
0.3989200000000001
 20
4.0786700000000007
 30
0.0
 10
0.3989200000000001
 20
4.0786700000000007
 30
0.0
 10
0.4167
 20
4.04819
 30
0.0
 10
0.4294000000000001
 20
3.9999300000000004
 30
0.0
 10
0.40146
 20
3.9694500000000001
 30
0.0
 10
0.40146
 20
3.9694500000000001
 30
0.0
 10
0.49798
 20
3.8119700000000005
 30
0.0
 10
0.404
 20
4.2031300000000007
 30
0.0
 10
0.6072000000000001
 20
4.1116900000000003
 30
0.0
  0
SPLINE
  5
38
100
AcDbEntity
  8
Ebene 1
 62
     7
100
AcDbSpline
210
0.0
220
0.0
230
1.0
 70
     1
 71
     3
 72
    12
 73
     8
 74
     0
 42
0.0000000001
 43
0.0000000001
 40
0.0
 40
0.0
 40
0.0
 40
0.0
 40
0.5
 40
0.5
 40
0.5
 40
0.5
 40
1.0
 40
1.0
 40
1.0
 40
1.0
 10
-2.5423900000000001
 20
4.0634300000000003
 30
0.0
 10
-2.4534900000000004
 20
4.0177100000000001
 30
0.0
 10
-2.4839700000000002
 20
3.8119700000000005
 30
0.0
 10
-2.5449300000000004
 20
3.7357700000000005
 30
0.0
 10
-2.5449300000000004
 20
3.7357700000000005
 30
0.0
 10
-2.6846300000000003
 20
3.8119700000000005
 30
0.0
 10
-2.56271
 20
3.9542100000000002
 30
0.0
 10
-2.5423900000000001
 20
4.0634300000000003
 30
0.0
  0
SPLINE
  5
39
100
AcDbEntity
  8
Ebene 1
 62
     7
100
AcDbSpline
210
0.0
220
0.0
230
1.0
 70
     1
 71
     3
 72
    20
 73
    16
 74
     0
 42
0.0000000001
 43
0.0000000001
 40
0.0
 40
0.0
 40
0.0
 40
0.0
 40
0.25
 40
0.25
 40
0.25
 40
0.25
 40
0.5
 40
0.5
 40
0.5
 40
0.5
 40
0.75
 40
0.75
 40
0.75
 40
0.75
 40
1.0
 40
1.0
 40
1.0
 40
1.0
 10
-2.4179300000000001
 20
4.0304100000000007
 30
0.0
 10
-2.2477500000000004
 20
4.0304100000000007
 30
0.0
 10
-2.39507
 20
3.7814900000000002
 30
0.0
 10
-2.2629900000000003
 20
3.7357700000000005
 30
0.0
 10
-2.2629900000000003
 20
3.7357700000000005
 30
0.0
 10
-2.2629900000000003
 20
3.7357700000000005
 30
0.0
 10
-2.2629900000000003
 20
3.7027500000000004
 30
0.0
 10
-2.2629900000000003
 20
3.7027500000000004
 30
0.0
 10
-2.2629900000000003
 20
3.7027500000000004
 30
0.0
 10
-2.2629900000000003
 20
3.7027500000000004
 30
0.0
 10
-2.4738100000000003
 20
3.6875100000000005
 30
0.0
 10
-2.4738100000000003
 20
3.6875100000000005
 30
0.0
 10
-2.4738100000000003
 20
3.6875100000000005
 30
0.0
 10
-2.4738100000000003
 20
3.6875100000000005
 30
0.0
 10
-2.4179300000000001
 20
4.0304100000000007
 30
0.0
 10
-2.4179300000000001
 20
4.0304100000000007
 30
0.0
  0
SPLINE
  5
3A
100
AcDbEntity
  8
Ebene 1
 62
     7
100
AcDbSpline
210
0.0
220
0.0
230
1.0
 70
     1
 71
     3
 72
    12
 73
     8
 74
     0
 42
0.0000000001
 43
0.0000000001
 40
0.0
 40
0.0
 40
0.0
 40
0.0
 40
0.5
 40
0.5
 40
0.5
 40
0.5
 40
1.0
 40
1.0
 40
1.0
 40
1.0
 10
3.2716600000000002
 20
4.0304100000000007
 30
0.0
 10
3.4418400000000005
 20
3.9389700000000003
 30
0.0
 10
3.3885000000000001
 20
3.7179900000000004
 30
0.0
 10
3.3199200000000002
 20
3.6087700000000003
 30
0.0
 10
3.3199200000000002
 20
3.6087700000000003
 30
0.0
 10
3.3199200000000002
 20
3.6087700000000003
 30
0.0
 10
3.2716600000000002
 20
4.0304100000000007
 30
0.0
 10
3.2716600000000002
 20
4.0304100000000007
 30
0.0
  0
SPLINE
  5
3B
100
AcDbEntity
  8
Ebene 1
 62
     7
100
AcDbSpline
210
0.0
220
0.0
230
1.0
 70
     1
 71
     3
 72
    48
 73
    44
 74
     0
 42
0.0000000001
 43
0.0000000001
 40
0.0
 40
0.0
 40
0.0
 40
0.0
 40
0.0909090909090909
 40
0.0909090909090909
 40
0.0909090909090909
 40
0.0909090909090909
 40
0.1818181818181818
 40
0.1818181818181818
 40
0.1818181818181818
 40
0.1818181818181818
 40
0.2727272727272727
 40
0.2727272727272727
 40
0.2727272727272727
 40
0.2727272727272727
 40
0.3636363636363637
 40
0.3636363636363637
 40
0.3636363636363637
 40
0.3636363636363637
 40
0.4545454545454546
 40
0.4545454545454546
 40
0.4545454545454546
 40
0.4545454545454546
 40
0.5454545454545455
 40
0.5454545454545455
 40
0.5454545454545455
 40
0.5454545454545455
 40
0.6363636363636365
 40
0.6363636363636365
 40
0.6363636363636365
 40
0.6363636363636365
 40
0.7272727272727274
 40
0.7272727272727274
 40
0.7272727272727274
 40
0.7272727272727274
 40
0.8181818181818183
 40
0.8181818181818183
 40
0.8181818181818183
 40
0.8181818181818183
 40
0.9090909090909093
 40
0.9090909090909093
 40
0.9090909090909093
 40
0.9090909090909093
 40
1.0
 40
1.0
 40
1.0
 40
1.0
 10
-0.28433
 20
3.9846900000000005
 30
0.0
 10
-0.20559
 20
3.9694500000000001
 30
0.0
 10
-0.24369
 20
3.8602300000000005
 30
0.0
 10
-0.17511
 20
3.8119700000000005
 30
0.0
 10
-0.17511
 20
3.8119700000000005
 30
0.0
 10
-0.22083
 20
3.3903300000000001
 30
0.0
 10
0.10428
 20
2.4962500000000003
 30
0.0
 10
-0.57643
 20
2.5419700000000001
 30
0.0
 10
-0.57643
 20
2.5419700000000001
 30
0.0
 10
-0.5840500000000001
 20
2.7934300000000003
 30
0.0
 10
-0.61453
 20
3.1388700000000003
 30
0.0
 10
-0.6450100000000001
 20
3.4055700000000004
 30
0.0
 10
-0.6450100000000001
 20
3.4055700000000004
 30
0.0
 10
-0.6881900000000001
 20
3.5147900000000001
 30
0.0
 10
-0.63231
 20
3.6240100000000002
 30
0.0
 10
-0.6018300000000001
 20
3.4665300000000001
 30
0.0
 10
-0.6018300000000001
 20
3.4665300000000001
 30
0.0
 10
-0.6018300000000001
 20
3.4665300000000001
 30
0.0
 10
-0.53579
 20
2.9813900000000002
 30
0.0
 10
-0.53579
 20
2.9813900000000002
 30
0.0
 10
-0.53579
 20
2.9813900000000002
 30
0.0
 10
-0.39101
 20
3.1541100000000002
 30
0.0
 10
-0.72375
 20
3.5782900000000004
 30
0.0
 10
-0.39863
 20
3.6087700000000003
 30
0.0
 10
-0.39863
 20
3.6087700000000003
 30
0.0
 10
-0.39863
 20
3.6087700000000003
 30
0.0
 10
-0.35037
 20
3.6875100000000005
 30
0.0
 10
-0.35037
 20
3.6875100000000005
 30
0.0
 10
-0.35037
 20
3.6875100000000005
 30
0.0
 10
-0.4392700000000001
 20
3.7027500000000004
 30
0.0
 10
-0.5586500000000001
 20
3.5782900000000004
 30
0.0
 10
-0.5840500000000001
 20
3.7179900000000004
 30
0.0
 10
-0.5840500000000001
 20
3.7179900000000004
 30
0.0
 10
-0.63231
 20
3.6544900000000005
 30
0.0
 10
-0.71613
 20
3.6875100000000005
 30
0.0
 10
-0.65517
 20
3.7814900000000002
 30
0.0
 10
-0.65517
 20
3.7814900000000002
 30
0.0
 10
-0.65517
 20
3.7814900000000002
 30
0.0
 10
-0.5840500000000001
 20
3.8272100000000004
 30
0.0
 10
-0.5840500000000001
 20
3.8272100000000004
 30
0.0
 10
-0.5840500000000001
 20
3.8272100000000004
 30
0.0
 10
-0.48499
 20
3.6544900000000005
 30
0.0
 10
-0.41895
 20
3.9846900000000005
 30
0.0
 10
-0.28433
 20
3.9846900000000005
 30
0.0
  0
SPLINE
  5
3C
100
AcDbEntity
  8
Ebene 1
 62
     7
100
AcDbSpline
210
0.0
220
0.0
230
1.0
 70
     1
 71
     3
 72
    20
 73
    16
 74
     0
 42
0.0000000001
 43
0.0000000001
 40
0.0
 40
0.0
 40
0.0
 40
0.0
 40
0.25
 40
0.25
 40
0.25
 40
0.25
 40
0.5
 40
0.5
 40
0.5
 40
0.5
 40
0.75
 40
0.75
 40
0.75
 40
0.75
 40
1.0
 40
1.0
 40
1.0
 40
1.0
 10
3.0202000000000004
 20
3.9542100000000002
 30
0.0
 10
3.0202000000000004
 20
3.9542100000000002
 30
0.0
 10
3.0481400000000001
 20
3.9542100000000002
 30
0.0
 10
3.0481400000000001
 20
3.9542100000000002
 30
0.0
 10
3.0481400000000001
 20
3.9542100000000002
 30
0.0
 10
3.0456000000000003
 20
3.7662500000000003
 30
0.0
 10
3.1802200000000003
 20
3.5630500000000005
 30
0.0
 10
3.0811600000000001
 20
3.3903300000000001
 30
0.0
 10
3.0811600000000001
 20
3.3903300000000001
 30
0.0
 10
3.0811600000000001
 20
3.3903300000000001
 30
0.0
 10
3.0405200000000003
 20
3.4208100000000004
 30
0.0
 10
3.0405200000000003
 20
3.4208100000000004
 30
0.0
 10
3.0405200000000003
 20
3.4208100000000004
 30
0.0
 10
3.0405200000000003
 20
3.4208100000000004
 30
0.0
 10
3.0202000000000004
 20
3.9542100000000002
 30
0.0
 10
3.0202000000000004
 20
3.9542100000000002
 30
0.0
  0
SPLINE
  5
3D
100
AcDbEntity
  8
Ebene 1
 62
     7
100
AcDbSpline
210
0.0
220
0.0
230
1.0
 70
     1
 71
     3
 72
    12
 73
     8
 74
     0
 42
0.0000000001
 43
0.0000000001
 40
0.0
 40
0.0
 40
0.0
 40
0.0
 40
0.5
 40
0.5
 40
0.5
 40
0.5
 40
1.0
 40
1.0
 40
1.0
 40
1.0
 10
-0.55103
 20
3.9389700000000003
 30
0.0
 10
-0.41895
 20
3.9542100000000002
 30
0.0
 10
-0.59675
 20
3.7662500000000003
 30
0.0
 10
-0.55103
 20
3.8907100000000003
 30
0.0
 10
-0.55103
 20
3.8907100000000003
 30
0.0
 10
-0.55103
 20
3.8907100000000003
 30
0.0
 10
-0.55103
 20
3.9389700000000003
 30
0.0
 10
-0.55103
 20
3.9389700000000003
 30
0.0
  0
SPLINE
  5
3E
100
AcDbEntity
  8
Ebene 1
 62
     7
100
AcDbSpline
210
0.0
220
0.0
230
1.0
 70
     1
 71
     3
 72
    36
 73
    32
 74
     0
 42
0.0000000001
 43
0.0000000001
 40
0.0
 40
0.0
 40
0.0
 40
0.0
 40
0.125
 40
0.125
 40
0.125
 40
0.125
 40
0.25
 40
0.25
 40
0.25
 40
0.25
 40
0.375
 40
0.375
 40
0.375
 40
0.375
 40
0.5
 40
0.5
 40
0.5
 40
0.5
 40
0.625
 40
0.625
 40
0.625
 40
0.625
 40
0.75
 40
0.75
 40
0.75
 40
0.75
 40
0.875
 40
0.875
 40
0.875
 40
0.875
 40
1.0
 40
1.0
 40
1.0
 40
1.0
 10
-1.4451100000000001
 20
3.8602300000000005
 30
0.0
 10
-1.4146300000000001
 20
3.8602300000000005
 30
0.0
 10
-1.37399
 20
3.8754700000000004
 30
0.0
 10
-1.3536700000000002
 20
3.8449900000000001
 30
0.0
 10
-1.3536700000000002
 20
3.8449900000000001
 30
0.0
 10
-1.2012700000000001
 20
3.4512900000000002
 30
0.0
 10
-1.2292100000000001
 20
2.9813900000000002
 30
0.0
 10
-1.2292100000000001
 20
2.5572100000000004
 30
0.0
 10
-1.2292100000000001
 20
2.5572100000000004
 30
0.0
 10
-1.3257300000000001
 20
2.4784700000000002
 30
0.0
 10
-1.4832100000000001
 20
2.5114900000000002
 30
0.0
 10
-1.5975100000000002
 20
2.5267300000000001
 30
0.0
 10
-1.5975100000000002
 20
2.5267300000000001
 30
0.0
 10
-1.5975100000000002
 20
2.5267300000000001
 30
0.0
 10
-1.6914900000000002
 20
2.6054700000000004
 30
0.0
 10
-1.6914900000000002
 20
2.6054700000000004
 30
0.0
 10
-1.6914900000000002
 20
2.6054700000000004
 30
0.0
 10
-1.6914900000000002
 20
2.6054700000000004
 30
0.0
 10
-1.7219700000000002
 20
3.5630500000000005
 30
0.0
 10
-1.7219700000000002
 20
3.5630500000000005
 30
0.0
 10
-1.7219700000000002
 20
3.5630500000000005
 30
0.0
 10
-1.62799
 20
3.5452700000000004
 30
0.0
 10
-1.5162300000000002
 20
3.4995500000000002
 30
0.0
 10
-1.41717
 20
3.5452700000000004
 30
0.0
 10
-1.41717
 20
3.5452700000000004
 30
0.0
 10
-1.4070100000000001
 20
3.5782900000000004
 30
0.0
 10
-1.4146300000000001
 20
3.5935300000000003
 30
0.0
 10
-1.4324100000000002
 20
3.6087700000000003
 30
0.0
 10
-1.4324100000000002
 20
3.6087700000000003
 30
0.0
 10
-1.6584700000000001
 20
3.5300300000000004
 30
0.0
 10
-1.6635500000000001
 20
3.9211900000000002
 30
0.0
 10
-1.4451100000000001
 20
3.8602300000000005
 30
0.0
  0
SPLINE
  5
3F
100
AcDbEntity
  8
Ebene 1
 62
     7
100
AcDbSpline
210
0.0
220
0.0
230
1.0
 70
     1
 71
     3
 72
    16
 73
    12
 74
     0
 42
0.0000000001
 43
0.0000000001
 40
0.0
 40
0.0
 40
0.0
 40
0.0
 40
0.3333333333333333
 40
0.3333333333333333
 40
0.3333333333333333
 40
0.3333333333333333
 40
0.6666666666666666
 40
0.6666666666666666
 40
0.6666666666666666
 40
0.6666666666666666
 40
1.0
 40
1.0
 40
1.0
 40
1.0
 10
2.8170000000000002
 20
3.8602300000000005
 30
0.0
 10
2.9338400000000004
 20
3.7357700000000005
 30
0.0
 10
2.8754200000000001
 20
3.4360500000000003
 30
0.0
 10
2.8017600000000003
 20
3.2963500000000003
 30
0.0
 10
2.8017600000000003
 20
3.2963500000000003
 30
0.0
 10
2.8017600000000003
 20
3.2963500000000003
 30
0.0
 10
2.7839800000000001
 20
3.8119700000000005
 30
0.0
 10
2.7839800000000001
 20
3.8119700000000005
 30
0.0
 10
2.7839800000000001
 20
3.8119700000000005
 30
0.0
 10
2.7839800000000001
 20
3.8119700000000005
 30
0.0
 10
2.8170000000000002
 20
3.8602300000000005
 30
0.0
 10
2.8170000000000002
 20
3.8602300000000005
 30
0.0
  0
SPLINE
  5
40
100
AcDbEntity
  8
Ebene 1
 62
     7
100
AcDbSpline
210
0.0
220
0.0
230
1.0
 70
     1
 71
     3
 72
    24
 73
    20
 74
     0
 42
0.0000000001
 43
0.0000000001
 40
0.0
 40
0.0
 40
0.0
 40
0.0
 40
0.2
 40
0.2
 40
0.2
 40
0.2
 40
0.4
 40
0.4
 40
0.4
 40
0.4
 40
0.6000000000000001
 40
0.6000000000000001
 40
0.6000000000000001
 40
0.6000000000000001
 40
0.8
 40
0.8
 40
0.8
 40
0.8
 40
1.0
 40
1.0
 40
1.0
 40
1.0
 10
1.5774800000000002
 20
3.8119700000000005
 30
0.0
 10
1.5952600000000001
 20
3.8119700000000005
 30
0.0
 10
1.6054200000000001
 20
3.7967300000000002
 30
0.0
 10
1.6105
 20
3.7814900000000002
 30
0.0
 10
1.6105
 20
3.7814900000000002
 30
0.0
 10
1.6105
 20
3.7814900000000002
 30
0.0
 10
1.6054200000000001
 20
3.1541100000000002
 30
0.0
 10
1.6054200000000001
 20
3.1541100000000002
 30
0.0
 10
1.6054200000000001
 20
3.1541100000000002
 30
0.0
 10
1.6054200000000001
 20
3.1541100000000002
 30
0.0
 10
1.5317600000000002
 20
3.1541100000000002
 30
0.0
 10
1.5317600000000002
 20
3.1541100000000002
 30
0.0
 10
1.5317600000000002
 20
3.1541100000000002
 30
0.0
 10
1.5317600000000002
 20
3.1541100000000002
 30
0.0
 10
1.5038200000000002
 20
3.7662500000000003
 30
0.0
 10
1.5038200000000002
 20
3.7662500000000003
 30
0.0
 10
1.5038200000000002
 20
3.7662500000000003
 30
0.0
 10
1.5038200000000002
 20
3.7662500000000003
 30
0.0
 10
1.5774800000000002
 20
3.8119700000000005
 30
0.0
 10
1.5774800000000002
 20
3.8119700000000005
 30
0.0
  0
SPLINE
  5
41
100
AcDbEntity
  8
Ebene 1
 62
     7
100
AcDbSpline
210
0.0
220
0.0
230
1.0
 70
     1
 71
     3
 72
    12
 73
     8
 74
     0
 42
0.0000000001
 43
0.0000000001
 40
0.0
 40
0.0
 40
0.0
 40
0.0
 40
0.5
 40
0.5
 40
0.5
 40
0.5
 40
1.0
 40
1.0
 40
1.0
 40
1.0
 10
-1.6965700000000001
 20
3.7967300000000002
 30
0.0
 10
-1.67371
 20
3.7662500000000003
 30
0.0
 10
-1.6584700000000001
 20
3.7027500000000004
 30
0.0
 10
-1.6686300000000001
 20
3.6544900000000005
 30
0.0
 10
-1.6686300000000001
 20
3.6544900000000005
 30
0.0
 10
-1.7321300000000002
 20
3.6544900000000005
 30
0.0
 10
-1.7448300000000001
 20
3.7662500000000003
 30
0.0
 10
-1.6965700000000001
 20
3.7967300000000002
 30
0.0
  0
SPLINE
  5
42
100
AcDbEntity
  8
Ebene 1
 62
     7
100
AcDbSpline
210
0.0
220
0.0
230
1.0
 70
     1
 71
     3
 72
    24
 73
    20
 74
     0
 42
0.0000000001
 43
0.0000000001
 40
0.0
 40
0.0
 40
0.0
 40
0.0
 40
0.2
 40
0.2
 40
0.2
 40
0.2
 40
0.4
 40
0.4
 40
0.4
 40
0.4
 40
0.6000000000000001
 40
0.6000000000000001
 40
0.6000000000000001
 40
0.6000000000000001
 40
0.8
 40
0.8
 40
0.8
 40
0.8
 40
1.0
 40
1.0
 40
1.0
 40
1.0
 10
0.0738
 20
3.7967300000000002
 30
0.0
 10
0.0738
 20
3.7967300000000002
 30
0.0
 10
0.14746
 20
3.7967300000000002
 30
0.0
 10
0.14746
 20
3.7967300000000002
 30
0.0
 10
0.14746
 20
3.7967300000000002
 30
0.0
 10
0.14746
 20
3.7967300000000002
 30
0.0
 10
0.16524
 20
2.9966300000000001
 30
0.0
 10
0.16524
 20
2.9966300000000001
 30
0.0
 10
0.16524
 20
2.9966300000000001
 30
0.0
 10
0.16524
 20
2.9966300000000001
 30
0.0
 10
0.04332
 20
2.9661500000000003
 30
0.0
 10
0.04332
 20
2.9661500000000003
 30
0.0
 10
0.04332
 20
2.9661500000000003
 30
0.0
 10
-0.05827
 20
3.1845900000000005
 30
0.0
 10
-0.00747
 20
3.4995500000000002
 30
0.0
 10
-0.01255
 20
3.7662500000000003
 30
0.0
 10
-0.01255
 20
3.7662500000000003
 30
0.0
 10
-0.01255
 20
3.7662500000000003
 30
0.0
 10
0.0738
 20
3.7967300000000002
 30
0.0
 10
0.0738
 20
3.7967300000000002
 30
0.0
  0
SPLINE
  5
43
100
AcDbEntity
  8
Ebene 1
 62
     7
100
AcDbSpline
210
0.0
220
0.0
230
1.0
 70
     1
 71
     3
 72
    20
 73
    16
 74
     0
 42
0.0000000001
 43
0.0000000001
 40
0.0
 40
0.0
 40
0.0
 40
0.0
 40
0.25
 40
0.25
 40
0.25
 40
0.25
 40
0.5
 40
0.5
 40
0.5
 40
0.5
 40
0.75
 40
0.75
 40
0.75
 40
0.75
 40
1.0
 40
1.0
 40
1.0
 40
1.0
 10
0.9043800000000001
 20
3.7967300000000002
 30
0.0
 10
0.93486
 20
3.7967300000000002
 30
0.0
 10
0.9755
 20
3.8119700000000005
 30
0.0
 10
0.99582
 20
3.7814900000000002
 30
0.0
 10
0.99582
 20
3.7814900000000002
 30
0.0
 10
1.01614
 20
3.5630500000000005
 30
0.0
 10
1.0364600000000002
 20
3.3420700000000001
 30
0.0
 10
1.0110600000000001
 20
3.1388700000000003
 30
0.0
 10
1.0110600000000001
 20
3.1388700000000003
 30
0.0
 10
1.0110600000000001
 20
3.1388700000000003
 30
0.0
 10
0.9399400000000001
 20
3.1058500000000002
 30
0.0
 10
0.9399400000000001
 20
3.1058500000000002
 30
0.0
 10
0.9399400000000001
 20
3.1058500000000002
 30
0.0
 10
0.88914
 20
3.3268300000000002
 30
0.0
 10
0.9069200000000001
 20
3.5630500000000005
 30
0.0
 10
0.9043800000000001
 20
3.7967300000000002
 30
0.0
  0
SPLINE
  5
44
100
AcDbEntity
  8
Ebene 1
 62
     7
100
AcDbSpline
210
0.0
220
0.0
230
1.0
 70
     1
 71
     3
 72
    24
 73
    20
 74
     0
 42
0.0000000001
 43
0.0000000001
 40
0.0
 40
0.0
 40
0.0
 40
0.0
 40
0.2
 40
0.2
 40
0.2
 40
0.2
 40
0.4
 40
0.4
 40
0.4
 40
0.4
 40
0.6000000000000001
 40
0.6000000000000001
 40
0.6000000000000001
 40
0.6000000000000001
 40
0.8
 40
0.8
 40
0.8
 40
0.8
 40
1.0
 40
1.0
 40
1.0
 40
1.0
 10
1.23204
 20
3.7967300000000002
 30
0.0
 10
1.23204
 20
3.7967300000000002
 30
0.0
 10
1.3082400000000001
 20
3.7967300000000002
 30
0.0
 10
1.3082400000000001
 20
3.7967300000000002
 30
0.0
 10
1.3082400000000001
 20
3.7967300000000002
 30
0.0
 10
1.32094
 20
3.5782900000000004
 30
0.0
 10
1.3946000000000001
 20
3.2963500000000003
 30
0.0
 10
1.2803000000000002
 20
3.1058500000000002
 30
0.0
 10
1.2803000000000002
 20
3.1058500000000002
 30
0.0
 10
1.2803000000000002
 20
3.1058500000000002
 30
0.0
 10
1.2066400000000002
 20
3.1058500000000002
 30
0.0
 10
1.2066400000000002
 20
3.1058500000000002
 30
0.0
 10
1.2066400000000002
 20
3.1058500000000002
 30
0.0
 10
1.1355200000000001
 20
3.3115900000000003
 30
0.0
 10
1.1837800000000001
 20
3.5452700000000004
 30
0.0
 10
1.1761600000000001
 20
3.7662500000000003
 30
0.0
 10
1.1761600000000001
 20
3.7662500000000003
 30
0.0
 10
1.1761600000000001
 20
3.7662500000000003
 30
0.0
 10
1.23204
 20
3.7967300000000002
 30
0.0
 10
1.23204
 20
3.7967300000000002
 30
0.0
  0
SPLINE
  5
45
100
AcDbEntity
  8
Ebene 1
 62
     7
100
AcDbSpline
210
0.0
220
0.0
230
1.0
 70
     1
 71
     3
 72
    16
 73
    12
 74
     0
 42
0.0000000001
 43
0.0000000001
 40
0.0
 40
0.0
 40
0.0
 40
0.0
 40
0.3333333333333333
 40
0.3333333333333333
 40
0.3333333333333333
 40
0.3333333333333333
 40
0.6666666666666666
 40
0.6666666666666666
 40
0.6666666666666666
 40
0.6666666666666666
 40
1.0
 40
1.0
 40
1.0
 40
1.0
 10
-2.7760700000000003
 20
3.7662500000000003
 30
0.0
 10
-2.7201900000000001
 20
3.7179900000000004
 30
0.0
 10
-2.7151100000000001
 20
3.6087700000000003
 30
0.0
 10
-2.7608300000000003
 20
3.5452700000000004
 30
0.0
 10
-2.7608300000000003
 20
3.5452700000000004
 30
0.0
 10
-2.7430500000000002
 20
3.4360500000000003
 30
0.0
 10
-2.7430500000000002
 20
3.2963500000000003
 30
0.0
 10
-2.7887700000000004
 20
3.1998300000000004
 30
0.0
 10
-2.7887700000000004
 20
3.1998300000000004
 30
0.0
 10
-2.7887700000000004
 20
3.1998300000000004
 30
0.0
 10
-2.7760700000000003
 20
3.7662500000000003
 30
0.0
 10
-2.7760700000000003
 20
3.7662500000000003
 30
0.0
  0
SPLINE
  5
46
100
AcDbEntity
  8
Ebene 1
 62
     7
100
AcDbSpline
210
0.0
220
0.0
230
1.0
 70
     1
 71
     3
 72
    20
 73
    16
 74
     0
 42
0.0000000001
 43
0.0000000001
 40
0.0
 40
0.0
 40
0.0
 40
0.0
 40
0.25
 40
0.25
 40
0.25
 40
0.25
 40
0.5
 40
0.5
 40
0.5
 40
0.5
 40
0.75
 40
0.75
 40
0.75
 40
0.75
 40
1.0
 40
1.0
 40
1.0
 40
1.0
 10
1.7832200000000002
 20
3.7484700000000002
 30
0.0
 10
1.7832200000000002
 20
3.7484700000000002
 30
0.0
 10
1.9203800000000002
 20
3.7484700000000002
 30
0.0
 10
1.9203800000000002
 20
3.7484700000000002
 30
0.0
 10
1.9203800000000002
 20
3.7484700000000002
 30
0.0
 10
1.9280000000000002
 20
3.5452700000000004
 30
0.0
 10
1.9915000000000003
 20
3.3115900000000003
 30
0.0
 10
1.9356200000000001
 20
3.1058500000000002
 30
0.0
 10
1.9356200000000001
 20
3.1058500000000002
 30
0.0
 10
1.9356200000000001
 20
3.1058500000000002
 30
0.0
 10
1.8187800000000001
 20
3.1058500000000002
 30
0.0
 10
1.8187800000000001
 20
3.1058500000000002
 30
0.0
 10
1.8187800000000001
 20
3.1058500000000002
 30
0.0
 10
1.8035400000000001
 20
3.3268300000000002
 30
0.0
 10
1.7756000000000001
 20
3.5300300000000004
 30
0.0
 10
1.7832200000000002
 20
3.7484700000000002
 30
0.0
  0
SPLINE
  5
47
100
AcDbEntity
  8
Ebene 1
 62
     7
100
AcDbSpline
210
0.0
220
0.0
230
1.0
 70
     1
 71
     3
 72
    20
 73
    16
 74
     0
 42
0.0000000001
 43
0.0000000001
 40
0.0
 40
0.0
 40
0.0
 40
0.0
 40
0.25
 40
0.25
 40
0.25
 40
0.25
 40
0.5
 40
0.5
 40
0.5
 40
0.5
 40
0.75
 40
0.75
 40
0.75
 40
0.75
 40
1.0
 40
1.0
 40
1.0
 40
1.0
 10
-1.0514100000000002
 20
3.6392500000000001
 30
0.0
 10
-1.0514100000000002
 20
3.6392500000000001
 30
0.0
 10
-0.9142500000000001
 20
3.6392500000000001
 30
0.0
 10
-0.9142500000000001
 20
3.6392500000000001
 30
0.0
 10
-0.9142500000000001
 20
3.6392500000000001
 30
0.0
 10
-0.91171
 20
3.3725500000000004
 30
0.0
 10
-0.7669300000000001
 20
3.1236300000000004
 30
0.0
 10
-0.8380500000000001
 20
2.8569300000000002
 30
0.0
 10
-0.8380500000000001
 20
2.8569300000000002
 30
0.0
 10
-0.9066300000000001
 20
2.8569300000000002
 30
0.0
 10
-0.9752100000000001
 20
2.8239100000000001
 30
0.0
 10
-1.0488700000000002
 20
2.8416900000000003
 30
0.0
 10
-1.0488700000000002
 20
2.8416900000000003
 30
0.0
 10
-1.1072900000000001
 20
3.0906100000000003
 30
0.0
 10
-1.1047500000000001
 20
3.4055700000000004
 30
0.0
 10
-1.0514100000000002
 20
3.6392500000000001
 30
0.0
  0
SPLINE
  5
48
100
AcDbEntity
  8
Ebene 1
 62
     7
100
AcDbSpline
210
0.0
220
0.0
230
1.0
 70
     1
 71
     3
 72
    28
 73
    24
 74
     0
 42
0.0000000001
 43
0.0000000001
 40
0.0
 40
0.0
 40
0.0
 40
0.0
 40
0.1666666666666667
 40
0.1666666666666667
 40
0.1666666666666667
 40
0.1666666666666667
 40
0.3333333333333333
 40
0.3333333333333333
 40
0.3333333333333333
 40
0.3333333333333333
 40
0.5
 40
0.5
 40
0.5
 40
0.5
 40
0.6666666666666666
 40
0.6666666666666666
 40
0.6666666666666666
 40
0.6666666666666666
 40
0.8333333333333333
 40
0.8333333333333333
 40
0.8333333333333333
 40
0.8333333333333333
 40
1.0
 40
1.0
 40
1.0
 40
1.0
 10
-2.3391900000000003
 20
3.5935300000000003
 30
0.0
 10
-2.3391900000000003
 20
3.5935300000000003
 30
0.0
 10
-2.2934700000000001
 20
3.5935300000000003
 30
0.0
 10
-2.2934700000000001
 20
3.5935300000000003
 30
0.0
 10
-2.2934700000000001
 20
3.5935300000000003
 30
0.0
 10
-2.2934700000000001
 20
3.5935300000000003
 30
0.0
 10
-2.2934700000000001
 20
2.7299300000000004
 30
0.0
 10
-2.2934700000000001
 20
2.7299300000000004
 30
0.0
 10
-2.2934700000000001
 20
2.7299300000000004
 30
0.0
 10
-2.3417300000000001
 20
2.6689700000000003
 30
0.0
 10
-2.4255500000000003
 20
2.6842100000000002
 30
0.0
 10
-2.4941300000000002
 20
2.6842100000000002
 30
0.0
 10
-2.4941300000000002
 20
2.6842100000000002
 30
0.0
 10
-2.7709900000000003
 20
2.8416900000000003
 30
0.0
 10
-2.5347700000000004
 20
3.1998300000000004
 30
0.0
 10
-2.6033500000000003
 20
3.4665300000000001
 30
0.0
 10
-2.6033500000000003
 20
3.4665300000000001
 30
0.0
 10
-2.5931900000000003
 20
3.4995500000000002
 30
0.0
 10
-2.5652500000000003
 20
3.5147900000000001
 30
0.0
 10
-2.56779
 20
3.5452700000000004
 30
0.0
 10
-2.56779
 20
3.5452700000000004
 30
0.0
 10
-2.56779
 20
3.5452700000000004
 30
0.0
 10
-2.3391900000000003
 20
3.5935300000000003
 30
0.0
 10
-2.3391900000000003
 20
3.5935300000000003
 30
0.0
  0
SPLINE
  5
49
100
AcDbEntity
  8
Ebene 1
 62
     7
100
AcDbSpline
210
0.0
220
0.0
230
1.0
 70
     1
 71
     3
 72
    24
 73
    20
 74
     0
 42
0.0000000001
 43
0.0000000001
 40
0.0
 40
0.0
 40
0.0
 40
0.0
 40
0.2
 40
0.2
 40
0.2
 40
0.2
 40
0.4
 40
0.4
 40
0.4
 40
0.4
 40
0.6000000000000001
 40
0.6000000000000001
 40
0.6000000000000001
 40
0.6000000000000001
 40
0.8
 40
0.8
 40
0.8
 40
0.8
 40
1.0
 40
1.0
 40
1.0
 40
1.0
 10
-2.1182100000000004
 20
3.5935300000000003
 30
0.0
 10
-1.9861300000000002
 20
3.6087700000000003
 30
0.0
 10
-1.8819900000000001
 20
3.4817700000000005
 30
0.0
 10
-1.9302500000000002
 20
3.3573100000000005
 30
0.0
 10
-1.9302500000000002
 20
3.3573100000000005
 30
0.0
 10
-1.8388100000000001
 20
3.2176100000000001
 30
0.0
 10
-1.9023100000000002
 20
3.0296500000000002
 30
0.0
 10
-1.8819900000000001
 20
2.8569300000000002
 30
0.0
 10
-1.8819900000000001
 20
2.8569300000000002
 30
0.0
 10
-1.8819900000000001
 20
2.8569300000000002
 30
0.0
 10
-1.9327900000000002
 20
2.8086700000000002
 30
0.0
 10
-1.9327900000000002
 20
2.8086700000000002
 30
0.0
 10
-1.9327900000000002
 20
2.8086700000000002
 30
0.0
 10
-1.9327900000000002
 20
2.8086700000000002
 30
0.0
 10
-2.0674100000000002
 20
2.8086700000000002
 30
0.0
 10
-2.0674100000000002
 20
2.8086700000000002
 30
0.0
 10
-2.0674100000000002
 20
2.8086700000000002
 30
0.0
 10
-2.1486900000000002
 20
3.0448900000000001
 30
0.0
 10
-2.1207500000000001
 20
3.3420700000000001
 30
0.0
 10
-2.1182100000000004
 20
3.5935300000000003
 30
0.0
  0
SPLINE
  5
4A
100
AcDbEntity
  8
Ebene 1
 62
     7
100
AcDbSpline
210
0.0
220
0.0
230
1.0
 70
     1
 71
     3
 72
   168
 73
   164
 74
     0
 42
0.0000000001
 43
0.0000000001
 40
0.0
 40
0.0
 40
0.0
 40
0.0
 40
0.024390243902439
 40
0.024390243902439
 40
0.024390243902439
 40
0.024390243902439
 40
0.0487804878048781
 40
0.0487804878048781
 40
0.0487804878048781
 40
0.0487804878048781
 40
0.0731707317073171
 40
0.0731707317073171
 40
0.0731707317073171
 40
0.0731707317073171
 40
0.0975609756097561
 40
0.0975609756097561
 40
0.0975609756097561
 40
0.0975609756097561
 40
0.1219512195121951
 40
0.1219512195121951
 40
0.1219512195121951
 40
0.1219512195121951
 40
0.1463414634146341
 40
0.1463414634146341
 40
0.1463414634146341
 40
0.1463414634146341
 40
0.1707317073170732
 40
0.1707317073170732
 40
0.1707317073170732
 40
0.1707317073170732
 40
0.1951219512195122
 40
0.1951219512195122
 40
0.1951219512195122
 40
0.1951219512195122
 40
0.2195121951219512
 40
0.2195121951219512
 40
0.2195121951219512
 40
0.2195121951219512
 40
0.2439024390243902
 40
0.2439024390243902
 40
0.2439024390243902
 40
0.2439024390243902
 40
0.2682926829268292
 40
0.2682926829268292
 40
0.2682926829268292
 40
0.2682926829268292
 40
0.2926829268292683
 40
0.2926829268292683
 40
0.2926829268292683
 40
0.2926829268292683
 40
0.3170731707317073
 40
0.3170731707317073
 40
0.3170731707317073
 40
0.3170731707317073
 40
0.3414634146341464
 40
0.3414634146341464
 40
0.3414634146341464
 40
0.3414634146341464
 40
0.3658536585365854
 40
0.3658536585365854
 40
0.3658536585365854
 40
0.3658536585365854
 40
0.3902439024390245
 40
0.3902439024390245
 40
0.3902439024390245
 40
0.3902439024390245
 40
0.4146341463414635
 40
0.4146341463414635
 40
0.4146341463414635
 40
0.4146341463414635
 40
0.4390243902439026
 40
0.4390243902439026
 40
0.4390243902439026
 40
0.4390243902439026
 40
0.4634146341463416
 40
0.4634146341463416
 40
0.4634146341463416
 40
0.4634146341463416
 40
0.4878048780487806
 40
0.4878048780487806
 40
0.4878048780487806
 40
0.4878048780487806
 40
0.5121951219512196
 40
0.5121951219512196
 40
0.5121951219512196
 40
0.5121951219512196
 40
0.5365853658536587
 40
0.5365853658536587
 40
0.5365853658536587
 40
0.5365853658536587
 40
0.5609756097560977
 40
0.5609756097560977
 40
0.5609756097560977
 40
0.5609756097560977
 40
0.5853658536585368
 40
0.5853658536585368
 40
0.5853658536585368
 40
0.5853658536585368
 40
0.6097560975609758
 40
0.6097560975609758
 40
0.6097560975609758
 40
0.6097560975609758
 40
0.6341463414634149
 40
0.6341463414634149
 40
0.6341463414634149
 40
0.6341463414634149
 40
0.6585365853658539
 40
0.6585365853658539
 40
0.6585365853658539
 40
0.6585365853658539
 40
0.682926829268293
 40
0.682926829268293
 40
0.682926829268293
 40
0.682926829268293
 40
0.707317073170732
 40
0.707317073170732
 40
0.707317073170732
 40
0.707317073170732
 40
0.7317073170731711
 40
0.7317073170731711
 40
0.7317073170731711
 40
0.7317073170731711
 40
0.7560975609756101
 40
0.7560975609756101
 40
0.7560975609756101
 40
0.7560975609756101
 40
0.7804878048780491
 40
0.7804878048780491
 40
0.7804878048780491
 40
0.7804878048780491
 40
0.8048780487804882
 40
0.8048780487804882
 40
0.8048780487804882
 40
0.8048780487804882
 40
0.8292682926829272
 40
0.8292682926829272
 40
0.8292682926829272
 40
0.8292682926829272
 40
0.8536585365853663
 40
0.8536585365853663
 40
0.8536585365853663
 40
0.8536585365853663
 40
0.8780487804878053
 40
0.8780487804878053
 40
0.8780487804878053
 40
0.8780487804878053
 40
0.9024390243902444
 40
0.9024390243902444
 40
0.9024390243902444
 40
0.9024390243902444
 40
0.9268292682926834
 40
0.9268292682926834
 40
0.9268292682926834
 40
0.9268292682926834
 40
0.9512195121951225
 40
0.9512195121951225
 40
0.9512195121951225
 40
0.9512195121951225
 40
0.9756097560975615
 40
0.9756097560975615
 40
0.9756097560975615
 40
0.9756097560975615
 40
1.0
 40
1.0
 40
1.0
 40
1.0
 10
3.5231200000000005
 20
3.5300300000000004
 30
0.0
 10
3.8711000000000002
 20
3.2785700000000002
 30
0.0
 10
3.7517200000000002
 20
2.6994500000000001
 30
0.0
 10
3.6374200000000001
 20
2.3387700000000002
 30
0.0
 10
3.6374200000000001
 20
2.3387700000000002
 30
0.0
 10
3.6729800000000004
 20
2.1660500000000003
 30
0.0
 10
3.5536000000000003
 20
1.9780900000000001
 30
0.0
 10
3.5739200000000002
 20
1.8206100000000001
 30
0.0
 10
3.5739200000000002
 20
1.8206100000000001
 30
0.0
 10
3.4723200000000003
 20
2.13557
 30
0.0
 10
3.6983800000000002
 20
2.4479900000000003
 30
0.0
 10
3.5967800000000003
 20
2.7299300000000004
 30
0.0
 10
3.5967800000000003
 20
2.7299300000000004
 30
0.0
 10
3.3351600000000001
 20
2.8721700000000001
 30
0.0
 10
3.1421200000000002
 20
2.5419700000000001
 30
0.0
 10
2.9414600000000002
 20
2.41751
 30
0.0
 10
2.9414600000000002
 20
2.41751
 30
0.0
 10
2.84748
 20
2.3235300000000003
 30
0.0
 10
2.7357200000000002
 20
2.3235300000000003
 30
0.0
 10
2.6290400000000003
 20
2.3235300000000003
 30
0.0
 10
2.6290400000000003
 20
2.3235300000000003
 30
0.0
 10
2.6468200000000004
 20
2.2143100000000002
 30
0.0
 10
2.7789000000000001
 20
2.2447900000000001
 30
0.0
 10
2.8449400000000002
 20
2.2143100000000002
 30
0.0
 10
2.8449400000000002
 20
2.2143100000000002
 30
0.0
 10
2.7535000000000003
 20
1.7266300000000001
 30
0.0
 10
3.4901000000000004
 20
0.9265300000000001
 30
0.0
 10
3.5815400000000004
 20
1.7901300000000002
 30
0.0
 10
3.5815400000000004
 20
1.7901300000000002
 30
0.0
 10
3.9498400000000005
 20
1.3811900000000001
 30
0.0
 10
3.6323400000000001
 20
0.6928500000000001
 30
0.0
 10
3.1751400000000003
 20
0.65983
 30
0.0
 10
3.1751400000000003
 20
0.65983
 30
0.0
 10
3.1573600000000002
 20
0.4109100000000001
 30
0.0
 10
3.30722
 20
-0.7930400000000001
 30
0.0
 10
3.0202000000000004
 20
-0.13518
 30
0.0
 10
3.0202000000000004
 20
-0.13518
 30
0.0
 10
2.8805000000000001
 20
-0.19868
 30
0.0
 10
2.8830400000000003
 20
-0.21392
 30
0.0
 10
2.7281000000000004
 20
-0.15042
 30
0.0
 10
2.7281000000000004
 20
-0.15042
 30
0.0
 10
2.59348
 20
-0.27742
 30
0.0
 10
2.6544400000000001
 20
-0.46538
 30
0.0
 10
2.6112600000000001
 20
-0.6228600000000001
 30
0.0
 10
2.6112600000000001
 20
-0.6228600000000001
 30
0.0
 10
2.5249000000000001
 20
-0.49586
 30
0.0
 10
2.3140800000000001
 20
-0.15042
 30
0.0
 10
2.1947000000000001
 20
-0.45014
 30
0.0
 10
2.1947000000000001
 20
-0.45014
 30
0.0
 10
2.1845400000000001
 20
-0.1047
 30
0.0
 10
1.9610200000000002
 20
0.01975
 30
0.0
 10
2.03722
 20
-0.38664
 30
0.0
 10
2.03722
 20
-0.38664
 30
0.0
 10
1.8518000000000001
 20
-0.1682
 30
0.0
 10
1.8873600000000001
 20
0.20771
 30
0.0
 10
1.5317600000000002
 20
0.3169300000000001
 30
0.0
 10
1.5317600000000002
 20
0.3169300000000001
 30
0.0
 10
1.5317600000000002
 20
0.3169300000000001
 30
0.0
 10
1.0923400000000001
 20
0.39567
 30
0.0
 10
1.0923400000000001
 20
0.39567
 30
0.0
 10
1.0923400000000001
 20
0.39567
 30
0.0
 10
0.5462400000000001
 20
-0.0412
 30
0.0
 10
-0.04049
 20
0.06547
 30
0.0
 10
-0.39863
 20
0.6928500000000001
 30
0.0
 10
-0.39863
 20
0.6928500000000001
 30
0.0
 10
-1.16317
 20
0.8173100000000001
 30
0.0
 10
-1.1834900000000002
 20
1.6174100000000002
 30
0.0
 10
-0.6653300000000001
 20
1.9628500000000002
 30
0.0
 10
-0.6653300000000001
 20
1.9628500000000002
 30
0.0
 10
-0.6196100000000001
 20
2.1025500000000004
 30
0.0
 10
-0.6729500000000001
 20
2.26003
 30
0.0
 10
-0.7542300000000001
 20
2.3540100000000002
 30
0.0
 10
-0.7542300000000001
 20
2.3540100000000002
 30
0.0
 10
-0.8812300000000001
 20
1.7748900000000001
 30
0.0
 10
-1.67371
 20
1.0535300000000001
 30
0.0
 10
-0.7694700000000001
 20
0.61411
 30
0.0
 10
-0.7694700000000001
 20
0.61411
 30
0.0
 10
-0.8583700000000001
 20
0.4413900000000001
 30
0.0
 10
-1.0514100000000002
 20
0.42615
 30
0.0
 10
-1.20889
 20
0.37789
 30
0.0
 10
-1.20889
 20
0.37789
 30
0.0
 10
-1.3155700000000001
 20
0.3474100000000001
 30
0.0
 10
-1.42225
 20
0.3474100000000001
 30
0.0
 10
-1.5340100000000001
 20
0.3474100000000001
 30
0.0
 10
-1.5340100000000001
 20
0.3474100000000001
 30
0.0
 10
-1.1936500000000001
 20
0.01975
 30
0.0
 10
-0.37069
 20
0.85033
 30
0.0
 10
-0.5205500000000001
 20
0.28391
 30
0.0
 10
-0.5205500000000001
 20
0.28391
 30
0.0
 10
-0.69581
 20
-0.0412
 30
0.0
 10
-1.1580900000000001
 20
0.09595
 30
0.0
 10
-1.4476500000000001
 20
0.14421
 30
0.0
 10
-1.4476500000000001
 20
0.14421
 30
0.0
 10
-2.6820900000000001
 20
0.08071
 30
0.0
 10
-2.5931900000000003
 20
1.4624700000000002
 30
0.0
 10
-2.5068300000000003
 20
2.3540100000000002
 30
0.0
 10
-2.5068300000000003
 20
2.3540100000000002
 30
0.0
 10
-2.4077700000000002
 20
2.4022700000000001
 30
0.0
 10
-2.26553
 20
2.3540100000000002
 30
0.0
 10
-2.1690100000000001
 20
2.41751
 30
0.0
 10
-2.1690100000000001
 20
2.41751
 30
0.0
 10
-2.1690100000000001
 20
2.41751
 30
0.0
 10
-2.1156700000000002
 20
2.6689700000000003
 30
0.0
 10
-2.1156700000000002
 20
2.6689700000000003
 30
0.0
 10
-2.1156700000000002
 20
2.6689700000000003
 30
0.0
 10
-2.1156700000000002
 20
2.6689700000000003
 30
0.0
 10
-1.8235700000000001
 20
2.6511900000000002
 30
0.0
 10
-1.8235700000000001
 20
2.6511900000000002
 30
0.0
 10
-1.8235700000000001
 20
2.6511900000000002
 30
0.0
 10
-2.0521700000000003
 20
2.01111
 30
0.0
 10
-0.9574300000000001
 20
2.1025500000000004
 30
0.0
 10
-1.0691900000000001
 20
2.6511900000000002
 30
0.0
 10
-1.0691900000000001
 20
2.6511900000000002
 30
0.0
 10
-0.9548900000000001
 20
2.59023
 30
0.0
 10
-0.84567
 20
2.6689700000000003
 30
0.0
 10
-0.74153
 20
2.6994500000000001
 30
0.0
 10
-0.74153
 20
2.6994500000000001
 30
0.0
 10
-0.8507500000000001
 20
2.1025500000000004
 30
0.0
 10
0.17286
 20
2.2752700000000003
 30
0.0
 10
-0.02779
 20
2.7934300000000003
 30
0.0
 10
-0.02779
 20
2.7934300000000003
 30
0.0
 10
0.0611
 20
2.7477100000000001
 30
0.0
 10
0.16016
 20
2.8721700000000001
 30
0.0
 10
0.24398
 20
2.7934300000000003
 30
0.0
 10
0.24398
 20
2.7934300000000003
 30
0.0
 10
0.57164
 20
2.4962500000000003
 30
0.0
 10
-0.59167
 20
2.1660500000000003
 30
0.0
 10
0.00776
 20
2.26003
 30
0.0
 10
0.00776
 20
2.26003
 30
0.0
 10
-0.39355
 20
1.8688700000000003
 30
0.0
 10
-0.05827
 20
1.0535300000000001
 30
0.0
 10
0.4497200000000001
 20
1.32023
 30
0.0
 10
0.4497200000000001
 20
1.32023
 30
0.0
 10
0.8967600000000001
 20
0.72333
 30
0.0
 10
2.17692
 20
1.4777100000000001
 30
0.0
 10
1.9381600000000001
 20
1.9780900000000001
 30
0.0
 10
1.9381600000000001
 20
1.9780900000000001
 30
0.0
 10
1.9915000000000003
 20
2.0568300000000002
 30
0.0
 10
2.0727800000000003
 20
2.1025500000000004
 30
0.0
 10
2.1540600000000003
 20
2.1508100000000003
 30
0.0
 10
2.1540600000000003
 20
2.1508100000000003
 30
0.0
 10
2.7535000000000003
 20
2.6207100000000003
 30
0.0
 10
2.05246
 20
2.2447900000000001
 30
0.0
 10
1.7197200000000001
 20
2.1838300000000004
 30
0.0
 10
1.7197200000000001
 20
2.1838300000000004
 30
0.0
 10
1.4936600000000002
 20
2.3235300000000003
 30
0.0
 10
1.2599800000000001
 20
2.4479900000000003
 30
0.0
 10
0.9983600000000001
 20
2.5114900000000002
 30
0.0
 10
0.9983600000000001
 20
2.5114900000000002
 30
0.0
 10
0.6681600000000001
 20
2.5749900000000001
 30
0.0
 10
0.9755
 20
2.7299300000000004
 30
0.0
 10
0.9247000000000001
 20
2.9813900000000002
 30
0.0
 10
0.9247000000000001
 20
2.9813900000000002
 30
0.0
 10
0.9247000000000001
 20
2.9813900000000002
 30
0.0
 10
2.0778600000000003
 20
3.0601300000000005
 30
0.0
 10
2.0778600000000003
 20
3.0601300000000005
 30
0.0
 10
2.0778600000000003
 20
3.0601300000000005
 30
0.0
 10
2.2277200000000001
 20
2.88741
 30
0.0
 10
2.2861400000000001
 20
2.59023
 30
0.0
 10
2.50204
 20
2.5267300000000001
 30
0.0
 10
2.50204
 20
2.5267300000000001
 30
0.0
 10
2.6442800000000002
 20
3.0906100000000003
 30
0.0
 10
3.0786200000000004
 20
3.3115900000000003
 30
0.0
 10
3.5231200000000005
 20
3.5300300000000004
 30
0.0
  0
SPLINE
  5
4B
100
AcDbEntity
  8
Ebene 1
 62
     7
100
AcDbSpline
210
0.0
220
0.0
230
1.0
 70
     1
 71
     3
 72
    12
 73
     8
 74
     0
 42
0.0000000001
 43
0.0000000001
 40
0.0
 40
0.0
 40
0.0
 40
0.0
 40
0.5
 40
0.5
 40
0.5
 40
0.5
 40
1.0
 40
1.0
 40
1.0
 40
1.0
 10
2.6442800000000002
 20
3.3573100000000005
 30
0.0
 10
2.6722200000000003
 20
3.2963500000000003
 30
0.0
 10
2.67984
 20
3.1998300000000004
 30
0.0
 10
2.6569800000000003
 20
3.1236300000000004
 30
0.0
 10
2.6569800000000003
 20
3.1236300000000004
 30
0.0
 10
2.5909400000000002
 20
3.1845900000000005
 30
0.0
 10
2.6722200000000003
 20
3.2785700000000002
 30
0.0
 10
2.6442800000000002
 20
3.3573100000000005
 30
0.0
  0
SPLINE
  5
4C
100
AcDbEntity
  8
Ebene 1
 62
     7
100
AcDbSpline
210
0.0
220
0.0
230
1.0
 70
     1
 71
     3
 72
    24
 73
    20
 74
     0
 42
0.0000000001
 43
0.0000000001
 40
0.0
 40
0.0
 40
0.0
 40
0.0
 40
0.2
 40
0.2
 40
0.2
 40
0.2
 40
0.4
 40
0.4
 40
0.4
 40
0.4
 40
0.6000000000000001
 40
0.6000000000000001
 40
0.6000000000000001
 40
0.6000000000000001
 40
0.8
 40
0.8
 40
0.8
 40
0.8
 40
1.0
 40
1.0
 40
1.0
 40
1.0
 10
-3.0427700000000004
 20
2.71469
 30
0.0
 10
-3.0427700000000004
 20
2.71469
 30
0.0
 10
-2.9843500000000001
 20
2.71469
 30
0.0
 10
-2.9843500000000001
 20
2.71469
 30
0.0
 10
-2.9843500000000001
 20
2.71469
 30
0.0
 10
-2.9741900000000001
 20
2.46577
 30
0.0
 10
-3.1824700000000004
 20
2.26003
 30
0.0
 10
-3.0605500000000001
 20
2.01111
 30
0.0
 10
-3.0605500000000001
 20
2.01111
 30
0.0
 10
-3.0605500000000001
 20
2.01111
 30
0.0
 10
-3.0910300000000004
 20
1.9145900000000002
 30
0.0
 10
-3.0910300000000004
 20
1.9145900000000002
 30
0.0
 10
-3.0910300000000004
 20
1.9145900000000002
 30
0.0
 10
-3.1748500000000002
 20
2.13557
 30
0.0
 10
-3.1418300000000001
 20
2.4327500000000004
 30
0.0
 10
-3.1164300000000003
 20
2.6842100000000002
 30
0.0
 10
-3.1164300000000003
 20
2.6842100000000002
 30
0.0
 10
-3.1164300000000003
 20
2.6842100000000002
 30
0.0
 10
-3.0427700000000004
 20
2.71469
 30
0.0
 10
-3.0427700000000004
 20
2.71469
 30
0.0
  0
SPLINE
  5
4D
100
AcDbEntity
  8
Ebene 1
 62
     7
100
AcDbSpline
210
0.0
220
0.0
230
1.0
 70
     1
 71
     3
 72
    16
 73
    12
 74
     0
 42
0.0000000001
 43
0.0000000001
 40
0.0
 40
0.0
 40
0.0
 40
0.0
 40
0.3333333333333333
 40
0.3333333333333333
 40
0.3333333333333333
 40
0.3333333333333333
 40
0.6666666666666666
 40
0.6666666666666666
 40
0.6666666666666666
 40
0.6666666666666666
 40
1.0
 40
1.0
 40
1.0
 40
1.0
 10
-1.2419100000000001
 20
2.4479900000000003
 30
0.0
 10
-1.33335
 20
2.3235300000000003
 30
0.0
 10
-1.5162300000000002
 20
2.3082900000000004
 30
0.0
 10
-1.6432300000000002
 20
2.38449
 30
0.0
 10
-1.6432300000000002
 20
2.38449
 30
0.0
 10
-1.6432300000000002
 20
2.38449
 30
0.0
 10
-1.6432300000000002
 20
2.46577
 30
0.0
 10
-1.6432300000000002
 20
2.46577
 30
0.0
 10
-1.6432300000000002
 20
2.46577
 30
0.0
 10
-1.5111500000000002
 20
2.4327500000000004
 30
0.0
 10
-1.37907
 20
2.4022700000000001
 30
0.0
 10
-1.2419100000000001
 20
2.4479900000000003
 30
0.0
  0
SPLINE
  5
4E
100
AcDbEntity
  8
Ebene 1
100
AcDbSpline
210
0.0
220
0.0
230
1.0
 70
     1
 71
     3
 72
    12
 73
     8
 74
     0
 42
0.0000000001
 43
0.0000000001
 40
0.0
 40
0.0
 40
0.0
 40
0.0
 40
0.5
 40
0.5
 40
0.5
 40
0.5
 40
1.0
 40
1.0
 40
1.0
 40
1.0
 10
2.5198200000000002
 20
2.3082900000000004
 30
0.0
 10
2.6265000000000001
 20
2.29305
 30
0.0
 10
2.6392000000000002
 20
2.08731
 30
0.0
 10
2.6138000000000003
 20
2.01111
 30
0.0
 10
2.6138000000000003
 20
2.01111
 30
0.0
 10
2.5630000000000002
 20
2.08731
 30
0.0
 10
2.4969600000000001
 20
2.2143100000000002
 30
0.0
 10
2.5198200000000002
 20
2.3082900000000004
 30
0.0
  0
SPLINE
  5
4F
100
AcDbEntity
  8
Ebene 1
 62
     7
100
AcDbSpline
210
0.0
220
0.0
230
1.0
 70
     1
 71
     3
 72
    60
 73
    56
 74
     0
 42
0.0000000001
 43
0.0000000001
 40
0.0
 40
0.0
 40
0.0
 40
0.0
 40
0.0714285714285714
 40
0.0714285714285714
 40
0.0714285714285714
 40
0.0714285714285714
 40
0.1428571428571429
 40
0.1428571428571429
 40
0.1428571428571429
 40
0.1428571428571429
 40
0.2142857142857143
 40
0.2142857142857143
 40
0.2142857142857143
 40
0.2142857142857143
 40
0.2857142857142857
 40
0.2857142857142857
 40
0.2857142857142857
 40
0.2857142857142857
 40
0.3571428571428571
 40
0.3571428571428571
 40
0.3571428571428571
 40
0.3571428571428571
 40
0.4285714285714285
 40
0.4285714285714285
 40
0.4285714285714285
 40
0.4285714285714285
 40
0.4999999999999999
 40
0.4999999999999999
 40
0.4999999999999999
 40
0.4999999999999999
 40
0.5714285714285713
 40
0.5714285714285713
 40
0.5714285714285713
 40
0.5714285714285713
 40
0.6428571428571427
 40
0.6428571428571427
 40
0.6428571428571427
 40
0.6428571428571427
 40
0.7142857142857141
 40
0.7142857142857141
 40
0.7142857142857141
 40
0.7142857142857141
 40
0.7857142857142855
 40
0.7857142857142855
 40
0.7857142857142855
 40
0.7857142857142855
 40
0.8571428571428569
 40
0.8571428571428569
 40
0.8571428571428569
 40
0.8571428571428569
 40
0.9285714285714283
 40
0.9285714285714283
 40
0.9285714285714283
 40
0.9285714285714283
 40
1.0
 40
1.0
 40
1.0
 40
1.0
 10
-2.7151100000000001
 20
2.01111
 30
0.0
 10
-2.6897100000000003
 20
0.09595
 30
0.0
 10
-1.7397500000000001
 20
-1.5626600000000002
 30
0.0
 10
-1.58735
 20
-3.5057600000000004
 30
0.0
 10
-1.58735
 20
-3.5057600000000004
 30
0.0
 10
-1.6635500000000001
 20
-3.3813000000000004
 30
0.0
 10
-1.7067300000000001
 20
-3.2390600000000003
 30
0.0
 10
-1.75753
 20
-3.0993600000000003
 30
0.0
 10
-1.75753
 20
-3.0993600000000003
 30
0.0
 10
-1.75753
 20
-3.0993600000000003
 30
0.0
 10
-1.9099300000000001
 20
-2.8174200000000003
 30
0.0
 10
-1.9099300000000001
 20
-2.8174200000000003
 30
0.0
 10
-1.9099300000000001
 20
-2.8174200000000003
 30
0.0
 10
-1.9099300000000001
 20
-2.8174200000000003
 30
0.0
 10
-1.7295900000000002
 20
-3.3330400000000004
 30
0.0
 10
-1.7295900000000002
 20
-3.3330400000000004
 30
0.0
 10
-1.7295900000000002
 20
-3.3330400000000004
 30
0.0
 10
-1.7295900000000002
 20
-3.3330400000000004
 30
0.0
 10
-1.7118100000000001
 20
-3.3813000000000004
 30
0.0
 10
-1.7118100000000001
 20
-3.3813000000000004
 30
0.0
 10
-1.7118100000000001
 20
-3.3813000000000004
 30
0.0
 10
-1.6559300000000001
 20
-3.5210000000000004
 30
0.0
 10
-1.5594100000000002
 20
-3.6784800000000004
 30
0.0
 10
-1.6356100000000002
 20
-3.8359600000000005
 30
0.0
 10
-1.6356100000000002
 20
-3.8359600000000005
 30
0.0
 10
-2.61097
 20
-3.7267400000000004
 30
0.0
 10
-2.0750300000000004
 20
-2.2992600000000003
 30
0.0
 10
-2.6643100000000004
 20
-1.7811000000000001
 30
0.0
 10
-2.6643100000000004
 20
-1.7811000000000001
 30
0.0
 10
-2.6643100000000004
 20
-1.7811000000000001
 30
0.0
 10
-2.6998700000000002
 20
-1.49916
 30
0.0
 10
-2.6998700000000002
 20
-1.49916
 30
0.0
 10
-2.6998700000000002
 20
-1.49916
 30
0.0
 10
-2.7074900000000004
 20
-1.3747
 30
0.0
 10
-2.7074900000000004
 20
-1.2477
 30
0.0
 10
-2.7455900000000004
 20
-1.12324
 30
0.0
 10
-2.7455900000000004
 20
-1.12324
 30
0.0
 10
-2.5068300000000003
 20
-0.7930400000000001
 30
0.0
 10
-2.94625
 20
-0.22916
 30
0.0
 10
-2.8192500000000003
 20
0.22295
 30
0.0
 10
-2.8192500000000003
 20
0.22295
 30
0.0
 10
-2.6465300000000003
 20
-0.3714
 30
0.0
 10
-2.5804900000000002
 20
-1.1207
 30
0.0
 10
-2.3544300000000002
 20
-1.7049000000000001
 30
0.0
 10
-2.3544300000000002
 20
-1.7049000000000001
 30
0.0
 10
-2.31379
 20
-1.8115800000000002
 30
0.0
 10
-2.2477500000000004
 20
-1.8598400000000002
 30
0.0
 10
-2.18425
 20
-1.92334
 30
0.0
 10
-2.18425
 20
-1.92334
 30
0.0
 10
-2.5373100000000002
 20
-0.8667
 30
0.0
 10
-2.7760700000000003
 20
0.36265
 30
0.0
 10
-2.7735300000000001
 20
1.5081900000000001
 30
0.0
 10
-2.7735300000000001
 20
1.5081900000000001
 30
0.0
 10
-2.7735300000000001
 20
1.7088500000000002
 30
0.0
 10
-2.7760700000000003
 20
1.9958700000000003
 30
0.0
 10
-2.7151100000000001
 20
2.01111
 30
0.0
  0
SPLINE
  5
50
100
AcDbEntity
  8
Ebene 1
100
AcDbSpline
210
0.0
220
0.0
230
1.0
 70
     1
 71
     3
 72
    36
 73
    32
 74
     0
 42
0.0000000001
 43
0.0000000001
 40
0.0
 40
0.0
 40
0.0
 40
0.0
 40
0.125
 40
0.125
 40
0.125
 40
0.125
 40
0.25
 40
0.25
 40
0.25
 40
0.25
 40
0.375
 40
0.375
 40
0.375
 40
0.375
 40
0.5
 40
0.5
 40
0.5
 40
0.5
 40
0.625
 40
0.625
 40
0.625
 40
0.625
 40
0.75
 40
0.75
 40
0.75
 40
0.75
 40
0.875
 40
0.875
 40
0.875
 40
0.875
 40
1.0
 40
1.0
 40
1.0
 40
1.0
 10
2.6925400000000002
 20
1.7901300000000002
 30
0.0
 10
2.9541600000000003
 20
1.5234300000000001
 30
0.0
 10
3.0456000000000003
 20
1.0840100000000001
 30
0.0
 10
3.1421200000000002
 20
0.72333
 30
0.0
 10
3.1421200000000002
 20
0.72333
 30
0.0
 10
3.1218000000000004
 20
0.6445900000000001
 30
0.0
 10
3.0633800000000004
 20
0.59887
 30
0.0
 10
2.9897200000000002
 20
0.5683900000000001
 30
0.0
 10
2.9897200000000002
 20
0.5683900000000001
 30
0.0
 10
2.8982800000000002
 20
0.53537
 30
0.0
 10
2.8449400000000002
 20
0.61411
 30
0.0
 10
2.7916000000000003
 20
0.6445900000000001
 30
0.0
 10
2.7916000000000003
 20
0.6445900000000001
 30
0.0
 10
2.7839800000000001
 20
0.5048900000000001
 30
0.0
 10
2.7941400000000001
 20
0.36265
 30
0.0
 10
2.7382600000000004
 20
0.25343
 30
0.0
 10
2.7382600000000004
 20
0.25343
 30
0.0
 10
2.6900000000000004
 20
0.37789
 30
0.0
 10
2.6874600000000002
 20
0.5201300000000001
 30
0.0
 10
2.6722200000000003
 20
0.65983
 30
0.0
 10
2.6722200000000003
 20
0.65983
 30
0.0
 10
2.50204
 20
0.5836300000000001
 30
0.0
 10
2.3115400000000004
 20
0.33217
 30
0.0
 10
2.1312000000000002
 20
0.5201300000000001
 30
0.0
 10
2.1312000000000002
 20
0.5201300000000001
 30
0.0
 10
2.1312000000000002
 20
0.5201300000000001
 30
0.0
 10
2.0956400000000004
 20
0.6445900000000001
 30
0.0
 10
2.0956400000000004
 20
0.6445900000000001
 30
0.0
 10
2.0956400000000004
 20
0.6445900000000001
 30
0.0
 10
2.2201
 20
1.0382900000000002
 30
0.0
 10
2.2201
 20
1.6809100000000001
 30
0.0
 10
2.6925400000000002
 20
1.7901300000000002
 30
0.0
  0
SPLINE
  5
51
100
AcDbEntity
  8
Ebene 1
 62
     7
100
AcDbSpline
210
0.0
220
0.0
230
1.0
 70
     1
 71
     3
 72
    56
 73
    52
 74
     0
 42
0.0000000001
 43
0.0000000001
 40
0.0
 40
0.0
 40
0.0
 40
0.0
 40
0.0769230769230769
 40
0.0769230769230769
 40
0.0769230769230769
 40
0.0769230769230769
 40
0.1538461538461539
 40
0.1538461538461539
 40
0.1538461538461539
 40
0.1538461538461539
 40
0.2307692307692308
 40
0.2307692307692308
 40
0.2307692307692308
 40
0.2307692307692308
 40
0.3076923076923077
 40
0.3076923076923077
 40
0.3076923076923077
 40
0.3076923076923077
 40
0.3846153846153846
 40
0.3846153846153846
 40
0.3846153846153846
 40
0.3846153846153846
 40
0.4615384615384616
 40
0.4615384615384616
 40
0.4615384615384616
 40
0.4615384615384616
 40
0.5384615384615386
 40
0.5384615384615386
 40
0.5384615384615386
 40
0.5384615384615386
 40
0.6153846153846154
 40
0.6153846153846154
 40
0.6153846153846154
 40
0.6153846153846154
 40
0.6923076923076923
 40
0.6923076923076923
 40
0.6923076923076923
 40
0.6923076923076923
 40
0.7692307692307692
 40
0.7692307692307692
 40
0.7692307692307692
 40
0.7692307692307692
 40
0.846153846153846
 40
0.846153846153846
 40
0.846153846153846
 40
0.846153846153846
 40
0.9230769230769229
 40
0.9230769230769229
 40
0.9230769230769229
 40
0.9230769230769229
 40
1.0
 40
1.0
 40
1.0
 40
1.0
 10
-3.0427700000000004
 20
0.6928500000000001
 30
0.0
 10
-2.9564100000000004
 20
-0.11994
 30
0.0
 10
-2.9640300000000002
 20
-1.0292600000000001
 30
0.0
 10
-2.7303500000000001
 20
-1.8293600000000001
 30
0.0
 10
-2.7303500000000001
 20
-1.8293600000000001
 30
0.0
 10
-2.1563100000000004
 20
-2.6269200000000001
 30
0.0
 10
-2.35697
 20
-3.7419800000000003
 30
0.0
 10
-2.6947900000000002
 20
-4.5725600000000002
 30
0.0
 10
-2.6947900000000002
 20
-4.5725600000000002
 30
0.0
 10
-2.6947900000000002
 20
-4.5725600000000002
 30
0.0
 10
-2.9665700000000004
 20
-3.1450800000000001
 30
0.0
 10
-2.9665700000000004
 20
-3.1450800000000001
 30
0.0
 10
-2.9665700000000004
 20
-3.1450800000000001
 30
0.0
 10
-3.0580100000000003
 20
-2.6751800000000001
 30
0.0
 10
-3.0402300000000002
 20
-2.1570200000000002
 30
0.0
 10
-3.1646900000000002
 20
-1.7201400000000002
 30
0.0
 10
-3.1646900000000002
 20
-1.7201400000000002
 30
0.0
 10
-3.2104100000000004
 20
-2.1570200000000002
 30
0.0
 10
-3.0757900000000005
 20
-2.5812000000000004
 30
0.0
 10
-3.0605500000000001
 20
-3.0206200000000001
 30
0.0
 10
-3.0605500000000001
 20
-3.0206200000000001
 30
0.0
 10
-3.0605500000000001
 20
-3.0206200000000001
 30
0.0
 10
-2.7811500000000002
 20
-4.6182800000000004
 30
0.0
 10
-2.7811500000000002
 20
-4.6182800000000004
 30
0.0
 10
-2.7811500000000002
 20
-4.6182800000000004
 30
0.0
 10
-3.4618700000000002
 20
-4.0544000000000002
 30
0.0
 10
-3.5380700000000003
 20
-3.0511000000000004
 30
0.0
 10
-3.4212300000000004
 20
-2.23576
 30
0.0
 10
-3.4212300000000004
 20
-2.23576
 30
0.0
 10
-3.4339300000000001
 20
-2.1417800000000002
 30
0.0
 10
-3.4593300000000005
 20
-2.1621000000000001
 30
0.0
 10
-3.5025100000000005
 20
-2.1290800000000001
 30
0.0
 10
-3.5025100000000005
 20
-2.1290800000000001
 30
0.0
 10
-3.6091900000000003
 20
-1.2223000000000002
 30
0.0
 10
-3.4440900000000001
 20
-0.3536200000000001
 30
0.0
 10
-3.2205700000000004
 20
0.48965
 30
0.0
 10
-3.2205700000000004
 20
0.48965
 30
0.0
 10
-3.2205700000000004
 20
0.48965
 30
0.0
 10
-3.2612100000000002
 20
-0.5238
 30
0.0
 10
-3.2612100000000002
 20
-0.5238
 30
0.0
 10
-3.2612100000000002
 20
-0.5238
 30
0.0
 10
-3.2612100000000002
 20
-0.5238
 30
0.0
 10
-3.2840700000000003
 20
-0.7854200000000001
 30
0.0
 10
-3.2840700000000003
 20
-0.7854200000000001
 30
0.0
 10
-3.2840700000000003
 20
-0.7854200000000001
 30
0.0
 10
-3.2840700000000003
 20
-0.7854200000000001
 30
0.0
 10
-3.2027900000000002
 20
-0.9657600000000001
 30
0.0
 10
-3.2027900000000002
 20
-0.9657600000000001
 30
0.0
 10
-3.2027900000000002
 20
-0.9657600000000001
 30
0.0
 10
-3.1748500000000002
 20
-0.40188
 30
0.0
 10
-3.1392900000000004
 20
0.14421
 30
0.0
 10
-3.0427700000000004
 20
0.6928500000000001
 30
0.0
  0
SPLINE
  5
52
100
AcDbEntity
  8
Ebene 1
 62
     7
100
AcDbSpline
210
0.0
220
0.0
230
1.0
 70
     1
 71
     3
 72
   116
 73
   112
 74
     0
 42
0.0000000001
 43
0.0000000001
 40
0.0
 40
0.0
 40
0.0
 40
0.0
 40
0.0357142857142857
 40
0.0357142857142857
 40
0.0357142857142857
 40
0.0357142857142857
 40
0.0714285714285714
 40
0.0714285714285714
 40
0.0714285714285714
 40
0.0714285714285714
 40
0.1071428571428571
 40
0.1071428571428571
 40
0.1071428571428571
 40
0.1071428571428571
 40
0.1428571428571429
 40
0.1428571428571429
 40
0.1428571428571429
 40
0.1428571428571429
 40
0.1785714285714286
 40
0.1785714285714286
 40
0.1785714285714286
 40
0.1785714285714286
 40
0.2142857142857143
 40
0.2142857142857143
 40
0.2142857142857143
 40
0.2142857142857143
 40
0.2499999999999999
 40
0.2499999999999999
 40
0.2499999999999999
 40
0.2499999999999999
 40
0.2857142857142856
 40
0.2857142857142856
 40
0.2857142857142856
 40
0.2857142857142856
 40
0.3214285714285713
 40
0.3214285714285713
 40
0.3214285714285713
 40
0.3214285714285713
 40
0.357142857142857
 40
0.357142857142857
 40
0.357142857142857
 40
0.357142857142857
 40
0.3928571428571427
 40
0.3928571428571427
 40
0.3928571428571427
 40
0.3928571428571427
 40
0.4285714285714284
 40
0.4285714285714284
 40
0.4285714285714284
 40
0.4285714285714284
 40
0.4642857142857141
 40
0.4642857142857141
 40
0.4642857142857141
 40
0.4642857142857141
 40
0.4999999999999998
 40
0.4999999999999998
 40
0.4999999999999998
 40
0.4999999999999998
 40
0.5357142857142856
 40
0.5357142857142856
 40
0.5357142857142856
 40
0.5357142857142856
 40
0.5714285714285713
 40
0.5714285714285713
 40
0.5714285714285713
 40
0.5714285714285713
 40
0.607142857142857
 40
0.607142857142857
 40
0.607142857142857
 40
0.607142857142857
 40
0.6428571428571427
 40
0.6428571428571427
 40
0.6428571428571427
 40
0.6428571428571427
 40
0.6785714285714284
 40
0.6785714285714284
 40
0.6785714285714284
 40
0.6785714285714284
 40
0.7142857142857141
 40
0.7142857142857141
 40
0.7142857142857141
 40
0.7142857142857141
 40
0.7499999999999998
 40
0.7499999999999998
 40
0.7499999999999998
 40
0.7499999999999998
 40
0.7857142857142855
 40
0.7857142857142855
 40
0.7857142857142855
 40
0.7857142857142855
 40
0.8214285714285712
 40
0.8214285714285712
 40
0.8214285714285712
 40
0.8214285714285712
 40
0.8571428571428569
 40
0.8571428571428569
 40
0.8571428571428569
 40
0.8571428571428569
 40
0.8928571428571426
 40
0.8928571428571426
 40
0.8928571428571426
 40
0.8928571428571426
 40
0.9285714285714283
 40
0.9285714285714283
 40
0.9285714285714283
 40
0.9285714285714283
 40
0.964285714285714
 40
0.964285714285714
 40
0.964285714285714
 40
0.964285714285714
 40
1.0
 40
1.0
 40
1.0
 40
1.0
 10
-0.26909
 20
0.3474100000000001
 30
0.0
 10
-0.02271
 20
0.11119
 30
0.0
 10
0.27446
 20
-0.21392
 30
0.0
 10
0.63514
 20
0.05023
 30
0.0
 10
0.63514
 20
0.05023
 30
0.0
 10
0.6910200000000001
 20
-0.1682
 30
0.0
 10
0.40146
 20
-0.38664
 30
0.0
 10
0.57418
 20
-0.5593600000000001
 30
0.0
 10
0.57418
 20
-0.5593600000000001
 30
0.0
 10
0.66308
 20
-0.3079
 30
0.0
 10
0.76722
 20
0.05023
 30
0.0
 10
0.9653400000000001
 20
0.20771
 30
0.0
 10
0.9653400000000001
 20
0.20771
 30
0.0
 10
0.9272400000000001
 20
-0.22916
 30
0.0
 10
0.5208400000000001
 20
-0.63556
 30
0.0
 10
0.5945
 20
-1.12324
 30
0.0
 10
0.5945
 20
-1.12324
 30
0.0
 10
0.7088000000000001
 20
-1.1537200000000001
 30
0.0
 10
0.64276
 20
-0.9987800000000001
 30
0.0
 10
0.6910200000000001
 20
-0.9352800000000001
 30
0.0
 10
0.6910200000000001
 20
-0.9352800000000001
 30
0.0
 10
0.88914
 20
-1.2324600000000001
 30
0.0
 10
1.1304400000000001
 20
-1.49916
 30
0.0
 10
1.23204
 20
-1.8446000000000002
 30
0.0
 10
1.23204
 20
-1.8446000000000002
 30
0.0
 10
1.3311000000000002
 20
-1.7506200000000001
 30
0.0
 10
1.2396600000000002
 20
-1.5144000000000002
 30
0.0
 10
1.3412600000000001
 20
-1.4382000000000001
 30
0.0
 10
1.3412600000000001
 20
-1.4382000000000001
 30
0.0
 10
1.52922
 20
-1.49916
 30
0.0
 10
1.2650600000000001
 20
-1.7811000000000001
 30
0.0
 10
1.3742800000000002
 20
-1.8928600000000002
 30
0.0
 10
1.3742800000000002
 20
-1.8928600000000002
 30
0.0
 10
1.4809600000000001
 20
-1.6566400000000001
 30
0.0
 10
1.5165200000000001
 20
-1.5144000000000002
 30
0.0
 10
1.7070200000000002
 20
-1.3899400000000002
 30
0.0
 10
1.7070200000000002
 20
-1.3899400000000002
 30
0.0
 10
1.7578200000000002
 20
-1.6566400000000001
 30
0.0
 10
1.5851000000000002
 20
-1.8928600000000002
 30
0.0
 10
1.5368400000000002
 20
-2.1417800000000002
 30
0.0
 10
1.5368400000000002
 20
-2.1417800000000002
 30
0.0
 10
1.7095600000000002
 20
-2.0478000000000001
 30
0.0
 10
1.7248000000000001
 20
-1.67188
 30
0.0
 10
1.8187800000000001
 20
-1.6566400000000001
 30
0.0
 10
1.8187800000000001
 20
-1.6566400000000001
 30
0.0
 10
1.9534000000000002
 20
-1.7353800000000001
 30
0.0
 10
1.9813400000000001
 20
-1.49916
 30
0.0
 10
2.0626200000000003
 20
-1.4382000000000001
 30
0.0
 10
2.0626200000000003
 20
-1.4382000000000001
 30
0.0
 10
2.0626200000000003
 20
-1.4382000000000001
 30
0.0
 10
2.0169000000000001
 20
-2.0909800000000001
 30
0.0
 10
2.0169000000000001
 20
-2.0909800000000001
 30
0.0
 10
2.0169000000000001
 20
-2.0909800000000001
 30
0.0
 10
2.0169000000000001
 20
-2.0909800000000001
 30
0.0
 10
2.1642200000000003
 20
-2.2510000000000003
 30
0.0
 10
2.1642200000000003
 20
-2.2510000000000003
 30
0.0
 10
2.1642200000000003
 20
-2.2510000000000003
 30
0.0
 10
2.1312000000000002
 20
-1.9868400000000002
 30
0.0
 10
2.17692
 20
-1.8141200000000002
 30
0.0
 10
2.3598000000000003
 20
-1.6414000000000002
 30
0.0
 10
2.3598000000000003
 20
-1.6414000000000002
 30
0.0
 10
2.3979000000000004
 20
-1.7811000000000001
 30
0.0
 10
2.4360000000000004
 20
-1.9385800000000002
 30
0.0
 10
2.4410800000000004
 20
-2.09606
 30
0.0
 10
2.4410800000000004
 20
-2.09606
 30
0.0
 10
2.5731600000000001
 20
-2.1951200000000002
 30
0.0
 10
2.5045800000000003
 20
-1.8928600000000002
 30
0.0
 10
2.4614000000000003
 20
-1.7023600000000001
 30
0.0
 10
2.4614000000000003
 20
-1.7023600000000001
 30
0.0
 10
2.5884
 20
-1.8293600000000001
 30
0.0
 10
2.6823800000000002
 20
-1.6236200000000001
 30
0.0
 10
2.7204800000000002
 20
-1.5296400000000001
 30
0.0
 10
2.7204800000000002
 20
-1.5296400000000001
 30
0.0
 10
2.7433400000000003
 20
-1.6414000000000002
 30
0.0
 10
2.6976200000000001
 20
-1.8700000000000001
 30
0.0
 10
2.7052400000000003
 20
-1.9792200000000002
 30
0.0
 10
2.7052400000000003
 20
-1.9792200000000002
 30
0.0
 10
2.7052400000000003
 20
-1.9792200000000002
 30
0.0
 10
2.79922
 20
-2.1265400000000003
 30
0.0
 10
2.79922
 20
-2.1265400000000003
 30
0.0
 10
2.79922
 20
-2.1265400000000003
 30
0.0
 10
2.8805000000000001
 20
-1.7328400000000002
 30
0.0
 10
3.2284800000000002
 20
-1.3747
 30
0.0
 10
3.1497400000000004
 20
-1.8293600000000001
 30
0.0
 10
3.1497400000000004
 20
-1.8293600000000001
 30
0.0
 10
3.2437200000000002
 20
-2.0478000000000001
 30
0.0
 10
3.4012000000000002
 20
-2.3145000000000002
 30
0.0
 10
3.2513400000000003
 20
-2.56596
 30
0.0
 10
3.2513400000000003
 20
-2.56596
 30
0.0
 10
3.05322
 20
-2.7056600000000004
 30
0.0
 10
2.7738200000000002
 20
-2.6751800000000001
 30
0.0
 10
2.8525600000000004
 20
-2.4872200000000002
 30
0.0
 10
2.8525600000000004
 20
-2.4872200000000002
 30
0.0
 10
2.4410800000000004
 20
-2.69042
 30
0.0
 10
2.0219800000000001
 20
-2.8936200000000003
 30
0.0
 10
1.5520800000000001
 20
-2.8326600000000002
 30
0.0
 10
1.5520800000000001
 20
-2.8326600000000002
 30
0.0
 10
1.1634600000000002
 20
-2.4719800000000003
 30
0.0
 10
0.785
 20
-2.1875
 30
0.0
 10
0.3455800000000001
 20
-1.9055600000000001
 30
0.0
 10
0.3455800000000001
 20
-1.9055600000000001
 30
0.0
 10
0.1246
 20
-1.3569200000000001
 30
0.0
 10
0.15254
 20
-0.7320800000000001
 30
0.0
 10
-0.00239
 20
-0.1682
 30
0.0
 10
-0.00239
 20
-0.1682
 30
0.0
 10
-0.16749
 20
-0.07168
 30
0.0
 10
0.01792
 20
-0.49586
 30
0.0
 10
-0.08113
 20
-0.6050800000000001
 30
0.0
 10
-0.08113
 20
-0.6050800000000001
 30
0.0
 10
-0.29957
 20
-0.34092
 30
0.0
 10
-0.5205500000000001
 20
0.03499
 30
0.0
 10
-0.26909
 20
0.3474100000000001
 30
0.0
  0
SPLINE
  5
53
100
AcDbEntity
  8
Ebene 1
 62
     7
100
AcDbSpline
210
0.0
220
0.0
230
1.0
 70
     1
 71
     3
 72
    12
 73
     8
 74
     0
 42
0.0000000001
 43
0.0000000001
 40
0.0
 40
0.0
 40
0.0
 40
0.0
 40
0.5
 40
0.5
 40
0.5
 40
0.5
 40
1.0
 40
1.0
 40
1.0
 40
1.0
 10
1.4682600000000001
 20
0.14421
 30
0.0
 10
1.5495400000000001
 20
0.12897
 30
0.0
 10
1.5597000000000001
 20
0.01975
 30
0.0
 10
1.5597000000000001
 20
-0.0412
 30
0.0
 10
1.5597000000000001
 20
-0.0412
 30
0.0
 10
1.5063600000000001
 20
0.00197
 30
0.0
 10
1.4606400000000002
 20
0.06547
 30
0.0
 10
1.4682600000000001
 20
0.14421
 30
0.0
  0
SPLINE
  5
54
100
AcDbEntity
  8
Ebene 1
 62
     7
100
AcDbSpline
210
0.0
220
0.0
230
1.0
 70
     1
 71
     3
 72
    12
 73
     8
 74
     0
 42
0.0000000001
 43
0.0000000001
 40
0.0
 40
0.0
 40
0.0
 40
0.0
 40
0.5
 40
0.5
 40
0.5
 40
0.5
 40
1.0
 40
1.0
 40
1.0
 40
1.0
 10
1.7197200000000001
 20
0.00197
 30
0.0
 10
1.7883000000000002
 20
-0.01072
 30
0.0
 10
1.8111600000000001
 20
-0.1047
 30
0.0
 10
1.7959200000000002
 20
-0.1682
 30
0.0
 10
1.7959200000000002
 20
-0.1682
 30
0.0
 10
1.7171800000000002
 20
-0.13518
 30
0.0
 10
1.7095600000000002
 20
-0.07168
 30
0.0
 10
1.7197200000000001
 20
0.00197
 30
0.0
  0
SPLINE
  5
55
100
AcDbEntity
  8
Ebene 1
 62
     7
100
AcDbSpline
210
0.0
220
0.0
230
1.0
 70
     1
 71
     3
 72
    24
 73
    20
 74
     0
 42
0.0000000001
 43
0.0000000001
 40
0.0
 40
0.0
 40
0.0
 40
0.0
 40
0.2
 40
0.2
 40
0.2
 40
0.2
 40
0.4
 40
0.4
 40
0.4
 40
0.4
 40
0.6000000000000001
 40
0.6000000000000001
 40
0.6000000000000001
 40
0.6000000000000001
 40
0.8
 40
0.8
 40
0.8
 40
0.8
 40
1.0
 40
1.0
 40
1.0
 40
1.0
 10
1.2803000000000002
 20
-0.02596
 30
0.0
 10
1.3438000000000001
 20
-0.21392
 30
0.0
 10
1.2549000000000001
 20
-0.4171200000000001
 30
0.0
 10
1.18632
 20
-0.58984
 30
0.0
 10
1.18632
 20
-0.58984
 30
0.0
 10
1.18886
 20
-0.8082800000000001
 30
0.0
 10
1.1787000000000001
 20
-1.0445
 30
0.0
 10
1.2015600000000002
 20
-1.2654800000000002
 30
0.0
 10
1.2015600000000002
 20
-1.2654800000000002
 30
0.0
 10
1.2015600000000002
 20
-1.2654800000000002
 30
0.0
 10
1.1558400000000002
 20
-1.3416800000000002
 30
0.0
 10
1.1558400000000002
 20
-1.3416800000000002
 30
0.0
 10
1.1558400000000002
 20
-1.3416800000000002
 30
0.0
 10
0.8485
 20
-1.1537200000000001
 30
0.0
 10
0.82818
 20
-0.76256
 30
0.0
 10
0.82564
 20
-0.4171200000000001
 30
0.0
 10
0.82564
 20
-0.4171200000000001
 30
0.0
 10
0.9297800000000001
 20
-0.22916
 30
0.0
 10
1.06948
 20
-0.0412
 30
0.0
 10
1.2803000000000002
 20
-0.02596
 30
0.0
  0
SPLINE
  5
56
100
AcDbEntity
  8
Ebene 1
 62
     7
100
AcDbSpline
210
0.0
220
0.0
230
1.0
 70
     1
 71
     3
 72
    16
 73
    12
 74
     0
 42
0.0000000001
 43
0.0000000001
 40
0.0
 40
0.0
 40
0.0
 40
0.0
 40
0.3333333333333333
 40
0.3333333333333333
 40
0.3333333333333333
 40
0.3333333333333333
 40
0.6666666666666666
 40
0.6666666666666666
 40
0.6666666666666666
 40
0.6666666666666666
 40
1.0
 40
1.0
 40
1.0
 40
1.0
 10
1.4377800000000001
 20
-0.22916
 30
0.0
 10
1.5774800000000002
 20
-0.27742
 30
0.0
 10
1.4682600000000001
 20
-0.5111
 30
0.0
 10
1.4504800000000002
 20
-0.6228600000000001
 30
0.0
 10
1.4504800000000002
 20
-0.6228600000000001
 30
0.0
 10
1.4504800000000002
 20
-0.6228600000000001
 30
0.0
 10
1.3895200000000001
 20
-0.6228600000000001
 30
0.0
 10
1.3895200000000001
 20
-0.6228600000000001
 30
0.0
 10
1.3895200000000001
 20
-0.6228600000000001
 30
0.0
 10
1.3006200000000001
 20
-0.5111
 30
0.0
 10
1.44286
 20
-0.3536200000000001
 30
0.0
 10
1.4377800000000001
 20
-0.22916
 30
0.0
  0
SPLINE
  5
57
100
AcDbEntity
  8
Ebene 1
 62
     7
100
AcDbSpline
210
0.0
220
0.0
230
1.0
 70
     1
 71
     3
 72
    16
 73
    12
 74
     0
 42
0.0000000001
 43
0.0000000001
 40
0.0
 40
0.0
 40
0.0
 40
0.0
 40
0.3333333333333333
 40
0.3333333333333333
 40
0.3333333333333333
 40
0.3333333333333333
 40
0.6666666666666666
 40
0.6666666666666666
 40
0.6666666666666666
 40
0.6666666666666666
 40
1.0
 40
1.0
 40
1.0
 40
1.0
 10
1.7044800000000002
 20
-0.27742
 30
0.0
 10
1.7222600000000001
 20
-0.27742
 30
0.0
 10
1.7375
 20
-0.27742
 30
0.0
 10
1.7476600000000002
 20
-0.29266
 30
0.0
 10
1.7476600000000002
 20
-0.29266
 30
0.0
 10
1.7578200000000002
 20
-0.46538
 30
0.0
 10
1.8035400000000001
 20
-0.6838200000000001
 30
0.0
 10
1.7349600000000001
 20
-0.8413000000000001
 30
0.0
 10
1.7349600000000001
 20
-0.8413000000000001
 30
0.0
 10
1.4733400000000001
 20
-0.76256
 30
0.0
 10
1.6892400000000001
 20
-0.46538
 30
0.0
 10
1.7044800000000002
 20
-0.27742
 30
0.0
  0
SPLINE
  5
58
100
AcDbEntity
  8
Ebene 1
 62
     7
100
AcDbSpline
210
0.0
220
0.0
230
1.0
 70
     1
 71
     3
 72
    16
 73
    12
 74
     0
 42
0.0000000001
 43
0.0000000001
 40
0.0
 40
0.0
 40
0.0
 40
0.0
 40
0.3333333333333333
 40
0.3333333333333333
 40
0.3333333333333333
 40
0.3333333333333333
 40
0.6666666666666666
 40
0.6666666666666666
 40
0.6666666666666666
 40
0.6666666666666666
 40
1.0
 40
1.0
 40
1.0
 40
1.0
 10
2.7535000000000003
 20
-0.32314
 30
0.0
 10
2.8373200000000001
 20
-0.49586
 30
0.0
 10
2.8068400000000002
 20
-0.71684
 30
0.0
 10
2.8297000000000003
 20
-0.9200400000000001
 30
0.0
 10
2.8297000000000003
 20
-0.9200400000000001
 30
0.0
 10
2.8297000000000003
 20
-0.9200400000000001
 30
0.0
 10
2.7230200000000004
 20
-0.9352800000000001
 30
0.0
 10
2.7230200000000004
 20
-0.9352800000000001
 30
0.0
 10
2.7230200000000004
 20
-0.9352800000000001
 30
0.0
 10
2.6646000000000001
 20
-0.7473200000000001
 30
0.0
 10
2.7001600000000003
 20
-0.5111
 30
0.0
 10
2.7535000000000003
 20
-0.32314
 30
0.0
  0
SPLINE
  5
59
100
AcDbEntity
  8
Ebene 1
 62
     7
100
AcDbSpline
210
0.0
220
0.0
230
1.0
 70
     1
 71
     3
 72
    16
 73
    12
 74
     0
 42
0.0000000001
 43
0.0000000001
 40
0.0
 40
0.0
 40
0.0
 40
0.0
 40
0.3333333333333333
 40
0.3333333333333333
 40
0.3333333333333333
 40
0.3333333333333333
 40
0.6666666666666666
 40
0.6666666666666666
 40
0.6666666666666666
 40
0.6666666666666666
 40
1.0
 40
1.0
 40
1.0
 40
1.0
 10
2.9897200000000002
 20
-0.43236
 30
0.0
 10
3.0557600000000003
 20
-0.5441200000000001
 30
0.0
 10
3.0354400000000004
 20
-0.71684
 30
0.0
 10
3.0329000000000002
 20
-0.8565400000000001
 30
0.0
 10
3.0329000000000002
 20
-0.8565400000000001
 30
0.0
 10
3.0176600000000002
 20
-0.8717800000000001
 30
0.0
 10
2.9948000000000001
 20
-0.8717800000000001
 30
0.0
 10
2.9744800000000002
 20
-0.8717800000000001
 30
0.0
 10
2.9744800000000002
 20
-0.8717800000000001
 30
0.0
 10
2.9363800000000002
 20
-0.7473200000000001
 30
0.0
 10
2.9643200000000003
 20
-0.5746
 30
0.0
 10
2.9897200000000002
 20
-0.43236
 30
0.0
  0
SPLINE
  5
5A
100
AcDbEntity
  8
Ebene 1
 62
     7
100
AcDbSpline
210
0.0
220
0.0
230
1.0
 70
     1
 71
     3
 72
    12
 73
     8
 74
     0
 42
0.0000000001
 43
0.0000000001
 40
0.0
 40
0.0
 40
0.0
 40
0.0
 40
0.5
 40
0.5
 40
0.5
 40
0.5
 40
1.0
 40
1.0
 40
1.0
 40
1.0
 10
3.2386400000000002
 20
-0.43236
 30
0.0
 10
3.2335600000000002
 20
-0.5441200000000001
 30
0.0
 10
3.3707200000000004
 20
-0.82606
 30
0.0
 10
3.1980000000000004
 20
-0.8565400000000001
 30
0.0
 10
3.1980000000000004
 20
-0.8565400000000001
 30
0.0
 10
3.1802200000000003
 20
-0.69906
 30
0.0
 10
3.2107000000000001
 20
-0.5746
 30
0.0
 10
3.2386400000000002
 20
-0.43236
 30
0.0
  0
SPLINE
  5
5B
100
AcDbEntity
  8
Ebene 1
 62
     7
100
AcDbSpline
210
0.0
220
0.0
230
1.0
 70
     1
 71
     3
 72
    12
 73
     8
 74
     0
 42
0.0000000001
 43
0.0000000001
 40
0.0
 40
0.0
 40
0.0
 40
0.0
 40
0.5
 40
0.5
 40
0.5
 40
0.5
 40
1.0
 40
1.0
 40
1.0
 40
1.0
 10
1.9229200000000002
 20
-0.45014
 30
0.0
 10
2.0169000000000001
 20
-0.58984
 30
0.0
 10
2.0880200000000002
 20
-0.8082800000000001
 30
0.0
 10
2.0448400000000002
 20
-0.9810000000000001
 30
0.0
 10
2.0448400000000002
 20
-0.9810000000000001
 30
0.0
 10
1.7603600000000001
 20
-0.9987800000000001
 30
0.0
 10
1.9026000000000001
 20
-0.6050800000000001
 30
0.0
 10
1.9229200000000002
 20
-0.45014
 30
0.0
  0
SPLINE
  5
5C
100
AcDbEntity
  8
Ebene 1
 62
     7
100
AcDbSpline
210
0.0
220
0.0
230
1.0
 70
     1
 71
     3
 72
    16
 73
    12
 74
     0
 42
0.0000000001
 43
0.0000000001
 40
0.0
 40
0.0
 40
0.0
 40
0.0
 40
0.3333333333333333
 40
0.3333333333333333
 40
0.3333333333333333
 40
0.3333333333333333
 40
0.6666666666666666
 40
0.6666666666666666
 40
0.6666666666666666
 40
0.6666666666666666
 40
1.0
 40
1.0
 40
1.0
 40
1.0
 10
2.3166200000000003
 20
-0.5111
 30
0.0
 10
2.4029800000000003
 20
-0.6228600000000001
 30
0.0
 10
2.34456
 20
-0.82606
 30
0.0
 10
2.3750400000000003
 20
-0.9657600000000001
 30
0.0
 10
2.3750400000000003
 20
-0.9657600000000001
 30
0.0
 10
2.3166200000000003
 20
-0.9810000000000001
 30
0.0
 10
2.2556600000000002
 20
-1.0140200000000001
 30
0.0
 10
2.1947000000000001
 20
-0.9987800000000001
 30
0.0
 10
2.1947000000000001
 20
-0.9987800000000001
 30
0.0
 10
2.16676
 20
-0.8413000000000001
 30
0.0
 10
2.2556600000000002
 20
-0.6685800000000001
 30
0.0
 10
2.3166200000000003
 20
-0.5111
 30
0.0
  0
SPLINE
  5
5D
100
AcDbEntity
  8
Ebene 1
 62
     7
100
AcDbSpline
210
0.0
220
0.0
230
1.0
 70
     1
 71
     3
 72
    16
 73
    12
 74
     0
 42
0.0000000001
 43
0.0000000001
 40
0.0
 40
0.0
 40
0.0
 40
0.0
 40
0.3333333333333333
 40
0.3333333333333333
 40
0.3333333333333333
 40
0.3333333333333333
 40
0.6666666666666666
 40
0.6666666666666666
 40
0.6666666666666666
 40
0.6666666666666666
 40
1.0
 40
1.0
 40
1.0
 40
1.0
 10
-2.8090900000000003
 20
-0.65334
 30
0.0
 10
-2.7684500000000001
 20
-0.7320800000000001
 30
0.0
 10
-2.7176500000000003
 20
-0.8717800000000001
 30
0.0
 10
-2.7455900000000004
 20
-0.9657600000000001
 30
0.0
 10
-2.7455900000000004
 20
-0.9657600000000001
 30
0.0
 10
-2.7455900000000004
 20
-0.9657600000000001
 30
0.0
 10
-2.7735300000000001
 20
-0.9657600000000001
 30
0.0
 10
-2.7735300000000001
 20
-0.9657600000000001
 30
0.0
 10
-2.7735300000000001
 20
-0.9657600000000001
 30
0.0
 10
-2.7735300000000001
 20
-0.9657600000000001
 30
0.0
 10
-2.8090900000000003
 20
-0.65334
 30
0.0
 10
-2.8090900000000003
 20
-0.65334
 30
0.0
  0
SPLINE
  5
5E
100
AcDbEntity
  8
Ebene 1
 62
     7
100
AcDbSpline
210
0.0
220
0.0
230
1.0
 70
     1
 71
     3
 72
    12
 73
     8
 74
     0
 42
0.0000000001
 43
0.0000000001
 40
0.0
 40
0.0
 40
0.0
 40
0.0
 40
0.5
 40
0.5
 40
0.5
 40
0.5
 40
1.0
 40
1.0
 40
1.0
 40
1.0
 10
2.5198200000000002
 20
-0.69906
 30
0.0
 10
2.5401400000000001
 20
-0.76256
 30
0.0
 10
2.5706200000000003
 20
-0.8413000000000001
 30
0.0
 10
2.5630000000000002
 20
-0.9200400000000001
 30
0.0
 10
2.5630000000000002
 20
-0.9200400000000001
 30
0.0
 10
2.4868000000000001
 20
-0.9048000000000001
 30
0.0
 10
2.4918800000000001
 20
-0.76256
 30
0.0
 10
2.5198200000000002
 20
-0.69906
 30
0.0
  0
SPLINE
  5
5F
100
AcDbEntity
  8
Ebene 1
 62
     7
100
AcDbSpline
210
0.0
220
0.0
230
1.0
 70
     1
 71
     3
 72
    16
 73
    12
 74
     0
 42
0.0000000001
 43
0.0000000001
 40
0.0
 40
0.0
 40
0.0
 40
0.0
 40
0.3333333333333333
 40
0.3333333333333333
 40
0.3333333333333333
 40
0.3333333333333333
 40
0.6666666666666666
 40
0.6666666666666666
 40
0.6666666666666666
 40
0.6666666666666666
 40
1.0
 40
1.0
 40
1.0
 40
1.0
 10
1.3742800000000002
 20
-0.8717800000000001
 30
0.0
 10
1.4073000000000002
 20
-0.9200400000000001
 30
0.0
 10
1.4758800000000001
 20
-0.8794000000000001
 30
0.0
 10
1.4733400000000001
 20
-0.9251200000000001
 30
0.0
 10
1.4733400000000001
 20
-0.9251200000000001
 30
0.0
 10
1.4657200000000001
 20
-1.0673600000000001
 30
0.0
 10
1.44286
 20
-1.24516
 30
0.0
 10
1.3641200000000002
 20
-1.2172200000000002
 30
0.0
 10
1.3641200000000002
 20
-1.2172200000000002
 30
0.0
 10
1.3641200000000002
 20
-1.2172200000000002
 30
0.0
 10
1.3742800000000002
 20
-0.8717800000000001
 30
0.0
 10
1.3742800000000002
 20
-0.8717800000000001
 30
0.0
  0
SPLINE
  5
60
100
AcDbEntity
  8
Ebene 1
 62
     7
100
AcDbSpline
210
0.0
220
0.0
230
1.0
 70
     1
 71
     3
 72
    12
 73
     8
 74
     0
 42
0.0000000001
 43
0.0000000001
 40
0.0
 40
0.0
 40
0.0
 40
0.0
 40
0.5
 40
0.5
 40
0.5
 40
0.5
 40
1.0
 40
1.0
 40
1.0
 40
1.0
 10
1.5470000000000002
 20
-0.9200400000000001
 30
0.0
 10
1.8162400000000001
 20
-0.88956
 30
0.0
 10
1.7044800000000002
 20
-1.20198
 30
0.0
 10
1.6232000000000002
 20
-1.3264400000000001
 30
0.0
 10
1.6232000000000002
 20
-1.3264400000000001
 30
0.0
 10
1.5419200000000002
 20
-1.2172200000000002
 30
0.0
 10
1.5520800000000001
 20
-1.0597400000000001
 30
0.0
 10
1.5470000000000002
 20
-0.9200400000000001
 30
0.0
  0
SPLINE
  5
61
100
AcDbEntity
  8
Ebene 1
 62
     7
100
AcDbSpline
210
0.0
220
0.0
230
1.0
 70
     1
 71
     3
 72
    16
 73
    12
 74
     0
 42
0.0000000001
 43
0.0000000001
 40
0.0
 40
0.0
 40
0.0
 40
0.0
 40
0.3333333333333333
 40
0.3333333333333333
 40
0.3333333333333333
 40
0.3333333333333333
 40
0.6666666666666666
 40
0.6666666666666666
 40
0.6666666666666666
 40
0.6666666666666666
 40
1.0
 40
1.0
 40
1.0
 40
1.0
 10
3.1776800000000001
 20
-0.9657600000000001
 30
0.0
 10
3.2030800000000004
 20
-0.9657600000000001
 30
0.0
 10
3.2361000000000004
 20
-0.9657600000000001
 30
0.0
 10
3.2513400000000003
 20
-0.9810000000000001
 30
0.0
 10
3.2513400000000003
 20
-0.9810000000000001
 30
0.0
 10
3.1853000000000002
 20
-1.1715
 30
0.0
 10
3.2081600000000003
 20
-1.4051800000000001
 30
0.0
 10
3.0735400000000004
 20
-1.54742
 30
0.0
 10
3.0735400000000004
 20
-1.54742
 30
0.0
 10
3.0862400000000001
 20
-1.3569200000000001
 30
0.0
 10
3.0049600000000001
 20
-1.07498
 30
0.0
 10
3.1776800000000001
 20
-0.9657600000000001
 30
0.0
  0
SPLINE
  5
62
100
AcDbEntity
  8
Ebene 1
 62
     7
100
AcDbSpline
210
0.0
220
0.0
230
1.0
 70
     1
 71
     3
 72
    16
 73
    12
 74
     0
 42
0.0000000001
 43
0.0000000001
 40
0.0
 40
0.0
 40
0.0
 40
0.0
 40
0.3333333333333333
 40
0.3333333333333333
 40
0.3333333333333333
 40
0.3333333333333333
 40
0.6666666666666666
 40
0.6666666666666666
 40
0.6666666666666666
 40
0.6666666666666666
 40
1.0
 40
1.0
 40
1.0
 40
1.0
 10
1.8594200000000001
 20
-1.0445
 30
0.0
 10
1.9178400000000002
 20
-1.0292600000000001
 30
0.0
 10
1.9661000000000002
 20
-1.0597400000000001
 30
0.0
 10
2.0143600000000004
 20
-1.07498
 30
0.0
 10
2.0143600000000004
 20
-1.07498
 30
0.0
 10
2.0321400000000001
 20
-1.2477
 30
0.0
 10
1.9864200000000001
 20
-1.42042
 30
0.0
 10
1.8772000000000002
 20
-1.54742
 30
0.0
 10
1.8772000000000002
 20
-1.54742
 30
0.0
 10
1.8010000000000002
 20
-1.4051800000000001
 30
0.0
 10
1.8365600000000002
 20
-1.20198
 30
0.0
 10
1.8594200000000001
 20
-1.0445
 30
0.0
  0
SPLINE
  5
63
100
AcDbEntity
  8
Ebene 1
 62
     7
100
AcDbSpline
210
0.0
220
0.0
230
1.0
 70
     1
 71
     3
 72
    20
 73
    16
 74
     0
 42
0.0000000001
 43
0.0000000001
 40
0.0
 40
0.0
 40
0.0
 40
0.0
 40
0.25
 40
0.25
 40
0.25
 40
0.25
 40
0.5
 40
0.5
 40
0.5
 40
0.5
 40
0.75
 40
0.75
 40
0.75
 40
0.75
 40
1.0
 40
1.0
 40
1.0
 40
1.0
 10
2.8322400000000001
 20
-1.0445
 30
0.0
 10
2.8830400000000003
 20
-1.0597400000000001
 30
0.0
 10
2.9211400000000003
 20
-1.0597400000000001
 30
0.0
 10
2.9694000000000003
 20
-1.0445
 30
0.0
 10
2.9694000000000003
 20
-1.0445
 30
0.0
 10
2.9871800000000004
 20
-1.1537200000000001
 30
0.0
 10
2.9541600000000003
 20
-1.2654800000000002
 30
0.0
 10
2.9262200000000003
 20
-1.3569200000000001
 30
0.0
 10
2.9262200000000003
 20
-1.3569200000000001
 30
0.0
 10
2.9643200000000003
 20
-1.4382000000000001
 30
0.0
 10
2.9440000000000004
 20
-1.54742
 30
0.0
 10
2.8754200000000001
 20
-1.6109200000000001
 30
0.0
 10
2.8754200000000001
 20
-1.6109200000000001
 30
0.0
 10
2.7916000000000003
 20
-1.4534400000000001
 30
0.0
 10
2.8093800000000004
 20
-1.2172200000000002
 30
0.0
 10
2.8322400000000001
 20
-1.0445
 30
0.0
  0
SPLINE
  5
64
100
AcDbEntity
  8
Ebene 1
 62
     7
100
AcDbSpline
210
0.0
220
0.0
230
1.0
 70
     1
 71
     3
 72
    16
 73
    12
 74
     0
 42
0.0000000001
 43
0.0000000001
 40
0.0
 40
0.0
 40
0.0
 40
0.0
 40
0.3333333333333333
 40
0.3333333333333333
 40
0.3333333333333333
 40
0.3333333333333333
 40
0.6666666666666666
 40
0.6666666666666666
 40
0.6666666666666666
 40
0.6666666666666666
 40
1.0
 40
1.0
 40
1.0
 40
1.0
 10
2.5198200000000002
 20
-1.07498
 30
0.0
 10
2.5198200000000002
 20
-1.07498
 30
0.0
 10
2.6722200000000003
 20
-1.0927600000000002
 30
0.0
 10
2.6722200000000003
 20
-1.0927600000000002
 30
0.0
 10
2.6722200000000003
 20
-1.0927600000000002
 30
0.0
 10
2.6493600000000002
 20
-1.2477
 30
0.0
 10
2.6112600000000001
 20
-1.4051800000000001
 30
0.0
 10
2.5477600000000002
 20
-1.54742
 30
0.0
 10
2.5477600000000002
 20
-1.54742
 30
0.0
 10
2.4741000000000004
 20
-1.4051800000000001
 30
0.0
 10
2.5096600000000002
 20
-1.2324600000000001
 30
0.0
 10
2.5198200000000002
 20
-1.07498
 30
0.0
  0
SPLINE
  5
65
100
AcDbEntity
  8
Ebene 1
 62
     7
100
AcDbSpline
210
0.0
220
0.0
230
1.0
 70
     1
 71
     3
 72
    16
 73
    12
 74
     0
 42
0.0000000001
 43
0.0000000001
 40
0.0
 40
0.0
 40
0.0
 40
0.0
 40
0.3333333333333333
 40
0.3333333333333333
 40
0.3333333333333333
 40
0.3333333333333333
 40
0.6666666666666666
 40
0.6666666666666666
 40
0.6666666666666666
 40
0.6666666666666666
 40
1.0
 40
1.0
 40
1.0
 40
1.0
 10
2.1743800000000002
 20
-1.0927600000000002
 30
0.0
 10
2.2404200000000003
 20
-1.1080000000000001
 30
0.0
 10
2.3293200000000001
 20
-1.0597400000000001
 30
0.0
 10
2.3750400000000003
 20
-1.12324
 30
0.0
 10
2.3750400000000003
 20
-1.12324
 30
0.0
 10
2.37758
 20
-1.3264400000000001
 30
0.0
 10
2.3166200000000003
 20
-1.5296400000000001
 30
0.0
 10
2.20486
 20
-1.6871200000000002
 30
0.0
 10
2.20486
 20
-1.6871200000000002
 30
0.0
 10
2.1464400000000001
 20
-1.5144000000000002
 30
0.0
 10
2.1261200000000002
 20
-1.2807200000000001
 30
0.0
 10
2.1743800000000002
 20
-1.0927600000000002
 30
0.0
  0
ENDSEC
  0
SECTION
  2
OBJECTS
  0
DICTIONARY
  5
19
100
AcDbDictionary
280
     0
281
     1
  3
ACAD_GROUP
350
1A
  3
ACAD_MLINESTYLE
350
1B
  3
ACAD_LAYOUT
350
1E
  3
ACAD_PLOTSETTINGS
350
22
  3
ACAD_PLOTSTYLENAME
350
1F
  3
ACAD_WIPEOUT_VARS
350
23
  0
DICTIONARY
  5
1A
102
{ACAD_REACTORS
330
19
102
}
100
AcDbDictionary
280
     0
281
     1
  0
DICTIONARY
  5
1B
102
{ACAD_REACTORS
330
19
102
}
100
AcDbDictionary
280
     0
281
     1
  3
Standard
350
1C
  0
MLINESTYLE
  5
1C
102
{ACAD_REACTORS
330
1B
102
}
100
AcDbMlineStyle
  2
Standard
 70
     0
  3

 62
     0
 51
90.0
 52
90.0
 71
     2
 49
0.5
 62
   256
  6
BYLAYER
 49
-0.5
 62
   256
  6
BYLAYER
  0
ACDBDICTIONARYWDFLT
  5
1F
102
{ACAD_REACTORS
330
19
102
}
100
AcDbDictionary
281
     1
  3
Normal
350
1D
100
AcDbDictionaryWithDefault
340
1D
  0
ACDBPLACEHOLDER
  5
1D
102
{ACAD_REACTORS
330
1F
102
}
  0
LAYOUT
  5
20
102
{ACAD_REACTORS
330
1E
102
}
100
AcDbPlotSettings
  1

  2

  4

  6

 40
0.0
 41
0.0
 42
0.0
 43
0.0
 44
0.0
 45
0.0
 46
0.0
 47
0.0
 48
0.0
 49
0.0
140
0.0
141
0.0
142
1.0
143
1.0
 70
  1024
 72
     0
 73
     0
 74
     0
  7

 75
     0
147
1.0
148
0.0
149
0.0
100
AcDbLayout
  1
Model
 70
     0
 71
     0
 10
0.0
 20
0.0
 11
0.0
 21
0.0
 12
0.0
 22
0.0
 32
0.0
 14
0.0
 24
0.0
 34
0.0
 15
0.0
 25
0.0
 35
0.0
146
0.0
 13
0.0
 23
0.0
 33
0.0
 16
0.0
 26
0.0
 36
0.0
 17
0.0
 27
0.0
 37
0.0
 76
     0
330
A
331
0
345
0
346
0
  0
LAYOUT
  5
21
102
{ACAD_REACTORS
330
1E
102
}
100
AcDbPlotSettings
  1

  2

  4

  6

 40
0.0
 41
0.0
 42
0.0
 43
0.0
 44
0.0
 45
0.0
 46
0.0
 47
0.0
 48
0.0
 49
0.0
140
0.0
141
0.0
142
1.0
143
1.0
 70
     0
 72
     0
 73
     0
 74
     0
  7

 75
     0
147
1.0
148
0.0
149
0.0
100
AcDbLayout
  1
Layout1
 70
     0
 71
     0
 10
0.0
 20
0.0
 11
0.0
 21
0.0
 12
0.0
 22
0.0
 32
0.0
 14
0.0
 24
0.0
 34
0.0
 15
0.0
 25
0.0
 35
0.0
146
0.0
 13
0.0
 23
0.0
 33
0.0
 16
0.0
 26
0.0
 36
0.0
 17
0.0
 27
0.0
 37
0.0
 76
     0
330
B
331
0
345
0
346
0
  0
DICTIONARY
  5
1E
102
{ACAD_REACTORS
330
19
102
}
100
AcDbDictionary
280
     0
281
     1
  3
Layout1
350
21
  3
Model
350
20
  0
DICTIONARY
  5
22
102
{ACAD_REACTORS
330
19
102
}
100
AcDbDictionary
280
     0
281
     1
  0
WIPEOUTVARIABLES
  5
23
100
AcDbWipeoutVariables
 70
     1
  0
ENDSEC
  0
EOF
