  0
SECTION
  2
HEADER
  9
$ACADVER
  1
AC1015
  9
$ACADMAINTVER
 70
     6
  9
$DWGCODEPAGE
  3
DOS850
  9
$INSBASE
 10
0.0
 20
0.0
 30
0.0
  9
$EXTMIN
 10
-4.61148
 20
-6.00004
 30
1.000000E+20
  9
$EXTMAX
 10
4.61824
 20
5.99346
 30
-1.000000E+20
  9
$LIMMIN
 10
0.0
 20
0.0
  9
$LIMMAX
 10
0.0
 20
0.0
  9
$ORTHOMODE
 70
     0
  9
$REGENMODE
 70
     1
  9
$FILLMODE
 70
     1
  9
$QTEXTMODE
 70
     0
  9
$MIRRTEXT
 70
     1
  9
$LTSCALE
 40
1.0
  9
$ATTMODE
 70
     1
  9
$TEXTSIZE
 40
0.2
  9
$TRACEWID
 40
0.05
  9
$TEXTSTYLE
  7
Standard
  9
$CLAYER
  8
0
  9
$CELTYPE
  6
Continuous
  9
$CECOLOR
 62
   256
  9
$CELTSCALE
 40
1.0
  9
$DISPSILH
 70
     0
  9
$DIMSCALE
 40
1.0
  9
$DIMASZ
 40
0.18
  9
$DIMEXO
 40
0.0625
  9
$DIMDLI
 40
0.38
  9
$DIMRND
 40
0.0
  9
$DIMDLE
 40
0.0
  9
$DIMEXE
 40
0.18
  9
$DIMTP
 40
0.0
  9
$DIMTM
 40
0.0
  9
$DIMTXT
 40
0.18
  9
$DIMCEN
 40
0.09
  9
$DIMTSZ
 40
0.0
  9
$DIMTOL
 70
     0
  9
$DIMLIM
 70
     0
  9
$DIMTIH
 70
     1
  9
$DIMTOH
 70
     1
  9
$DIMSE1
 70
     0
  9
$DIMSE2
 70
     0
  9
$DIMTAD
 70
     0
  9
$DIMZIN
 70
     0
  9
$DIMBLK
  1

  9
$DIMASO
 70
     1
  9
$DIMSHO
 70
     1
  9
$DIMPOST
  1

  9
$DIMAPOST
  1

  9
$DIMALT
 70
     0
  9
$DIMALTD
 70
     2
  9
$DIMALTF
 40
25.4
  9
$DIMLFAC
 40
1.0
  9
$DIMTOFL
 70
     0
  9
$DIMTVP
 40
0.0
  9
$DIMTIX
 70
     0
  9
$DIMSOXD
 70
     0
  9
$DIMSAH
 70
     0
  9
$DIMBLK1
  1

  9
$DIMBLK2
  1

  9
$DIMSTYLE
  2
Standard
  9
$DIMCLRD
 70
     0
  9
$DIMCLRE
 70
     0
  9
$DIMCLRT
 70
     0
  9
$DIMTFAC
 40
1.0
  9
$DIMGAP
 40
0.09
  9
$DIMJUST
 70
     0
  9
$DIMSD1
 70
     0
  9
$DIMSD2
 70
     0
  9
$DIMTOLJ
 70
     1
  9
$DIMTZIN
 70
     0
  9
$DIMALTZ
 70
     0
  9
$DIMALTTZ
 70
     0
  9
$DIMUPT
 70
     0
  9
$DIMDEC
 70
     4
  9
$DIMTDEC
 70
     4
  9
$DIMALTU
 70
     2
  9
$DIMALTTD
 70
     2
  9
$DIMTXSTY
  7
Standard
  9
$DIMAUNIT
 70
     0
  9
$DIMADEC
 70
     0
  9
$DIMALTRND
 40
0.0
  9
$DIMAZIN
 70
     0
  9
$DIMDSEP
 70
     0
  9
$DIMATFIT
 70
     3
  9
$DIMFRAC
 70
     0
  9
$DIMLDRBLK
  1

  9
$DIMLUNIT
 70
     2
  9
$DIMLWD
 70
     0
  9
$DIMLWE
 70
     0
  9
$DIMTMOVE
 70
     0
  9
$LUNITS
 70
     2
  9
$LUPREC
 70
     4
  9
$SKETCHINC
 40
0.1
  9
$FILLETRAD
 40
0.0
  9
$AUNITS
 70
     0
  9
$AUPREC
 70
     0
  9
$MENU
  1
acad
  9
$ELEVATION
 40
0.0
  9
$PELEVATION
 40
0.0
  9
$THICKNESS
 40
0.0
  9
$LIMCHECK
 70
     0
  9
$CHAMFERA
 40
0.0
  9
$CHAMFERB
 40
0.0
  9
$CHAMFERC
 40
0.0
  9
$CHAMFERD
 40
0.0
  9
$SKPOLY
 70
     0
  9
$TDCREATE
 40
0.000000000
  9
$TDUCREATE
 40
0.000000000
  9
$TDUPDATE
 40
0.000000000
  9
$TDUUPDATE
 40
0.000000000
  9
$TDINDWG
 40
0.0000000000
  9
$TDUSRTIMER
 40
0.0000000000
  9
$USRTIMER
 70
     1
  9
$ANGBASE
 50
0.0
  9
$ANGDIR
 70
     0
  9
$PDMODE
 70
     0
  9
$PDSIZE
 40
0.0
  9
$PLINEWID
 40
0.0
  9
$SPLFRAME
 70
     0
  9
$SPLINETYPE
 70
     6
  9
$SPLINESEGS
 70
     8
  9
$HANDSEED
  5
35
  9
$SURFTAB1
 70
     6
  9
$SURFTAB2
 70
     6
  9
$SURFTYPE
 70
     6
  9
$SURFU
 70
     6
  9
$SURFV
 70
     6
  9
$UCSBASE
  2

  9
$UCSNAME
  2

  9
$UCSORG
 10
0.0
 20
0.0
 30
0.0
  9
$UCSXDIR
 10
1.0
 20
0.0
 30
0.0
  9
$UCSYDIR
 10
0.0
 20
1.0
 30
0.0
  9
$UCSORTHOREF
  2

  9
$UCSORTHOVIEW
 70
     0
  9
$UCSORGTOP
 10
0.0
 20
0.0
 30
0.0
  9
$UCSORGBOTTOM
 10
0.0
 20
0.0
 30
0.0
  9
$UCSORGLEFT
 10
0.0
 20
0.0
 30
0.0
  9
$UCSORGRIGHT
 10
0.0
 20
0.0
 30
0.0
  9
$UCSORGFRONT
 10
0.0
 20
0.0
 30
0.0
  9
$UCSORGBACK
 10
0.0
 20
0.0
 30
0.0
  9
$PUCSBASE
  2

  9
$PUCSNAME
  2

  9
$PUCSORG
 10
0.0
 20
0.0
 30
0.0
  9
$PUCSXDIR
 10
1.0
 20
0.0
 30
0.0
  9
$PUCSYDIR
 10
0.0
 20
1.0
 30
0.0
  9
$PUCSORTHOREF
  2

  9
$PUCSORTHOVIEW
 70
     0
  9
$PUCSORGTOP
 10
0.0
 20
0.0
 30
0.0
  9
$PUCSORGBOTTOM
 10
0.0
 20
0.0
 30
0.0
  9
$PUCSORGLEFT
 10
0.0
 20
0.0
 30
0.0
  9
$PUCSORGRIGHT
 10
0.0
 20
0.0
 30
0.0
  9
$PUCSORGFRONT
 10
0.0
 20
0.0
 30
0.0
  9
$PUCSORGBACK
 10
0.0
 20
0.0
 30
0.0
  9
$USERI1
 70
     0
  9
$USERI2
 70
     0
  9
$USERI3
 70
     0
  9
$USERI4
 70
     0
  9
$USERI5
 70
     0
  9
$USERR1
 40
0.0
  9
$USERR2
 40
0.0
  9
$USERR3
 40
0.0
  9
$USERR4
 40
0.0
  9
$USERR5
 40
0.0
  9
$WORLDVIEW
 70
     1
  9
$SHADEDGE
 70
     3
  9
$SHADEDIF
 70
    70
  9
$TILEMODE
 70
     1
  9
$MAXACTVP
 70
    16
  9
$PINSBASE
 10
0.0
 20
0.0
 30
0.0
  9
$PLIMCHECK
 70
     0
  9
$PEXTMIN
 10
1.000000E+20
 20
1.000000E+20
 30
1.000000E+20
  9
$PEXTMAX
 10
-1.000000E+20
 20
-1.000000E+20
 30
-1.000000E+20
  9
$PLIMMIN
 10
0.0
 20
0.0
  9
$PLIMMAX
 10
12.0
 20
9.0
  9
$UNITMODE
 70
     0
  9
$VISRETAIN
 70
     0
  9
$PLINEGEN
 70
     1
  9
$PSLTSCALE
 70
     0
  9
$TREEDEPTH
 70
  3020
  9
$CMLSTYLE
  2
Standard
  9
$CMLJUST
 70
     0
  9
$CMLSCALE
 40
1.0
  9
$PROXYGRAPHICS
 70
     0
  9
$MEASUREMENT
 70
     0
  9
$CELWEIGHT
370
     0
  9
$ENDCAPS
280
     0
  9
$JOINSTYLE
280
     0
  9
$LWDISPLAY
290
     0
  9
$INSUNITS
 70
     5
  9
$HYPERLINKBASE
  1

  9
$XEDIT
290
     1
  9
$CEPSNTYPE
380
     0
  9
$PSTYLEMODE
290
     1
  9
$FINGERPRINTGUID
  2

  9
$VERSIONGUID
  2

  9
$EXTNAMES
290
     1
  9
$PSVPSCALE
 40
0.0
  0
ENDSEC
  0
SECTION
  2
CLASSES
  0
CLASS
  1
LWPOLYLINE
  2
AcDbPolyline
  3
AutoCAD 2000
 90
    32768
280
     0
281
     1
  0
CLASS
  1
IMAGE
  2
AcDbRasterImage
  3
ISM
 90
    32895
280
     0
281
     1
  0
CLASS
  1
OLE2FRAME
  2
AcDbOle2Frame
  3
AutoCAD 2000
 90
    32768
280
     0
281
     1
  0
CLASS
  1
HATCH
  2
AcDbHatch
  3
AutoCAD 2000
 90
    32768
280
     0
281
     1
  0
CLASS
  1
DICTIONARYVAR
  2
AcDbDictionaryVar
  3
AutoCAD 2000
 90
    32768
280
     0
281
     0
  0
CLASS
  1
RASTERVARIABLES
  2
AcDbRasterVariables
  3
ISM
 90
    32768
280
     0
281
     0
  0
CLASS
  1
IMAGEDEF
  2
AcDbRasterImageDef
  3
ISM
 90
    32768
280
     0
281
     0
  0
CLASS
  1
IMAGEDEF_REACTOR
  2
AcDbRasterImageDefReactor
  3
ISM
 90
    32769
280
     0
281
     0
  0
CLASS
  1
IDBUFFER
  2
AcDbIdBuffer
  3
AutoCAD 2000
 90
    32768
280
     0
281
     0
  0
CLASS
  1
SPATIAL_FILTER
  2
AcDbSpatialFilter
  3
AutoCAD 2000
 90
    32768
280
     0
281
     0
  0
CLASS
  1
XRECORD
  2
AcDbXrecord
  3
AutoCAD 2000
 90
    32768
280
     0
281
     0
  0
CLASS
  1
SORTENTSTABLE
  2
AcDbSortentsTable
  3
AutoCAD 2000
 90
    32768
280
     0
281
     0
  0
CLASS
  1
LAYER_INDEX
  2
AcDbLayerIndex
  3
AutoCAD 2000
 90
    32768
280
     0
281
     0
  0
CLASS
  1
SPATIAL_INDEX
  2
AcDbSpatialIndex
  3
AutoCAD 2000
 90
    32768
280
     0
281
     0
  0
CLASS
  1
OBJECT_PTR
  2
CAseDLPNTableRecord
  3
"ASE-LPNTableRecord"
 90
    32769
280
     0
281
     0
  0
CLASS
  1
LAYOUT
  2
AcDbLayout
  3
AutoCAD 2000
 90
        0
280
     0
281
     0
  0
CLASS
  1
PLOTSETTINGS
  2
AcDbPlotSettings
  3
AutoCAD 2000
 90
    32768
280
     0
281
     0
  0
CLASS
  1
ACDBDICTIONARYWDFLT
  2
AcDbDictionaryWithDefault
  3
AutoCAD 2000
 90
        0
280
     0
281
     0
  0
CLASS
  1
ACDBPLACEHOLDER
  2
AcDbPlaceHolder
  3
AutoCAD 2000
 90
        0
280
     0
281
     0
  0
CLASS
  1
VBA_PROJECT
  2
AcDbVbaProject
  3
acadvba
 90
    32768
280
     0
281
     0
  0
CLASS
  1
WIPEOUT
  2
AcDbWipeout
  3
WipeOut|AutoCAD Express Tool|expresstools@autodesk.com
 90
    32895
280
     0
281
     1
  0
CLASS
  1
WIPEOUTVARIABLES
  2
AcDbWipeoutVariables
  3
WipeOut|AutoCAD Express Tool|expresstools@autodesk.com
 90
        0
280
     0
281
     0
  0
CLASS
  1
RTEXT
  2
RText
  3
RText|AutoCAD Express Tool|expresstools@autodesk.com
 90
    32768
280
     0
281
     1
  0
CLASS
  1
ARCALIGNEDTEXT
  2
AcDbArcAlignedText
  3
ATEXT|AutoCAD Express Tool|expresstools@autodesk.com
 90
    32768
280
     0
281
     1
  0
ENDSEC
  0
SECTION
  2
TABLES
  0
TABLE
  2
VPORT
  5
7
100
AcDbSymbolTable
 70
     1
  0
VPORT
  5
15
100
AcDbSymbolTableRecord
100
AcDbViewportTableRecord
  2
*ACTIVE
 70
     0
 10
0.0
 20
0.0
 11
1.0
 21
1.0
 12
6.591288
 22
4.579184
 13
0.0
 23
0.0
 14
1.0
 24
1.0
 15
0.0
 25
0.0
 16
0.0
 26
0.0
 36
1.0
 17
0.0
 27
0.0
 37
0.0
 40
9.158369
 41
0.688564
 42
50.0
 43
0.0
 44
0.0
 50
0.0
 51
0.0
 71
     0
 72
   100
 73
     1
 74
     1
 75
     0
 76
     0
 77
     0
 78
     0
281
     0
 65
     0
110
0.0
120
0.0
130
0.0
111
1.0
121
0.0
131
0.0
112
0.0
122
1.0
132
0.0
345
0
346
0
 79
     0
146
0.0
  0
ENDTAB
  0
TABLE
  2
LTYPE
  5
4
100
AcDbSymbolTable
 70
     3
  0
LTYPE
  5
11
100
AcDbSymbolTableRecord
100
AcDbLinetypeTableRecord
  2
ByBlock
 70
    64
  3

 72
    65
 73
     0
 40
0.0
  0
LTYPE
  5
12
100
AcDbSymbolTableRecord
100
AcDbLinetypeTableRecord
  2
ByLayer
 70
    64
  3

 72
    65
 73
     0
 40
0.0
  0
LTYPE
  5
13
100
AcDbSymbolTableRecord
100
AcDbLinetypeTableRecord
  2
Continuous
 70
    64
  3
Solid line
 72
    65
 73
     0
 40
0.0
  0
ENDTAB
  0
TABLE
  2
LAYER
  5
2
100
AcDbSymbolTable
 70
     2
  0
LAYER
  5
14
100
AcDbSymbolTableRecord
100
AcDbLayerTableRecord
  2
0
 70
     0
 62
     7
  6
Continuous
290
     1
370
    -3
390
1D
  0
LAYER
  5
24
100
AcDbSymbolTableRecord
100
AcDbLayerTableRecord
  2
Ebene 1
 70
     0
 62
     7
  6
Continuous
290
     1
370
    -3
390
1F
  0
ENDTAB
  0
TABLE
  2
STYLE
  5
3
100
AcDbSymbolTable
 70
     1
  0
STYLE
  5
17
100
AcDbSymbolTableRecord
100
AcDbTextStyleTableRecord
  2
Standard
 70
     0
 40
0.0
 41
1.0
 50
0.0
 71
     0
 42
0.0
  3
txt
  4

  0
ENDTAB
  0
TABLE
  2
VIEW
  5
5
100
AcDbSymbolTable
 70
     0
  0
ENDTAB
  0
TABLE
  2
UCS
  5
6
100
AcDbSymbolTable
 70
     0
  0
ENDTAB
  0
TABLE
  2
APPID
  5
8
100
AcDbSymbolTable
 70
     1
  0
APPID
  5
16
100
AcDbSymbolTableRecord
100
AcDbRegAppTableRecord
  2
ACAD
 70
     0
  0
ENDTAB
  0
TABLE
  2
DIMSTYLE
  5
9
100
AcDbSymbolTable
 70
     1
100
AcDbDimStyleTable
 71
     0
  0
DIMSTYLE
105
18
100
AcDbSymbolTableRecord
100
AcDbDimStyleTableRecord
  2
Standard
 70
     0
  3

  4

 40
1.0
 41
0.18
 42
0.0625
 43
0.38
 44
0.18
 45
0.0
 46
0.0
 47
0.0
 48
0.0
 71
     0
 72
     0
 73
     1
 74
     1
 75
     0
 76
     0
 77
     0
 78
     0
 79
     0
140
0.18
141
0.09
142
0.0
143
25.4
144
1.0
145
0.0
146
1.0
147
0.09
148
0.0
170
     0
171
     2
172
     0
173
     0
174
     0
175
     0
176
     0
177
     0
178
     0
179
     0
271
     4
272
     4
273
     2
274
     2
275
     0
276
     0
277
     2
278
    46
279
     0
280
     0
281
     0
282
     0
283
     1
284
     0
285
     0
286
     0
288
     0
340
17
341
0
342
0
343
0
344
0
371
    -2
372
    -2
  0
ENDTAB
  0
TABLE
  2
BLOCK_RECORD
  5
1
100
AcDbSymbolTable
 70
     0
  0
BLOCK_RECORD
  5
A
100
AcDbSymbolTableRecord
100
AcDbBlockTableRecord
  2
*MODEL_SPACE
340
20
  0
BLOCK_RECORD
  5
B
100
AcDbSymbolTableRecord
100
AcDbBlockTableRecord
  2
*PAPER_SPACE
340
21
  0
ENDTAB
  0
ENDSEC
  0
SECTION
  2
BLOCKS
  0
BLOCK
  5
D
100
AcDbEntity
  8
0
100
AcDbBlockBegin
  2
*MODEL_SPACE
 70
     0
 10
0.0
 20
0.0
 30
0.0
  3
*MODEL_SPACE
  1

  0
ENDBLK
  5
E
100
AcDbEntity
  8
0
100
AcDbBlockEnd
  0
BLOCK
  5
F
100
AcDbEntity
 67
     1
  8
0
100
AcDbBlockBegin
  2
*PAPER_SPACE
 70
     0
 10
0.0
 20
0.0
 30
0.0
  3
*PAPER_SPACE
  1

  0
ENDBLK
  5
10
100
AcDbEntity
 67
     1
  8
0
100
AcDbBlockEnd
  0
ENDSEC
  0
SECTION
  2
ENTITIES
  0
SPLINE
  5
25
100
AcDbEntity
  8
Ebene 1
100
AcDbSpline
210
0.0
220
0.0
230
1.0
 70
     1
 71
     3
 72
    60
 73
    56
 74
     0
 42
0.0000000001
 43
0.0000000001
 40
0.0
 40
0.0
 40
0.0
 40
0.0
 40
0.0714285714285714
 40
0.0714285714285714
 40
0.0714285714285714
 40
0.0714285714285714
 40
0.1428571428571429
 40
0.1428571428571429
 40
0.1428571428571429
 40
0.1428571428571429
 40
0.2142857142857143
 40
0.2142857142857143
 40
0.2142857142857143
 40
0.2142857142857143
 40
0.2857142857142857
 40
0.2857142857142857
 40
0.2857142857142857
 40
0.2857142857142857
 40
0.3571428571428571
 40
0.3571428571428571
 40
0.3571428571428571
 40
0.3571428571428571
 40
0.4285714285714285
 40
0.4285714285714285
 40
0.4285714285714285
 40
0.4285714285714285
 40
0.4999999999999999
 40
0.4999999999999999
 40
0.4999999999999999
 40
0.4999999999999999
 40
0.5714285714285713
 40
0.5714285714285713
 40
0.5714285714285713
 40
0.5714285714285713
 40
0.6428571428571427
 40
0.6428571428571427
 40
0.6428571428571427
 40
0.6428571428571427
 40
0.7142857142857141
 40
0.7142857142857141
 40
0.7142857142857141
 40
0.7142857142857141
 40
0.7857142857142855
 40
0.7857142857142855
 40
0.7857142857142855
 40
0.7857142857142855
 40
0.8571428571428569
 40
0.8571428571428569
 40
0.8571428571428569
 40
0.8571428571428569
 40
0.9285714285714283
 40
0.9285714285714283
 40
0.9285714285714283
 40
0.9285714285714283
 40
1.0
 40
1.0
 40
1.0
 40
1.0
 10
-1.2266700000000001
 20
5.9811300000000003
 30
0.0
 10
-0.65771
 20
6.0573300000000003
 30
0.0
 10
-0.19289
 20
5.77285
 30
0.0
 10
0.24398
 20
5.4680500000000007
 30
0.0
 10
0.24398
 20
5.4680500000000007
 30
0.0
 10
1.9305400000000001
 20
5.4299500000000007
 30
0.0
 10
2.3064600000000004
 20
3.6722700000000001
 30
0.0
 10
2.5401400000000001
 20
2.34639
 30
0.0
 10
2.5401400000000001
 20
2.34639
 30
0.0
 10
2.5147400000000002
 20
2.2295500000000001
 30
0.0
 10
2.4817200000000001
 20
2.1101700000000001
 30
0.0
 10
2.38774
 20
2.0238100000000001
 30
0.0
 10
2.38774
 20
2.0238100000000001
 30
0.0
 10
2.8678000000000003
 20
1.3253100000000002
 30
0.0
 10
3.0379800000000001
 20
0.55569
 30
0.0
 10
2.67984
 20
-0.2825
 30
0.0
 10
2.67984
 20
-0.2825
 30
0.0
 10
3.5129600000000001
 20
0.19755
 30
0.0
 10
4.0412800000000004
 20
1.18815
 30
0.0
 10
4.4400600000000008
 20
2.03905
 30
0.0
 10
4.4400600000000008
 20
2.03905
 30
0.0
 10
5.3443000000000005
 20
-0.26218
 30
0.0
 10
2.5350600000000001
 20
-2.1367000000000003
 30
0.0
 10
2.7484200000000003
 20
-4.5014400000000006
 30
0.0
 10
2.7484200000000003
 20
-4.5014400000000006
 30
0.0
 10
2.67984
 20
-4.7503600000000006
 30
0.0
 10
2.5833200000000001
 20
-5.0323000000000002
 30
0.0
 10
2.4309200000000004
 20
-5.2202600000000006
 30
0.0
 10
2.4309200000000004
 20
-5.2202600000000006
 30
0.0
 10
1.7222600000000001
 20
-3.8867600000000002
 30
0.0
 10
1.3006200000000001
 20
-2.3475200000000003
 30
0.0
 10
0.05348
 20
-1.4813800000000001
 30
0.0
 10
0.05348
 20
-1.4813800000000001
 30
0.0
 10
-0.22845
 20
-2.85806
 30
0.0
 10
-0.45705
 20
-4.31602
 30
0.0
 10
-0.37069
 20
-5.7587400000000004
 30
0.0
 10
-0.37069
 20
-5.7587400000000004
 30
0.0
 10
-0.41387
 20
-5.8578000000000001
 30
0.0
 10
-0.47737
 20
-5.9822600000000001
 30
0.0
 10
-0.59167
 20
-6.0000400000000003
 30
0.0
 10
-0.59167
 20
-6.0000400000000003
 30
0.0
 10
-1.8565900000000002
 20
-4.2195
 30
0.0
 10
-2.0521700000000003
 20
-1.8065000000000002
 30
0.0
 10
-3.6549100000000001
 20
-0.3104400000000001
 30
0.0
 10
-3.6549100000000001
 20
-0.3104400000000001
 30
0.0
 10
-3.6853900000000004
 20
0.55569
 30
0.0
 10
-4.1121100000000004
 20
1.4269100000000001
 30
0.0
 10
-4.0663900000000002
 20
2.2854300000000003
 30
0.0
 10
-4.0663900000000002
 20
2.2854300000000003
 30
0.0
 10
-4.8309300000000004
 20
2.7096100000000001
 30
0.0
 10
-4.6328100000000001
 20
3.9211900000000002
 30
0.0
 10
-4.4169100000000006
 20
4.6450900000000006
 30
0.0
 10
-4.4169100000000006
 20
4.6450900000000006
 30
0.0
 10
-3.5507700000000004
 20
5.5061500000000008
 30
0.0
 10
-2.2299700000000002
 20
5.4299500000000007
 30
0.0
 10
-1.2266700000000001
 20
5.9811300000000003
 30
0.0
  0
SPLINE
  5
26
100
AcDbEntity
  8
Ebene 1
 62
     7
100
AcDbSpline
210
0.0
220
0.0
230
1.0
 70
     1
 71
     3
 72
   240
 73
   236
 74
     0
 42
0.0000000001
 43
0.0000000001
 40
0.0
 40
0.0
 40
0.0
 40
0.0
 40
0.0169491525423729
 40
0.0169491525423729
 40
0.0169491525423729
 40
0.0169491525423729
 40
0.0338983050847458
 40
0.0338983050847458
 40
0.0338983050847458
 40
0.0338983050847458
 40
0.0508474576271186
 40
0.0508474576271186
 40
0.0508474576271186
 40
0.0508474576271186
 40
0.0677966101694915
 40
0.0677966101694915
 40
0.0677966101694915
 40
0.0677966101694915
 40
0.0847457627118644
 40
0.0847457627118644
 40
0.0847457627118644
 40
0.0847457627118644
 40
0.1016949152542373
 40
0.1016949152542373
 40
0.1016949152542373
 40
0.1016949152542373
 40
0.1186440677966102
 40
0.1186440677966102
 40
0.1186440677966102
 40
0.1186440677966102
 40
0.1355932203389831
 40
0.1355932203389831
 40
0.1355932203389831
 40
0.1355932203389831
 40
0.1525423728813559
 40
0.1525423728813559
 40
0.1525423728813559
 40
0.1525423728813559
 40
0.1694915254237288
 40
0.1694915254237288
 40
0.1694915254237288
 40
0.1694915254237288
 40
0.1864406779661017
 40
0.1864406779661017
 40
0.1864406779661017
 40
0.1864406779661017
 40
0.2033898305084746
 40
0.2033898305084746
 40
0.2033898305084746
 40
0.2033898305084746
 40
0.2203389830508475
 40
0.2203389830508475
 40
0.2203389830508475
 40
0.2203389830508475
 40
0.2372881355932204
 40
0.2372881355932204
 40
0.2372881355932204
 40
0.2372881355932204
 40
0.2542372881355933
 40
0.2542372881355933
 40
0.2542372881355933
 40
0.2542372881355933
 40
0.2711864406779662
 40
0.2711864406779662
 40
0.2711864406779662
 40
0.2711864406779662
 40
0.2881355932203391
 40
0.2881355932203391
 40
0.2881355932203391
 40
0.2881355932203391
 40
0.3050847457627119
 40
0.3050847457627119
 40
0.3050847457627119
 40
0.3050847457627119
 40
0.3220338983050848
 40
0.3220338983050848
 40
0.3220338983050848
 40
0.3220338983050848
 40
0.3389830508474577
 40
0.3389830508474577
 40
0.3389830508474577
 40
0.3389830508474577
 40
0.3559322033898306
 40
0.3559322033898306
 40
0.3559322033898306
 40
0.3559322033898306
 40
0.3728813559322035
 40
0.3728813559322035
 40
0.3728813559322035
 40
0.3728813559322035
 40
0.3898305084745764
 40
0.3898305084745764
 40
0.3898305084745764
 40
0.3898305084745764
 40
0.4067796610169493
 40
0.4067796610169493
 40
0.4067796610169493
 40
0.4067796610169493
 40
0.4237288135593222
 40
0.4237288135593222
 40
0.4237288135593222
 40
0.4237288135593222
 40
0.4406779661016951
 40
0.4406779661016951
 40
0.4406779661016951
 40
0.4406779661016951
 40
0.457627118644068
 40
0.457627118644068
 40
0.457627118644068
 40
0.457627118644068
 40
0.4745762711864409
 40
0.4745762711864409
 40
0.4745762711864409
 40
0.4745762711864409
 40
0.4915254237288138
 40
0.4915254237288138
 40
0.4915254237288138
 40
0.4915254237288138
 40
0.5084745762711866
 40
0.5084745762711866
 40
0.5084745762711866
 40
0.5084745762711866
 40
0.5254237288135595
 40
0.5254237288135595
 40
0.5254237288135595
 40
0.5254237288135595
 40
0.5423728813559323
 40
0.5423728813559323
 40
0.5423728813559323
 40
0.5423728813559323
 40
0.5593220338983052
 40
0.5593220338983052
 40
0.5593220338983052
 40
0.5593220338983052
 40
0.576271186440678
 40
0.576271186440678
 40
0.576271186440678
 40
0.576271186440678
 40
0.5932203389830508
 40
0.5932203389830508
 40
0.5932203389830508
 40
0.5932203389830508
 40
0.6101694915254237
 40
0.6101694915254237
 40
0.6101694915254237
 40
0.6101694915254237
 40
0.6271186440677965
 40
0.6271186440677965
 40
0.6271186440677965
 40
0.6271186440677965
 40
0.6440677966101693
 40
0.6440677966101693
 40
0.6440677966101693
 40
0.6440677966101693
 40
0.6610169491525422
 40
0.6610169491525422
 40
0.6610169491525422
 40
0.6610169491525422
 40
0.677966101694915
 40
0.677966101694915
 40
0.677966101694915
 40
0.677966101694915
 40
0.6949152542372878
 40
0.6949152542372878
 40
0.6949152542372878
 40
0.6949152542372878
 40
0.7118644067796607
 40
0.7118644067796607
 40
0.7118644067796607
 40
0.7118644067796607
 40
0.7288135593220335
 40
0.7288135593220335
 40
0.7288135593220335
 40
0.7288135593220335
 40
0.7457627118644064
 40
0.7457627118644064
 40
0.7457627118644064
 40
0.7457627118644064
 40
0.7627118644067792
 40
0.7627118644067792
 40
0.7627118644067792
 40
0.7627118644067792
 40
0.779661016949152
 40
0.779661016949152
 40
0.779661016949152
 40
0.779661016949152
 40
0.7966101694915249
 40
0.7966101694915249
 40
0.7966101694915249
 40
0.7966101694915249
 40
0.8135593220338977
 40
0.8135593220338977
 40
0.8135593220338977
 40
0.8135593220338977
 40
0.8305084745762705
 40
0.8305084745762705
 40
0.8305084745762705
 40
0.8305084745762705
 40
0.8474576271186434
 40
0.8474576271186434
 40
0.8474576271186434
 40
0.8474576271186434
 40
0.8644067796610162
 40
0.8644067796610162
 40
0.8644067796610162
 40
0.8644067796610162
 40
0.881355932203389
 40
0.881355932203389
 40
0.881355932203389
 40
0.881355932203389
 40
0.8983050847457619
 40
0.8983050847457619
 40
0.8983050847457619
 40
0.8983050847457619
 40
0.9152542372881347
 40
0.9152542372881347
 40
0.9152542372881347
 40
0.9152542372881347
 40
0.9322033898305075
 40
0.9322033898305075
 40
0.9322033898305075
 40
0.9322033898305075
 40
0.9491525423728804
 40
0.9491525423728804
 40
0.9491525423728804
 40
0.9491525423728804
 40
0.9661016949152532
 40
0.9661016949152532
 40
0.9661016949152532
 40
0.9661016949152532
 40
0.9830508474576261
 40
0.9830508474576261
 40
0.9830508474576261
 40
0.9830508474576261
 40
1.0
 40
1.0
 40
1.0
 40
1.0
 10
3.6501200000000003
 20
-0.9962400000000001
 30
0.0
 10
3.8736400000000004
 20
-0.6609600000000001
 30
0.0
 10
3.9955600000000002
 20
-0.25964
 30
0.0
 10
4.1454200000000005
 20
0.11627
 30
0.0
 10
4.1454200000000005
 20
0.11627
 30
0.0
 10
4.2394000000000007
 20
0.39821
 30
0.0
 10
4.2876600000000007
 20
0.70047
 30
0.0
 10
4.3486200000000004
 20
0.9951100000000001
 30
0.0
 10
4.3486200000000004
 20
0.9951100000000001
 30
0.0
 10
4.4070400000000003
 20
1.18815
 30
0.0
 10
4.4146600000000005
 20
1.35833
 30
0.0
 10
4.4476800000000001
 20
1.5615300000000001
 30
0.0
 10
4.4476800000000001
 20
1.5615300000000001
 30
0.0
 10
4.66866
 20
0.21533
 30
0.0
 10
3.8025200000000003
 20
-0.99116
 30
0.0
 10
3.1548200000000004
 20
-2.0986000000000002
 30
0.0
 10
3.1548200000000004
 20
-2.0986000000000002
 30
0.0
 10
3.1548200000000004
 20
-2.0986000000000002
 30
0.0
 10
3.3021400000000001
 20
-1.2858000000000001
 30
0.0
 10
3.3021400000000001
 20
-1.2858000000000001
 30
0.0
 10
3.3021400000000001
 20
-1.2858000000000001
 30
0.0
 10
3.0481400000000001
 20
-1.5118600000000002
 30
0.0
 10
3.1218000000000004
 20
-2.1138400000000002
 30
0.0
 10
2.9389200000000004
 20
-2.4669000000000003
 30
0.0
 10
2.9389200000000004
 20
-2.4669000000000003
 30
0.0
 10
2.8271600000000001
 20
-2.6878800000000003
 30
0.0
 10
2.8322400000000001
 20
-2.9698200000000003
 30
0.0
 10
2.6544400000000001
 20
-3.1501600000000001
 30
0.0
 10
2.6544400000000001
 20
-3.1501600000000001
 30
0.0
 10
2.4512400000000003
 20
-2.9469600000000002
 30
0.0
 10
2.5198200000000002
 20
-2.6218400000000002
 30
0.0
 10
2.4817200000000001
 20
-2.3526000000000002
 30
0.0
 10
2.4817200000000001
 20
-2.3526000000000002
 30
0.0
 10
2.4664800000000002
 20
-2.2535400000000001
 30
0.0
 10
2.45886
 20
-2.1519400000000002
 30
0.0
 10
2.46394
 20
-2.0478000000000001
 30
0.0
 10
2.46394
 20
-2.0478000000000001
 30
0.0
 10
2.46394
 20
-2.0478000000000001
 30
0.0
 10
2.4614000000000003
 20
-1.7074400000000001
 30
0.0
 10
2.4614000000000003
 20
-1.7074400000000001
 30
0.0
 10
2.4614000000000003
 20
-1.7074400000000001
 30
0.0
 10
2.29122
 20
-1.9970000000000001
 30
0.0
 10
2.3902800000000002
 20
-2.3957800000000002
 30
0.0
 10
2.3267800000000003
 20
-2.7259800000000003
 30
0.0
 10
2.3267800000000003
 20
-2.7259800000000003
 30
0.0
 10
2.2328000000000001
 20
-2.6726400000000003
 30
0.0
 10
2.1820000000000004
 20
-2.5685000000000002
 30
0.0
 10
2.12866
 20
-2.4796
 30
0.0
 10
2.12866
 20
-2.4796
 30
0.0
 10
2.0550000000000002
 20
-2.3780000000000001
 30
0.0
 10
1.9838800000000001
 20
-2.2662400000000003
 30
0.0
 10
1.9686400000000002
 20
-2.1417800000000002
 30
0.0
 10
1.9686400000000002
 20
-2.1417800000000002
 30
0.0
 10
1.9864200000000001
 20
-1.8141200000000002
 30
0.0
 10
1.8187800000000001
 20
-1.7176000000000002
 30
0.0
 10
1.8365600000000002
 20
-2.1036800000000002
 30
0.0
 10
1.8365600000000002
 20
-2.1036800000000002
 30
0.0
 10
1.8289400000000002
 20
-2.7818600000000004
 30
0.0
 10
2.5553800000000004
 20
-3.0993600000000003
 30
0.0
 10
2.63666
 20
-3.7419800000000003
 30
0.0
 10
2.63666
 20
-3.7419800000000003
 30
0.0
 10
2.6722200000000003
 20
-4.0264600000000002
 30
0.0
 10
2.5630000000000002
 20
-4.2906200000000005
 30
0.0
 10
2.4817200000000001
 20
-4.5598600000000005
 30
0.0
 10
2.4817200000000001
 20
-4.5598600000000005
 30
0.0
 10
2.4817200000000001
 20
-4.5598600000000005
 30
0.0
 10
2.4080600000000003
 20
-4.7706800000000005
 30
0.0
 10
2.4080600000000003
 20
-4.7706800000000005
 30
0.0
 10
2.4080600000000003
 20
-4.7706800000000005
 30
0.0
 10
2.1362800000000002
 20
-4.3795200000000003
 30
0.0
 10
2.0448400000000002
 20
-3.8689800000000005
 30
0.0
 10
1.9610200000000002
 20
-3.3940000000000001
 30
0.0
 10
1.9610200000000002
 20
-3.3940000000000001
 30
0.0
 10
1.9457800000000001
 20
-3.3051000000000004
 30
0.0
 10
1.9026000000000001
 20
-2.9799800000000003
 30
0.0
 10
1.8797400000000002
 20
-3.15524
 30
0.0
 10
1.8797400000000002
 20
-3.15524
 30
0.0
 10
1.8797400000000002
 20
-3.15524
 30
0.0
 10
1.8924400000000001
 20
-3.7597600000000004
 30
0.0
 10
1.8924400000000001
 20
-3.7597600000000004
 30
0.0
 10
1.8924400000000001
 20
-3.7597600000000004
 30
0.0
 10
1.5749400000000002
 20
-3.1450800000000001
 30
0.0
 10
1.4631800000000001
 20
-2.4491200000000002
 30
0.0
 10
1.4123800000000002
 20
-1.7455400000000001
 30
0.0
 10
1.4123800000000002
 20
-1.7455400000000001
 30
0.0
 10
1.2218800000000001
 20
-1.8090400000000002
 30
0.0
 10
1.4276200000000001
 20
-2.36022
 30
0.0
 10
1.3742800000000002
 20
-2.6320000000000001
 30
0.0
 10
1.3742800000000002
 20
-2.6320000000000001
 30
0.0
 10
0.76214
 20
-2.0833600000000003
 30
0.0
 10
0.44464
 20
-1.2629400000000002
 30
0.0
 10
0.38622
 20
-0.50856
 30
0.0
 10
0.38622
 20
-0.50856
 30
0.0
 10
0.26938
 20
-0.76256
 30
0.0
 10
0.41416
 20
-1.1562600000000001
 30
0.0
 10
0.3278
 20
-1.4534400000000001
 30
0.0
 10
0.3278
 20
-1.4534400000000001
 30
0.0
 10
0.10682
 20
-1.29342
 30
0.0
 10
-0.18273
 20
-1.16388
 30
0.0
 10
-0.29703
 20
-0.90988
 30
0.0
 10
-0.29703
 20
-0.90988
 30
0.0
 10
-0.37323
 20
-1.2832600000000001
 30
0.0
 10
-0.8126500000000001
 20
-0.72192
 30
0.0
 10
-0.84821
 20
-0.4145800000000001
 30
0.0
 10
-0.84821
 20
-0.4145800000000001
 30
0.0
 10
-0.9879100000000001
 20
-0.4247400000000001
 30
0.0
 10
-0.9574300000000001
 20
-0.6279400000000001
 30
0.0
 10
-0.9828300000000001
 20
-0.7295400000000001
 30
0.0
 10
-0.9828300000000001
 20
-0.7295400000000001
 30
0.0
 10
-1.62799
 20
-0.5187200000000001
 30
0.0
 10
-1.6559300000000001
 20
0.31947
 30
0.0
 10
-1.3257300000000001
 20
0.7817500000000001
 30
0.0
 10
-1.3257300000000001
 20
0.7817500000000001
 30
0.0
 10
-1.46543
 20
0.8757300000000001
 30
0.0
 10
-1.6381500000000002
 20
0.6877700000000001
 30
0.0
 10
-1.8108700000000002
 20
0.74365
 30
0.0
 10
-1.8108700000000002
 20
0.74365
 30
0.0
 10
-1.9099300000000001
 20
-0.04882
 30
0.0
 10
-2.43825
 20
0.6471300000000001
 30
0.0
 10
-2.1309100000000001
 20
1.1424300000000001
 30
0.0
 10
-2.1309100000000001
 20
1.1424300000000001
 30
0.0
 10
-2.0877300000000001
 20
1.2135500000000001
 30
0.0
 10
-1.7880100000000001
 20
1.3710300000000002
 30
0.0
 10
-2.0089900000000003
 20
1.3710300000000002
 30
0.0
 10
-2.0089900000000003
 20
1.3710300000000002
 30
0.0
 10
-2.0089900000000003
 20
1.3710300000000002
 30
0.0
 10
-2.2960100000000003
 20
1.11449
 30
0.0
 10
-2.2960100000000003
 20
1.11449
 30
0.0
 10
-2.2960100000000003
 20
1.11449
 30
0.0
 10
-2.52461
 20
1.0103500000000001
 30
0.0
 10
-2.4357100000000003
 20
1.3659500000000002
 30
0.0
 10
-2.2477500000000004
 20
1.3913500000000001
 30
0.0
 10
-2.2477500000000004
 20
1.3913500000000001
 30
0.0
 10
-2.2477500000000004
 20
1.3913500000000001
 30
0.0
 10
-2.1613900000000004
 20
1.5056500000000002
 30
0.0
 10
-2.1613900000000004
 20
1.5056500000000002
 30
0.0
 10
-2.1613900000000004
 20
1.5056500000000002
 30
0.0
 10
-2.5931900000000003
 20
1.3405500000000001
 30
0.0
 10
-3.03261
 20
1.1373500000000001
 30
0.0
 10
-3.4923500000000001
 20
1.0332100000000002
 30
0.0
 10
-3.4923500000000001
 20
1.0332100000000002
 30
0.0
 10
-3.8403300000000002
 20
1.2516500000000002
 30
0.0
 10
-3.5202900000000001
 20
1.3430900000000001
 30
0.0
 10
-3.2459700000000002
 20
1.4116700000000002
 30
0.0
 10
-3.2459700000000002
 20
1.4116700000000002
 30
0.0
 10
-2.9792700000000001
 20
1.4751700000000001
 30
0.0
 10
-2.5931900000000003
 20
1.6707500000000002
 30
0.0
 10
-2.8471900000000003
 20
1.6478900000000001
 30
0.0
 10
-2.8471900000000003
 20
1.6478900000000001
 30
0.0
 10
-3.7107900000000003
 20
1.2973700000000001
 30
0.0
 10
-3.7260300000000002
 20
2.1965300000000001
 30
0.0
 10
-3.3958300000000001
 20
2.6308700000000003
 30
0.0
 10
-3.3958300000000001
 20
2.6308700000000003
 30
0.0
 10
-4.2060900000000006
 20
1.8993500000000001
 30
0.0
 10
-4.6455100000000007
 20
4.0405700000000007
 30
0.0
 10
-4.1324300000000003
 20
4.6450900000000006
 30
0.0
 10
-4.1324300000000003
 20
4.6450900000000006
 30
0.0
 10
-3.0173700000000001
 20
5.56203
 30
0.0
 10
-1.21397
 20
5.4096300000000008
 30
0.0
 10
-0.30719
 20
4.2564700000000002
 30
0.0
 10
-0.30719
 20
4.2564700000000002
 30
0.0
 10
-0.56881
 20
4.7162100000000002
 30
0.0
 10
-1.1580900000000001
 20
5.2191300000000007
 30
0.0
 10
-1.6762500000000002
 20
5.4680500000000007
 30
0.0
 10
-1.6762500000000002
 20
5.4680500000000007
 30
0.0
 10
-0.7085100000000001
 20
6.1716300000000004
 30
0.0
 10
0.5056000000000001
 20
5.2775500000000006
 30
0.0
 10
1.0796400000000002
 20
4.4266500000000004
 30
0.0
 10
1.0796400000000002
 20
4.4266500000000004
 30
0.0
 10
1.32094
 20
4.2615500000000006
 30
0.0
 10
1.09996
 20
4.6095300000000003
 30
0.0
 10
1.0364600000000002
 20
4.7060500000000003
 30
0.0
 10
1.0364600000000002
 20
4.7060500000000003
 30
0.0
 10
1.0364600000000002
 20
4.7060500000000003
 30
0.0
 10
0.85104
 20
4.9346500000000004
 30
0.0
 10
0.85104
 20
4.9346500000000004
 30
0.0
 10
0.85104
 20
4.9346500000000004
 30
0.0
 10
0.9221600000000001
 20
5.2394500000000006
 30
0.0
 10
1.5901800000000001
 20
4.1701100000000002
 30
0.0
 10
1.44286
 20
4.6374700000000004
 30
0.0
 10
1.44286
 20
4.6374700000000004
 30
0.0
 10
1.3514200000000001
 20
4.7797100000000006
 30
0.0
 10
1.2523600000000001
 20
4.9168700000000003
 30
0.0
 10
1.1380600000000001
 20
5.0489500000000005
 30
0.0
 10
1.1380600000000001
 20
5.0489500000000005
 30
0.0
 10
2.0016600000000002
 20
4.6857300000000004
 30
0.0
 10
2.17692
 20
3.6544900000000005
 30
0.0
 10
2.0448400000000002
 20
2.8416900000000003
 30
0.0
 10
2.0448400000000002
 20
2.8416900000000003
 30
0.0
 10
2.0346800000000003
 20
2.7527900000000001
 30
0.0
 10
2.1540600000000003
 20
2.6842100000000002
 30
0.0
 10
2.1210400000000003
 20
2.8035900000000002
 30
0.0
 10
2.1210400000000003
 20
2.8035900000000002
 30
0.0
 10
2.1210400000000003
 20
2.8035900000000002
 30
0.0
 10
2.12866
 20
2.9890100000000004
 30
0.0
 10
2.12866
 20
2.9890100000000004
 30
0.0
 10
2.12866
 20
2.9890100000000004
 30
0.0
 10
2.6722200000000003
 20
2.54705
 30
0.0
 10
1.9610200000000002
 20
2.0949300000000002
 30
0.0
 10
2.4461600000000003
 20
1.69869
 30
0.0
 10
2.4461600000000003
 20
1.69869
 30
0.0
 10
2.4309200000000004
 20
1.3735700000000002
 30
0.0
 10
2.3039200000000002
 20
1.35833
 30
0.0
 10
2.1464400000000001
 20
1.48533
 30
0.0
 10
2.1464400000000001
 20
1.48533
 30
0.0
 10
2.20486
 20
1.23133
 30
0.0
 10
2.4334600000000002
 20
1.1195700000000002
 30
0.0
 10
2.6112600000000001
 20
0.9519300000000001
 30
0.0
 10
2.6112600000000001
 20
0.9519300000000001
 30
0.0
 10
2.67984
 20
0.80969
 30
0.0
 10
2.6595200000000001
 20
0.6776100000000001
 30
0.0
 10
2.6544400000000001
 20
0.5201300000000001
 30
0.0
 10
2.6544400000000001
 20
0.5201300000000001
 30
0.0
 10
2.8576400000000004
 20
-0.43236
 30
0.0
 10
1.48604
 20
-0.5187200000000001
 30
0.0
 10
1.7273400000000001
 20
-1.3747
 30
0.0
 10
1.7273400000000001
 20
-1.3747
 30
0.0
 10
1.9915000000000003
 20
-0.3079
 30
0.0
 10
3.6425000000000005
 20
-0.3002800000000001
 30
0.0
 10
4.1352600000000006
 20
0.8020700000000001
 30
0.0
 10
4.1352600000000006
 20
0.8020700000000001
 30
0.0
 10
4.1352600000000006
 20
0.8020700000000001
 30
0.0
 10
4.0235000000000003
 20
0.27121
 30
0.0
 10
4.0235000000000003
 20
0.27121
 30
0.0
 10
4.0235000000000003
 20
0.27121
 30
0.0
 10
4.0235000000000003
 20
0.27121
 30
0.0
 10
3.7136200000000001
 20
-0.7447800000000001
 30
0.0
 10
3.7136200000000001
 20
-0.7447800000000001
 30
0.0
 10
3.7136200000000001
 20
-0.7447800000000001
 30
0.0
 10
3.6831400000000003
 20
-0.84384
 30
0.0
 10
3.6374200000000001
 20
-0.88702
 30
0.0
 10
3.5891600000000001
 20
-0.9683000000000001
 30
0.0
 10
3.5891600000000001
 20
-0.9683000000000001
 30
0.0
 10
3.4926400000000002
 20
-1.12324
 30
0.0
 10
3.5713800000000004
 20
-1.11816
 30
0.0
 10
3.6501200000000003
 20
-0.9962400000000001
 30
0.0
  0
SPLINE
  5
27
100
AcDbEntity
  8
Ebene 1
100
AcDbSpline
210
0.0
220
0.0
230
1.0
 70
     1
 71
     3
 72
    40
 73
    36
 74
     0
 42
0.0000000001
 43
0.0000000001
 40
0.0
 40
0.0
 40
0.0
 40
0.0
 40
0.1111111111111111
 40
0.1111111111111111
 40
0.1111111111111111
 40
0.1111111111111111
 40
0.2222222222222222
 40
0.2222222222222222
 40
0.2222222222222222
 40
0.2222222222222222
 40
0.3333333333333333
 40
0.3333333333333333
 40
0.3333333333333333
 40
0.3333333333333333
 40
0.4444444444444444
 40
0.4444444444444444
 40
0.4444444444444444
 40
0.4444444444444444
 40
0.5555555555555556
 40
0.5555555555555556
 40
0.5555555555555556
 40
0.5555555555555556
 40
0.6666666666666667
 40
0.6666666666666667
 40
0.6666666666666667
 40
0.6666666666666667
 40
0.7777777777777779
 40
0.7777777777777779
 40
0.7777777777777779
 40
0.7777777777777779
 40
0.8888888888888891
 40
0.8888888888888891
 40
0.8888888888888891
 40
0.8888888888888891
 40
1.0
 40
1.0
 40
1.0
 40
1.0
 10
-2.7303500000000001
 20
5.0489500000000005
 30
0.0
 10
-2.7024100000000004
 20
5.0489500000000005
 30
0.0
 10
-2.6617700000000002
 20
5.0286300000000006
 30
0.0
 10
-2.6770100000000001
 20
4.9905300000000006
 30
0.0
 10
-2.6770100000000001
 20
4.9905300000000006
 30
0.0
 10
-3.0478500000000004
 20
4.8178100000000006
 30
0.0
 10
-3.2561300000000002
 20
4.37331
 30
0.0
 10
-3.1037300000000001
 20
3.9897700000000005
 30
0.0
 10
-3.1037300000000001
 20
3.9897700000000005
 30
0.0
 10
-2.85989
 20
3.7713300000000003
 30
0.0
 10
-2.48651
 20
3.9364300000000005
 30
0.0
 10
-2.1994900000000004
 20
3.9415100000000005
 30
0.0
 10
-2.1994900000000004
 20
3.9415100000000005
 30
0.0
 10
-2.1766300000000003
 20
3.8983300000000005
 30
0.0
 10
-2.2172700000000001
 20
3.8780100000000002
 30
0.0
 10
-2.2528300000000003
 20
3.8881700000000001
 30
0.0
 10
-2.2528300000000003
 20
3.8881700000000001
 30
0.0
 10
-2.2528300000000003
 20
3.8881700000000001
 30
0.0
 10
-2.6338300000000001
 20
3.8119700000000005
 30
0.0
 10
-2.6338300000000001
 20
3.8119700000000005
 30
0.0
 10
-2.6338300000000001
 20
3.8119700000000005
 30
0.0
 10
-2.6338300000000001
 20
3.8119700000000005
 30
0.0
 10
-3.1113500000000003
 20
3.6392500000000001
 30
0.0
 10
-3.1113500000000003
 20
3.6392500000000001
 30
0.0
 10
-3.1113500000000003
 20
3.6392500000000001
 30
0.0
 10
-3.3577300000000001
 20
3.7586300000000001
 30
0.0
 10
-3.4136100000000003
 20
4.0354900000000002
 30
0.0
 10
-3.3755100000000002
 20
4.2894900000000007
 30
0.0
 10
-3.3755100000000002
 20
4.2894900000000007
 30
0.0
 10
-3.5456900000000005
 20
4.5587300000000006
 30
0.0
 10
-3.2866100000000005
 20
4.7695500000000006
 30
0.0
 10
-3.0580100000000003
 20
4.8838500000000007
 30
0.0
 10
-3.0580100000000003
 20
4.8838500000000007
 30
0.0
 10
-3.0580100000000003
 20
4.8838500000000007
 30
0.0
 10
-2.7303500000000001
 20
5.0489500000000005
 30
0.0
 10
-2.7303500000000001
 20
5.0489500000000005
 30
0.0
  0
SPLINE
  5
28
100
AcDbEntity
  8
Ebene 1
100
AcDbSpline
210
0.0
220
0.0
230
1.0
 70
     1
 71
     3
 72
    16
 73
    12
 74
     0
 42
0.0000000001
 43
0.0000000001
 40
0.0
 40
0.0
 40
0.0
 40
0.0
 40
0.3333333333333333
 40
0.3333333333333333
 40
0.3333333333333333
 40
0.3333333333333333
 40
0.6666666666666666
 40
0.6666666666666666
 40
0.6666666666666666
 40
0.6666666666666666
 40
1.0
 40
1.0
 40
1.0
 40
1.0
 10
-0.5027700000000001
 20
4.0024700000000006
 30
0.0
 10
0.19318
 20
3.7560900000000004
 30
0.0
 10
0.87136
 20
3.0575900000000003
 30
0.0
 10
0.7291200000000001
 20
2.2955900000000002
 30
0.0
 10
0.7291200000000001
 20
2.2955900000000002
 30
0.0
 10
0.7291200000000001
 20
2.2955900000000002
 30
0.0
 10
0.4522600000000001
 20
2.50387
 30
0.0
 10
0.4522600000000001
 20
2.50387
 30
0.0
 10
0.4522600000000001
 20
2.50387
 30
0.0
 10
0.64022
 20
3.1845900000000005
 30
0.0
 10
-0.11923
 20
3.5833700000000004
 30
0.0
 10
-0.5027700000000001
 20
4.0024700000000006
 30
0.0
  0
SPLINE
  5
29
100
AcDbEntity
  8
Ebene 1
100
AcDbSpline
210
0.0
220
0.0
230
1.0
 70
     1
 71
     3
 72
   108
 73
   104
 74
     0
 42
0.0000000001
 43
0.0000000001
 40
0.0
 40
0.0
 40
0.0
 40
0.0
 40
0.0384615384615385
 40
0.0384615384615385
 40
0.0384615384615385
 40
0.0384615384615385
 40
0.0769230769230769
 40
0.0769230769230769
 40
0.0769230769230769
 40
0.0769230769230769
 40
0.1153846153846154
 40
0.1153846153846154
 40
0.1153846153846154
 40
0.1153846153846154
 40
0.1538461538461539
 40
0.1538461538461539
 40
0.1538461538461539
 40
0.1538461538461539
 40
0.1923076923076923
 40
0.1923076923076923
 40
0.1923076923076923
 40
0.1923076923076923
 40
0.2307692307692308
 40
0.2307692307692308
 40
0.2307692307692308
 40
0.2307692307692308
 40
0.2692307692307693
 40
0.2692307692307693
 40
0.2692307692307693
 40
0.2692307692307693
 40
0.3076923076923077
 40
0.3076923076923077
 40
0.3076923076923077
 40
0.3076923076923077
 40
0.3461538461538462
 40
0.3461538461538462
 40
0.3461538461538462
 40
0.3461538461538462
 40
0.3846153846153846
 40
0.3846153846153846
 40
0.3846153846153846
 40
0.3846153846153846
 40
0.423076923076923
 40
0.423076923076923
 40
0.423076923076923
 40
0.423076923076923
 40
0.4615384615384615
 40
0.4615384615384615
 40
0.4615384615384615
 40
0.4615384615384615
 40
0.4999999999999999
 40
0.4999999999999999
 40
0.4999999999999999
 40
0.4999999999999999
 40
0.5384615384615383
 40
0.5384615384615383
 40
0.5384615384615383
 40
0.5384615384615383
 40
0.5769230769230768
 40
0.5769230769230768
 40
0.5769230769230768
 40
0.5769230769230768
 40
0.6153846153846152
 40
0.6153846153846152
 40
0.6153846153846152
 40
0.6153846153846152
 40
0.6538461538461536
 40
0.6538461538461536
 40
0.6538461538461536
 40
0.6538461538461536
 40
0.6923076923076921
 40
0.6923076923076921
 40
0.6923076923076921
 40
0.6923076923076921
 40
0.7307692307692305
 40
0.7307692307692305
 40
0.7307692307692305
 40
0.7307692307692305
 40
0.7692307692307689
 40
0.7692307692307689
 40
0.7692307692307689
 40
0.7692307692307689
 40
0.8076923076923074
 40
0.8076923076923074
 40
0.8076923076923074
 40
0.8076923076923074
 40
0.8461538461538458
 40
0.8461538461538458
 40
0.8461538461538458
 40
0.8461538461538458
 40
0.8846153846153843
 40
0.8846153846153843
 40
0.8846153846153843
 40
0.8846153846153843
 40
0.9230769230769227
 40
0.9230769230769227
 40
0.9230769230769227
 40
0.9230769230769227
 40
0.9615384615384611
 40
0.9615384615384611
 40
0.9615384615384611
 40
0.9615384615384611
 40
1.0
 40
1.0
 40
1.0
 40
1.0
 10
-1.9861300000000002
 20
3.8500700000000001
 30
0.0
 10
-1.7321300000000002
 20
3.8348300000000002
 30
0.0
 10
-1.4451100000000001
 20
3.8983300000000005
 30
0.0
 10
-1.2393700000000001
 20
3.7408500000000005
 30
0.0
 10
-1.2393700000000001
 20
3.7408500000000005
 30
0.0
 10
-1.2393700000000001
 20
3.7408500000000005
 30
0.0
 10
-1.0209300000000001
 20
3.5503500000000003
 30
0.0
 10
-1.0209300000000001
 20
3.5503500000000003
 30
0.0
 10
-1.0209300000000001
 20
3.5503500000000003
 30
0.0
 10
-1.08951
 20
3.5173300000000003
 30
0.0
 10
-0.9447300000000001
 20
3.4487500000000004
 30
0.0
 10
-0.9066300000000001
 20
3.4284300000000001
 30
0.0
 10
-0.9066300000000001
 20
3.4284300000000001
 30
0.0
 10
-0.88631
 20
3.4055700000000004
 30
0.0
 10
-0.8634500000000001
 20
3.3700100000000002
 30
0.0
 10
-0.86853
 20
3.3420700000000001
 30
0.0
 10
-0.86853
 20
3.3420700000000001
 30
0.0
 10
-1.1377700000000002
 20
3.4766900000000005
 30
0.0
 10
-1.4273300000000002
 20
3.7713300000000003
 30
0.0
 10
-1.7397500000000001
 20
3.7357700000000005
 30
0.0
 10
-1.7397500000000001
 20
3.7357700000000005
 30
0.0
 10
-1.7397500000000001
 20
3.7357700000000005
 30
0.0
 10
-1.6102100000000001
 20
3.6367100000000003
 30
0.0
 10
-1.6102100000000001
 20
3.6367100000000003
 30
0.0
 10
-1.6102100000000001
 20
3.6367100000000003
 30
0.0
 10
-1.4933700000000001
 20
3.5960700000000001
 30
0.0
 10
-1.4019300000000001
 20
3.4589100000000004
 30
0.0
 10
-1.3155700000000001
 20
3.3598500000000002
 30
0.0
 10
-1.3155700000000001
 20
3.3598500000000002
 30
0.0
 10
-1.3155700000000001
 20
3.3598500000000002
 30
0.0
 10
-1.03871
 20
2.9331300000000002
 30
0.0
 10
-1.03871
 20
2.9331300000000002
 30
0.0
 10
-1.03871
 20
2.9331300000000002
 30
0.0
 10
-0.86853
 20
2.6207100000000003
 30
0.0
 10
-0.65263
 20
2.29305
 30
0.0
 10
-0.34529
 20
2.1050900000000001
 30
0.0
 10
-0.34529
 20
2.1050900000000001
 30
0.0
 10
-0.04811
 20
1.86633
 30
0.0
 10
0.4192400000000001
 20
2.0542899999999999
 30
0.0
 10
0.57672
 20
2.2676500000000002
 30
0.0
 10
0.57672
 20
2.2676500000000002
 30
0.0
 10
0.5818000000000001
 20
2.08731
 30
0.0
 10
0.3887600000000001
 20
2.0238100000000001
 30
0.0
 10
0.27192
 20
1.9349100000000001
 30
0.0
 10
0.27192
 20
1.9349100000000001
 30
0.0
 10
0.27192
 20
1.9349100000000001
 30
0.0
 10
-0.15987
 20
1.8714100000000002
 30
0.0
 10
-0.15987
 20
1.8714100000000002
 30
0.0
 10
-0.15987
 20
1.8714100000000002
 30
0.0
 10
-0.15987
 20
1.8714100000000002
 30
0.0
 10
-0.40879
 20
1.9069700000000001
 30
0.0
 10
-0.40879
 20
1.9069700000000001
 30
0.0
 10
-0.40879
 20
1.9069700000000001
 30
0.0
 10
-0.9879100000000001
 20
2.4149700000000003
 30
0.0
 10
-1.8438900000000003
 20
1.0916300000000001
 30
0.0
 10
-2.36205
 20
1.8764900000000002
 30
0.0
 10
-2.36205
 20
1.8764900000000002
 30
0.0
 10
-2.36205
 20
1.8764900000000002
 30
0.0
 10
-2.5906500000000001
 20
2.0771500000000001
 30
0.0
 10
-2.5906500000000001
 20
2.0771500000000001
 30
0.0
 10
-2.5906500000000001
 20
2.0771500000000001
 30
0.0
 10
-2.3747500000000001
 20
2.0746100000000003
 30
0.0
 10
-2.2909300000000004
 20
1.8358500000000002
 30
0.0
 10
-2.0953500000000003
 20
1.7621900000000001
 30
0.0
 10
-2.0953500000000003
 20
1.7621900000000001
 30
0.0
 10
-1.7194300000000002
 20
1.7063100000000002
 30
0.0
 10
-1.4070100000000001
 20
1.9247500000000002
 30
0.0
 10
-1.1352300000000002
 20
2.1330300000000002
 30
0.0
 10
-1.1352300000000002
 20
2.1330300000000002
 30
0.0
 10
-1.1352300000000002
 20
2.1330300000000002
 30
0.0
 10
-1.2266700000000001
 20
2.1177900000000003
 30
0.0
 10
-1.2266700000000001
 20
2.1177900000000003
 30
0.0
 10
-1.2266700000000001
 20
2.1177900000000003
 30
0.0
 10
-1.4857500000000001
 20
2.0542899999999999
 30
0.0
 10
-1.8108700000000002
 20
2.1558900000000003
 30
0.0
 10
-1.9302500000000002
 20
2.4048100000000003
 30
0.0
 10
-1.9302500000000002
 20
2.4048100000000003
 30
0.0
 10
-1.9023100000000002
 20
2.76295
 30
0.0
 10
-1.7676900000000002
 20
3.1363300000000001
 30
0.0
 10
-2.0064500000000001
 20
3.4487500000000004
 30
0.0
 10
-2.0064500000000001
 20
3.4487500000000004
 30
0.0
 10
-1.8972300000000002
 20
3.7281500000000003
 30
0.0
 10
-2.30871
 20
3.7687900000000005
 30
0.0
 10
-2.4255500000000003
 20
3.5274900000000002
 30
0.0
 10
-2.4255500000000003
 20
3.5274900000000002
 30
0.0
 10
-2.4890500000000002
 20
3.3039700000000001
 30
0.0
 10
-2.27061
 20
3.0779100000000001
 30
0.0
 10
-2.44333
 20
2.8975700000000004
 30
0.0
 10
-2.44333
 20
2.8975700000000004
 30
0.0
 10
-2.56779
 20
2.9686900000000001
 30
0.0
 10
-2.4738100000000003
 20
3.1795100000000001
 30
0.0
 10
-2.5957300000000001
 20
3.2785700000000002
 30
0.0
 10
-2.5957300000000001
 20
3.2785700000000002
 30
0.0
 10
-2.6719300000000001
 20
3.3801700000000001
 30
0.0
 10
-2.6947900000000002
 20
3.5173300000000003
 30
0.0
 10
-2.6897100000000003
 20
3.6214700000000004
 30
0.0
 10
-2.6897100000000003
 20
3.6214700000000004
 30
0.0
 10
-2.7684500000000001
 20
3.5859100000000002
 30
0.0
 10
-2.8421100000000004
 20
3.5300300000000004
 30
0.0
 10
-2.9335500000000003
 20
3.5503500000000003
 30
0.0
 10
-2.9335500000000003
 20
3.5503500000000003
 30
0.0
 10
-2.6897100000000003
 20
3.7230700000000003
 30
0.0
 10
-2.2960100000000003
 20
3.7916500000000002
 30
0.0
 10
-1.9861300000000002
 20
3.8500700000000001
 30
0.0
  0
SPLINE
  5
2A
100
AcDbEntity
  8
Ebene 1
100
AcDbSpline
210
0.0
220
0.0
230
1.0
 70
     1
 71
     3
 72
    12
 73
     8
 74
     0
 42
0.0000000001
 43
0.0000000001
 40
0.0
 40
0.0
 40
0.0
 40
0.0
 40
0.5
 40
0.5
 40
0.5
 40
0.5
 40
1.0
 40
1.0
 40
1.0
 40
1.0
 10
1.2269600000000001
 20
3.6976700000000005
 30
0.0
 10
1.3006200000000001
 20
3.5173300000000003
 30
0.0
 10
1.3438000000000001
 20
3.3014300000000003
 30
0.0
 10
1.3361800000000001
 20
3.0956900000000003
 30
0.0
 10
1.3361800000000001
 20
3.0956900000000003
 30
0.0
 10
1.27522
 20
3.2709500000000005
 30
0.0
 10
1.2396600000000002
 20
3.4919300000000004
 30
0.0
 10
1.2269600000000001
 20
3.6976700000000005
 30
0.0
  0
SPLINE
  5
2B
100
AcDbEntity
  8
Ebene 1
 62
     7
100
AcDbSpline
210
0.0
220
0.0
230
1.0
 70
     1
 71
     3
 72
    12
 73
     8
 74
     0
 42
0.0000000001
 43
0.0000000001
 40
0.0
 40
0.0
 40
0.0
 40
0.0
 40
0.5
 40
0.5
 40
0.5
 40
0.5
 40
1.0
 40
1.0
 40
1.0
 40
1.0
 10
-1.37907
 20
2.8213700000000004
 30
0.0
 10
-1.2749300000000001
 20
2.7299300000000004
 30
0.0
 10
-1.16317
 20
2.6156300000000003
 30
0.0
 10
-1.0945900000000002
 20
2.50387
 30
0.0
 10
-1.0945900000000002
 20
2.50387
 30
0.0
 10
-1.2419100000000001
 20
2.5318100000000001
 30
0.0
 10
-1.3866900000000002
 20
2.6613500000000001
 30
0.0
 10
-1.37907
 20
2.8213700000000004
 30
0.0
  0
SPLINE
  5
2C
100
AcDbEntity
  8
Ebene 1
100
AcDbSpline
210
0.0
220
0.0
230
1.0
 70
     1
 71
     3
 72
    24
 73
    20
 74
     0
 42
0.0000000001
 43
0.0000000001
 40
0.0
 40
0.0
 40
0.0
 40
0.0
 40
0.2
 40
0.2
 40
0.2
 40
0.2
 40
0.4
 40
0.4
 40
0.4
 40
0.4
 40
0.6000000000000001
 40
0.6000000000000001
 40
0.6000000000000001
 40
0.6000000000000001
 40
0.8
 40
0.8
 40
0.8
 40
0.8
 40
1.0
 40
1.0
 40
1.0
 40
1.0
 10
1.2853800000000002
 20
2.4302100000000002
 30
0.0
 10
1.3463400000000001
 20
2.6105500000000004
 30
0.0
 10
1.4327000000000001
 20
2.1965300000000001
 30
0.0
 10
1.5749400000000002
 20
2.2193900000000002
 30
0.0
 10
1.5749400000000002
 20
2.2193900000000002
 30
0.0
 10
1.6790800000000001
 20
2.2193900000000002
 30
0.0
 10
1.7908400000000002
 20
2.16351
 30
0.0
 10
1.8695800000000002
 20
2.2574900000000002
 30
0.0
 10
1.8695800000000002
 20
2.2574900000000002
 30
0.0
 10
1.9102200000000003
 20
2.29813
 30
0.0
 10
1.9711800000000002
 20
2.3159100000000001
 30
0.0
 10
2.0219800000000001
 20
2.34131
 30
0.0
 10
2.0219800000000001
 20
2.34131
 30
0.0
 10
2.0880200000000002
 20
1.9120500000000002
 30
0.0
 10
1.3742800000000002
 20
1.8968100000000001
 30
0.0
 10
1.2803000000000002
 20
2.2676500000000002
 30
0.0
 10
1.2803000000000002
 20
2.2676500000000002
 30
0.0
 10
1.0339200000000002
 20
2.3159100000000001
 30
0.0
 10
1.1279000000000001
 20
2.4403700000000002
 30
0.0
 10
1.2853800000000002
 20
2.4302100000000002
 30
0.0
  0
SPLINE
  5
2D
100
AcDbEntity
  8
Ebene 1
 62
     7
100
AcDbSpline
210
0.0
220
0.0
230
1.0
 70
     1
 71
     3
 72
    20
 73
    16
 74
     0
 42
0.0000000001
 43
0.0000000001
 40
0.0
 40
0.0
 40
0.0
 40
0.0
 40
0.25
 40
0.25
 40
0.25
 40
0.25
 40
0.5
 40
0.5
 40
0.5
 40
0.5
 40
0.75
 40
0.75
 40
0.75
 40
0.75
 40
1.0
 40
1.0
 40
1.0
 40
1.0
 10
-3.9470100000000001
 20
1.9857100000000001
 30
0.0
 10
-3.7768300000000004
 20
1.9247500000000002
 30
0.0
 10
-3.7895300000000005
 20
1.6809100000000001
 30
0.0
 10
-3.7412700000000001
 20
1.5335900000000002
 30
0.0
 10
-3.7412700000000001
 20
1.5335900000000002
 30
0.0
 10
-3.7412700000000001
 20
1.5335900000000002
 30
0.0
 10
-3.8327100000000005
 20
1.4700900000000001
 30
0.0
 10
-3.8327100000000005
 20
1.4700900000000001
 30
0.0
 10
-3.8327100000000005
 20
1.4700900000000001
 30
0.0
 10
-3.8936700000000002
 20
1.5539100000000001
 30
0.0
 10
-3.9038300000000001
 20
1.6707500000000002
 30
0.0
 10
-3.9089100000000001
 20
1.7748900000000001
 30
0.0
 10
-3.9089100000000001
 20
1.7748900000000001
 30
0.0
 10
-3.9571700000000005
 20
1.8282300000000002
 30
0.0
 10
-4.0232100000000006
 20
1.8917300000000001
 30
0.0
 10
-3.9470100000000001
 20
1.9857100000000001
 30
0.0
  0
SPLINE
  5
2E
100
AcDbEntity
  8
Ebene 1
100
AcDbSpline
210
0.0
220
0.0
230
1.0
 70
     1
 71
     3
 72
    44
 73
    40
 74
     0
 42
0.0000000001
 43
0.0000000001
 40
0.0
 40
0.0
 40
0.0
 40
0.0
 40
0.1
 40
0.1
 40
0.1
 40
0.1
 40
0.2
 40
0.2
 40
0.2
 40
0.2
 40
0.3
 40
0.3
 40
0.3
 40
0.3
 40
0.4
 40
0.4
 40
0.4
 40
0.4
 40
0.5
 40
0.5
 40
0.5
 40
0.5
 40
0.6
 40
0.6
 40
0.6
 40
0.6
 40
0.7
 40
0.7
 40
0.7
 40
0.7
 40
0.7999999999999999
 40
0.7999999999999999
 40
0.7999999999999999
 40
0.7999999999999999
 40
0.8999999999999999
 40
0.8999999999999999
 40
0.8999999999999999
 40
0.8999999999999999
 40
1.0
 40
1.0
 40
1.0
 40
1.0
 10
-0.84567
 20
1.7571100000000002
 30
0.0
 10
-0.37069
 20
1.8460100000000002
 30
0.0
 10
-0.05827
 20
1.4650100000000001
 30
0.0
 10
0.2516000000000001
 20
1.19069
 30
0.0
 10
0.2516000000000001
 20
1.19069
 30
0.0
 10
0.25414
 20
1.2567300000000001
 30
0.0
 10
0.11698
 20
1.3837300000000001
 30
0.0
 10
0.23382
 20
1.4116700000000002
 30
0.0
 10
0.23382
 20
1.4116700000000002
 30
0.0
 10
0.3354200000000001
 20
1.1856100000000001
 30
0.0
 10
0.41162
 20
0.9595500000000001
 30
0.0
 10
0.5411600000000001
 20
0.74619
 30
0.0
 10
0.5411600000000001
 20
0.74619
 30
0.0
 10
0.5411600000000001
 20
0.74619
 30
0.0
 10
0.8612000000000001
 20
0.12643
 30
0.0
 10
0.8612000000000001
 20
0.12643
 30
0.0
 10
0.8612000000000001
 20
0.12643
 30
0.0
 10
0.3913
 20
0.64205
 30
0.0
 10
-0.07097
 20
1.8206100000000001
 30
0.0
 10
-0.95235
 20
1.4675500000000001
 30
0.0
 10
-0.95235
 20
1.4675500000000001
 30
0.0
 10
-0.95235
 20
1.4675500000000001
 30
0.0
 10
-1.0920500000000002
 20
1.2618100000000001
 30
0.0
 10
-1.0920500000000002
 20
1.2618100000000001
 30
0.0
 10
-1.0920500000000002
 20
1.2618100000000001
 30
0.0
 10
-1.1098300000000001
 20
1.1805300000000001
 30
0.0
 10
-0.9904500000000001
 20
1.1602100000000002
 30
0.0
 10
-1.0107700000000002
 20
1.0763900000000002
 30
0.0
 10
-1.0107700000000002
 20
1.0763900000000002
 30
0.0
 10
-0.9904500000000001
 20
1.0586100000000001
 30
0.0
 10
-0.99553
 20
1.02305
 30
0.0
 10
-1.00061
 20
1.0001900000000001
 30
0.0
 10
-1.00061
 20
1.0001900000000001
 30
0.0
 10
-1.3587500000000001
 20
1.0332100000000002
 30
0.0
 10
-1.37907
 20
1.3253100000000002
 30
0.0
 10
-1.1530100000000001
 20
1.57169
 30
0.0
 10
-1.1530100000000001
 20
1.57169
 30
0.0
 10
-1.0641100000000001
 20
1.6504300000000001
 30
0.0
 10
-0.9447300000000001
 20
1.7063100000000002
 30
0.0
 10
-0.84567
 20
1.7571100000000002
 30
0.0
  0
SPLINE
  5
2F
100
AcDbEntity
  8
Ebene 1
100
AcDbSpline
210
0.0
220
0.0
230
1.0
 70
     1
 71
     3
 72
    32
 73
    28
 74
     0
 42
0.0000000001
 43
0.0000000001
 40
0.0
 40
0.0
 40
0.0
 40
0.0
 40
0.1428571428571429
 40
0.1428571428571429
 40
0.1428571428571429
 40
0.1428571428571429
 40
0.2857142857142857
 40
0.2857142857142857
 40
0.2857142857142857
 40
0.2857142857142857
 40
0.4285714285714286
 40
0.4285714285714286
 40
0.4285714285714286
 40
0.4285714285714286
 40
0.5714285714285714
 40
0.5714285714285714
 40
0.5714285714285714
 40
0.5714285714285714
 40
0.7142857142857142
 40
0.7142857142857142
 40
0.7142857142857142
 40
0.7142857142857142
 40
0.857142857142857
 40
0.857142857142857
 40
0.857142857142857
 40
0.857142857142857
 40
1.0
 40
1.0
 40
1.0
 40
1.0
 10
-0.40879
 20
1.27959
 30
0.0
 10
-0.28687
 20
1.1729100000000001
 30
0.0
 10
-0.01763
 20
1.0890900000000001
 30
0.0
 10
0.08142
 20
0.8782700000000001
 30
0.0
 10
0.08142
 20
0.8782700000000001
 30
0.0
 10
0.10936
 20
0.7563500000000001
 30
0.0
 10
0.39638
 20
0.59887
 30
0.0
 10
0.2389
 20
0.55569
 30
0.0
 10
0.2389
 20
0.55569
 30
0.0
 10
0.2389
 20
0.55569
 30
0.0
 10
0.2897
 20
0.48711
 30
0.0
 10
0.2897
 20
0.48711
 30
0.0
 10
0.2897
 20
0.48711
 30
0.0
 10
0.2897
 20
0.48711
 30
0.0
 10
-0.4595900000000001
 20
0.61919
 30
0.0
 10
-0.4595900000000001
 20
0.61919
 30
0.0
 10
-0.4595900000000001
 20
0.61919
 30
0.0
 10
-0.6831100000000001
 20
0.7614300000000001
 30
0.0
 10
-0.7466100000000001
 20
1.06877
 30
0.0
 10
-0.5611900000000001
 20
1.2059300000000002
 30
0.0
 10
-0.5611900000000001
 20
1.2059300000000002
 30
0.0
 10
-0.6246900000000001
 20
1.2059300000000002
 30
0.0
 10
-0.69581
 20
1.1627500000000002
 30
0.0
 10
-0.7262900000000001
 20
1.11449
 30
0.0
 10
-0.7262900000000001
 20
1.11449
 30
0.0
 10
-0.7466100000000001
 20
1.2846700000000002
 30
0.0
 10
-0.49769
 20
1.23641
 30
0.0
 10
-0.40879
 20
1.27959
 30
0.0
  0
SPLINE
  5
30
100
AcDbEntity
  8
Ebene 1
 62
     7
100
AcDbSpline
210
0.0
220
0.0
230
1.0
 70
     1
 71
     3
 72
    20
 73
    16
 74
     0
 42
0.0000000001
 43
0.0000000001
 40
0.0
 40
0.0
 40
0.0
 40
0.0
 40
0.25
 40
0.25
 40
0.25
 40
0.25
 40
0.5
 40
0.5
 40
0.5
 40
0.5
 40
0.75
 40
0.75
 40
0.75
 40
0.75
 40
1.0
 40
1.0
 40
1.0
 40
1.0
 10
-2.8065500000000001
 20
1.07131
 30
0.0
 10
-2.8065500000000001
 20
1.07131
 30
0.0
 10
-2.6363700000000003
 20
1.06877
 30
0.0
 10
-2.6363700000000003
 20
1.06877
 30
0.0
 10
-2.6363700000000003
 20
1.06877
 30
0.0
 10
-2.7100300000000002
 20
0.8249300000000001
 30
0.0
 10
-2.7659100000000003
 20
0.55315
 30
0.0
 10
-2.8802100000000004
 20
0.32963
 30
0.0
 10
-2.8802100000000004
 20
0.32963
 30
0.0
 10
-3.0808700000000004
 20
0.46933
 30
0.0
 10
-3.1240500000000004
 20
0.72333
 30
0.0
 10
-3.1037300000000001
 20
0.9519300000000001
 30
0.0
 10
-3.1037300000000001
 20
0.9519300000000001
 30
0.0
 10
-3.1037300000000001
 20
0.9519300000000001
 30
0.0
 10
-2.8065500000000001
 20
1.07131
 30
0.0
 10
-2.8065500000000001
 20
1.07131
 30
0.0
  0
SPLINE
  5
31
100
AcDbEntity
  8
Ebene 1
 62
     7
100
AcDbSpline
210
0.0
220
0.0
230
1.0
 70
     1
 71
     3
 72
    92
 73
    88
 74
     0
 42
0.0000000001
 43
0.0000000001
 40
0.0
 40
0.0
 40
0.0
 40
0.0
 40
0.0454545454545455
 40
0.0454545454545455
 40
0.0454545454545455
 40
0.0454545454545455
 40
0.0909090909090909
 40
0.0909090909090909
 40
0.0909090909090909
 40
0.0909090909090909
 40
0.1363636363636364
 40
0.1363636363636364
 40
0.1363636363636364
 40
0.1363636363636364
 40
0.1818181818181818
 40
0.1818181818181818
 40
0.1818181818181818
 40
0.1818181818181818
 40
0.2272727272727273
 40
0.2272727272727273
 40
0.2272727272727273
 40
0.2272727272727273
 40
0.2727272727272728
 40
0.2727272727272728
 40
0.2727272727272728
 40
0.2727272727272728
 40
0.3181818181818182
 40
0.3181818181818182
 40
0.3181818181818182
 40
0.3181818181818182
 40
0.3636363636363637
 40
0.3636363636363637
 40
0.3636363636363637
 40
0.3636363636363637
 40
0.4090909090909092
 40
0.4090909090909092
 40
0.4090909090909092
 40
0.4090909090909092
 40
0.4545454545454546
 40
0.4545454545454546
 40
0.4545454545454546
 40
0.4545454545454546
 40
0.5000000000000001
 40
0.5000000000000001
 40
0.5000000000000001
 40
0.5000000000000001
 40
0.5454545454545455
 40
0.5454545454545455
 40
0.5454545454545455
 40
0.5454545454545455
 40
0.5909090909090909
 40
0.5909090909090909
 40
0.5909090909090909
 40
0.5909090909090909
 40
0.6363636363636364
 40
0.6363636363636364
 40
0.6363636363636364
 40
0.6363636363636364
 40
0.6818181818181818
 40
0.6818181818181818
 40
0.6818181818181818
 40
0.6818181818181818
 40
0.7272727272727272
 40
0.7272727272727272
 40
0.7272727272727272
 40
0.7272727272727272
 40
0.7727272727272726
 40
0.7727272727272726
 40
0.7727272727272726
 40
0.7727272727272726
 40
0.818181818181818
 40
0.818181818181818
 40
0.818181818181818
 40
0.818181818181818
 40
0.8636363636363634
 40
0.8636363636363634
 40
0.8636363636363634
 40
0.8636363636363634
 40
0.9090909090909088
 40
0.9090909090909088
 40
0.9090909090909088
 40
0.9090909090909088
 40
0.9545454545454543
 40
0.9545454545454543
 40
0.9545454545454543
 40
0.9545454545454543
 40
1.0
 40
1.0
 40
1.0
 40
1.0
 10
-1.3104900000000002
 20
-4.2322000000000006
 30
0.0
 10
-1.2749300000000001
 20
-4.2779199999999999
 30
0.0
 10
-1.3206500000000001
 20
-3.9324800000000004
 30
0.0
 10
-1.54925
 20
-3.5133800000000002
 30
0.0
 10
-1.54925
 20
-3.5133800000000002
 30
0.0
 10
-1.6660900000000001
 20
-3.2695400000000001
 30
0.0
 10
-1.6610100000000001
 20
-2.6574000000000004
 30
0.0
 10
-1.5111500000000002
 20
-3.2085800000000004
 30
0.0
 10
-1.5111500000000002
 20
-3.2085800000000004
 30
0.0
 10
-1.2622300000000002
 20
-4.1001200000000004
 30
0.0
 10
-0.5789700000000001
 20
-4.8595800000000002
 30
0.0
 10
-0.6018300000000001
 20
-5.82986
 30
0.0
 10
-0.6018300000000001
 20
-5.82986
 30
0.0
 10
-1.3460500000000002
 20
-4.2880800000000008
 30
0.0
 10
-2.11313
 20
-2.6751800000000001
 30
0.0
 10
-2.6668500000000002
 20
-1.0241800000000001
 30
0.0
 10
-2.6668500000000002
 20
-1.0241800000000001
 30
0.0
 10
-2.5347700000000004
 20
-1.00386
 30
0.0
 10
-2.2858500000000004
 20
-1.4813800000000001
 30
0.0
 10
-2.3722100000000004
 20
-1.2146800000000002
 30
0.0
 10
-2.3722100000000004
 20
-1.2146800000000002
 30
0.0
 10
-2.6617700000000002
 20
-0.7346200000000001
 30
0.0
 10
-3.3755100000000002
 20
-0.5568200000000001
 30
0.0
 10
-3.5228300000000004
 20
-0.03358
 30
0.0
 10
-3.5228300000000004
 20
-0.03358
 30
0.0
 10
-3.3145500000000001
 20
-0.17836
 30
0.0
 10
-3.0605500000000001
 20
-0.35108
 30
0.0
 10
-2.8954500000000003
 20
-0.5771400000000001
 30
0.0
 10
-2.8954500000000003
 20
-0.5771400000000001
 30
0.0
 10
-2.8954500000000003
 20
-0.5771400000000001
 30
0.0
 10
-2.7532100000000002
 20
-0.6508000000000001
 30
0.0
 10
-2.7532100000000002
 20
-0.6508000000000001
 30
0.0
 10
-2.7532100000000002
 20
-0.6508000000000001
 30
0.0
 10
-3.1850100000000001
 20
-0.16566
 30
0.0
 10
-3.6523700000000003
 20
0.33471
 30
0.0
 10
-3.7133300000000005
 20
1.0484500000000001
 30
0.0
 10
-3.7133300000000005
 20
1.0484500000000001
 30
0.0
 10
-3.6320500000000004
 20
0.8985900000000001
 30
0.0
 10
-3.3755100000000002
 20
0.9849500000000001
 30
0.0
 10
-3.3196300000000001
 20
0.8630300000000001
 30
0.0
 10
-3.3196300000000001
 20
0.8630300000000001
 30
0.0
 10
-3.2713700000000001
 20
0.6344300000000001
 30
0.0
 10
-3.1113500000000003
 20
0.4439300000000001
 30
0.0
 10
-3.1342100000000004
 20
0.20263
 30
0.0
 10
-3.1342100000000004
 20
0.20263
 30
0.0
 10
-3.2104100000000004
 20
0.21279
 30
0.0
 10
-3.2459700000000002
 20
0.29153
 30
0.0
 10
-3.3043900000000002
 20
0.34487
 30
0.0
 10
-3.3043900000000002
 20
0.34487
 30
0.0
 10
-3.6472900000000004
 20
0.6877700000000001
 30
0.0
 10
-3.0427700000000004
 20
-0.3968
 30
0.0
 10
-2.8471900000000003
 20
0.10611
 30
0.0
 10
-2.8471900000000003
 20
0.10611
 30
0.0
 10
-2.8471900000000003
 20
0.10611
 30
0.0
 10
-2.6160500000000004
 20
0.74619
 30
0.0
 10
-2.6160500000000004
 20
0.74619
 30
0.0
 10
-2.6160500000000004
 20
0.74619
 30
0.0
 10
-2.6160500000000004
 20
0.74619
 30
0.0
 10
-2.5042900000000001
 20
0.9519300000000001
 30
0.0
 10
-2.5042900000000001
 20
0.9519300000000001
 30
0.0
 10
-2.5042900000000001
 20
0.9519300000000001
 30
0.0
 10
-2.3468100000000001
 20
0.45917
 30
0.0
 10
-2.4890500000000002
 20
-0.12502
 30
0.0
 10
-2.4636500000000003
 20
-0.6000000000000001
 30
0.0
 10
-2.4636500000000003
 20
-0.6000000000000001
 30
0.0
 10
-2.3391900000000003
 20
-0.5212600000000001
 30
0.0
 10
-2.4103100000000004
 20
-0.346
 30
0.0
 10
-2.36205
 20
-0.22408
 30
0.0
 10
-2.36205
 20
-0.22408
 30
0.0
 10
-2.36205
 20
-0.22408
 30
0.0
 10
-2.2579100000000003
 20
0.13405
 30
0.0
 10
-2.2579100000000003
 20
0.13405
 30
0.0
 10
-2.2579100000000003
 20
0.13405
 30
0.0
 10
-2.1055100000000002
 20
-0.33838
 30
0.0
 10
-2.2096500000000003
 20
-0.8590800000000001
 30
0.0
 10
-2.1588500000000002
 20
-1.3442200000000002
 30
0.0
 10
-2.1588500000000002
 20
-1.3442200000000002
 30
0.0
 10
-2.0394700000000001
 20
-1.3848600000000002
 30
0.0
 10
-2.1334500000000003
 20
-1.0241800000000001
 30
0.0
 10
-2.0953500000000003
 20
-0.90988
 30
0.0
 10
-2.0953500000000003
 20
-0.90988
 30
0.0
 10
-1.8083300000000002
 20
-1.6566400000000001
 30
0.0
 10
-1.8032500000000002
 20
-2.5431000000000004
 30
0.0
 10
-1.7016500000000001
 20
-3.3406600000000002
 30
0.0
 10
-1.7016500000000001
 20
-3.3406600000000002
 30
0.0
 10
-1.7016500000000001
 20
-3.3406600000000002
 30
0.0
 10
-1.3104900000000002
 20
-4.2322000000000006
 30
0.0
 10
-1.3104900000000002
 20
-4.2322000000000006
 30
0.0
  0
SPLINE
  5
32
100
AcDbEntity
  8
Ebene 1
100
AcDbSpline
210
0.0
220
0.0
230
1.0
 70
     1
 71
     3
 72
    24
 73
    20
 74
     0
 42
0.0000000001
 43
0.0000000001
 40
0.0
 40
0.0
 40
0.0
 40
0.0
 40
0.2
 40
0.2
 40
0.2
 40
0.2
 40
0.4
 40
0.4
 40
0.4
 40
0.4
 40
0.6000000000000001
 40
0.6000000000000001
 40
0.6000000000000001
 40
0.6000000000000001
 40
0.8
 40
0.8
 40
0.8
 40
0.8
 40
1.0
 40
1.0
 40
1.0
 40
1.0
 10
1.5749400000000002
 20
-0.11994
 30
0.0
 10
1.6384400000000001
 20
-0.22916
 30
0.0
 10
1.7400400000000003
 20
-0.38664
 30
0.0
 10
1.6028800000000001
 20
-0.4806200000000001
 30
0.0
 10
1.6028800000000001
 20
-0.4806200000000001
 30
0.0
 10
1.6028800000000001
 20
-0.4806200000000001
 30
0.0
 10
1.4987400000000002
 20
-0.4247400000000001
 30
0.0
 10
1.4987400000000002
 20
-0.4247400000000001
 30
0.0
 10
1.4987400000000002
 20
-0.4247400000000001
 30
0.0
 10
1.4098400000000002
 20
-0.00056
 30
0.0
 10
1.0948800000000001
 20
0.33217
 30
0.0
 10
0.87136
 20
0.6877700000000001
 30
0.0
 10
0.87136
 20
0.6877700000000001
 30
0.0
 10
0.87136
 20
0.6877700000000001
 30
0.0
 10
1.2218800000000001
 20
0.38297
 30
0.0
 10
1.2218800000000001
 20
0.38297
 30
0.0
 10
1.2218800000000001
 20
0.38297
 30
0.0
 10
1.39714
 20
0.23819
 30
0.0
 10
1.4504800000000002
 20
0.07563
 30
0.0
 10
1.5749400000000002
 20
-0.11994
 30
0.0
  0
SPLINE
  5
33
100
AcDbEntity
  8
Ebene 1
 62
     7
100
AcDbSpline
210
0.0
220
0.0
230
1.0
 70
     1
 71
     3
 72
    28
 73
    24
 74
     0
 42
0.0000000001
 43
0.0000000001
 40
0.0
 40
0.0
 40
0.0
 40
0.0
 40
0.1666666666666667
 40
0.1666666666666667
 40
0.1666666666666667
 40
0.1666666666666667
 40
0.3333333333333333
 40
0.3333333333333333
 40
0.3333333333333333
 40
0.3333333333333333
 40
0.5
 40
0.5
 40
0.5
 40
0.5
 40
0.6666666666666666
 40
0.6666666666666666
 40
0.6666666666666666
 40
0.6666666666666666
 40
0.8333333333333333
 40
0.8333333333333333
 40
0.8333333333333333
 40
0.8333333333333333
 40
1.0
 40
1.0
 40
1.0
 40
1.0
 10
-1.8718300000000001
 20
0.25343
 30
0.0
 10
-1.8718300000000001
 20
0.25343
 30
0.0
 10
-1.71435
 20
-0.4044200000000001
 30
0.0
 10
-1.71435
 20
-0.4044200000000001
 30
0.0
 10
-1.71435
 20
-0.4044200000000001
 30
0.0
 10
-1.50607
 20
-0.6076200000000001
 30
0.0
 10
-1.2266700000000001
 20
-0.7854200000000001
 30
0.0
 10
-0.9447300000000001
 20
-0.8514600000000001
 30
0.0
 10
-0.9447300000000001
 20
-0.8514600000000001
 30
0.0
 10
-0.9472700000000001
 20
-2.1621000000000001
 30
0.0
 10
-0.8812300000000001
 20
-3.4397200000000003
 30
0.0
 10
-0.7364500000000001
 20
-4.7249600000000003
 30
0.0
 10
-0.7364500000000001
 20
-4.7249600000000003
 30
0.0
 10
-1.4679700000000002
 20
-3.3660600000000005
 30
0.0
 10
-1.7499100000000001
 20
-1.8446000000000002
 30
0.0
 10
-2.0826500000000001
 20
-0.3536200000000001
 30
0.0
 10
-2.0826500000000001
 20
-0.3536200000000001
 30
0.0
 10
-2.0826500000000001
 20
-0.3536200000000001
 30
0.0
 10
-2.0242300000000002
 20
0.19501
 30
0.0
 10
-2.0242300000000002
 20
0.19501
 30
0.0
 10
-2.0242300000000002
 20
0.19501
 30
0.0
 10
-2.0242300000000002
 20
0.19501
 30
0.0
 10
-1.8718300000000001
 20
0.25343
 30
0.0
 10
-1.8718300000000001
 20
0.25343
 30
0.0
  0
SPLINE
  5
34
100
AcDbEntity
  8
Ebene 1
 62
     7
100
AcDbSpline
210
0.0
220
0.0
230
1.0
 70
     1
 71
     3
 72
    20
 73
    16
 74
     0
 42
0.0000000001
 43
0.0000000001
 40
0.0
 40
0.0
 40
0.0
 40
0.0
 40
0.25
 40
0.25
 40
0.25
 40
0.25
 40
0.5
 40
0.5
 40
0.5
 40
0.5
 40
0.75
 40
0.75
 40
0.75
 40
0.75
 40
1.0
 40
1.0
 40
1.0
 40
1.0
 10
-0.4494300000000001
 20
-4.1001200000000004
 30
0.0
 10
-0.4494300000000001
 20
-4.1001200000000004
 30
0.0
 10
-0.4494300000000001
 20
-4.9332400000000005
 30
0.0
 10
-0.4494300000000001
 20
-4.9332400000000005
 30
0.0
 10
-0.4494300000000001
 20
-4.9332400000000005
 30
0.0
 10
-0.4494300000000001
 20
-4.9332400000000005
 30
0.0
 10
-0.49769
 20
-4.9154600000000004
 30
0.0
 10
-0.49769
 20
-4.9154600000000004
 30
0.0
 10
-0.49769
 20
-4.9154600000000004
 30
0.0
 10
-0.46721
 20
-4.7173400000000001
 30
0.0
 10
-0.63993
 20
-4.4049200000000006
 30
0.0
 10
-0.51039
 20
-4.2347400000000004
 30
0.0
 10
-0.51039
 20
-4.2347400000000004
 30
0.0
 10
-0.51039
 20
-4.2347400000000004
 30
0.0
 10
-0.4494300000000001
 20
-4.1001200000000004
 30
0.0
 10
-0.4494300000000001
 20
-4.1001200000000004
 30
0.0
  0
ENDSEC
  0
SECTION
  2
OBJECTS
  0
DICTIONARY
  5
19
100
AcDbDictionary
280
     0
281
     1
  3
ACAD_GROUP
350
1A
  3
ACAD_MLINESTYLE
350
1B
  3
ACAD_LAYOUT
350
1E
  3
ACAD_PLOTSETTINGS
350
22
  3
ACAD_PLOTSTYLENAME
350
1F
  3
ACAD_WIPEOUT_VARS
350
23
  0
DICTIONARY
  5
1A
102
{ACAD_REACTORS
330
19
102
}
100
AcDbDictionary
280
     0
281
     1
  0
DICTIONARY
  5
1B
102
{ACAD_REACTORS
330
19
102
}
100
AcDbDictionary
280
     0
281
     1
  3
Standard
350
1C
  0
MLINESTYLE
  5
1C
102
{ACAD_REACTORS
330
1B
102
}
100
AcDbMlineStyle
  2
Standard
 70
     0
  3

 62
     0
 51
90.0
 52
90.0
 71
     2
 49
0.5
 62
   256
  6
BYLAYER
 49
-0.5
 62
   256
  6
BYLAYER
  0
ACDBDICTIONARYWDFLT
  5
1F
102
{ACAD_REACTORS
330
19
102
}
100
AcDbDictionary
281
     1
  3
Normal
350
1D
100
AcDbDictionaryWithDefault
340
1D
  0
ACDBPLACEHOLDER
  5
1D
102
{ACAD_REACTORS
330
1F
102
}
  0
LAYOUT
  5
20
102
{ACAD_REACTORS
330
1E
102
}
100
AcDbPlotSettings
  1

  2

  4

  6

 40
0.0
 41
0.0
 42
0.0
 43
0.0
 44
0.0
 45
0.0
 46
0.0
 47
0.0
 48
0.0
 49
0.0
140
0.0
141
0.0
142
1.0
143
1.0
 70
  1024
 72
     0
 73
     0
 74
     0
  7

 75
     0
147
1.0
148
0.0
149
0.0
100
AcDbLayout
  1
Model
 70
     0
 71
     0
 10
0.0
 20
0.0
 11
0.0
 21
0.0
 12
0.0
 22
0.0
 32
0.0
 14
0.0
 24
0.0
 34
0.0
 15
0.0
 25
0.0
 35
0.0
146
0.0
 13
0.0
 23
0.0
 33
0.0
 16
0.0
 26
0.0
 36
0.0
 17
0.0
 27
0.0
 37
0.0
 76
     0
330
A
331
0
345
0
346
0
  0
LAYOUT
  5
21
102
{ACAD_REACTORS
330
1E
102
}
100
AcDbPlotSettings
  1

  2

  4

  6

 40
0.0
 41
0.0
 42
0.0
 43
0.0
 44
0.0
 45
0.0
 46
0.0
 47
0.0
 48
0.0
 49
0.0
140
0.0
141
0.0
142
1.0
143
1.0
 70
     0
 72
     0
 73
     0
 74
     0
  7

 75
     0
147
1.0
148
0.0
149
0.0
100
AcDbLayout
  1
Layout1
 70
     0
 71
     0
 10
0.0
 20
0.0
 11
0.0
 21
0.0
 12
0.0
 22
0.0
 32
0.0
 14
0.0
 24
0.0
 34
0.0
 15
0.0
 25
0.0
 35
0.0
146
0.0
 13
0.0
 23
0.0
 33
0.0
 16
0.0
 26
0.0
 36
0.0
 17
0.0
 27
0.0
 37
0.0
 76
     0
330
B
331
0
345
0
346
0
  0
DICTIONARY
  5
1E
102
{ACAD_REACTORS
330
19
102
}
100
AcDbDictionary
280
     0
281
     1
  3
Layout1
350
21
  3
Model
350
20
  0
DICTIONARY
  5
22
102
{ACAD_REACTORS
330
19
102
}
100
AcDbDictionary
280
     0
281
     1
  0
WIPEOUTVARIABLES
  5
23
100
AcDbWipeoutVariables
 70
     1
  0
ENDSEC
  0
EOF
