  0
SECTION
  2
HEADER
  9
$ACADVER
  1
AC1015
  9
$ACADMAINTVER
 70
     6
  9
$DWGCODEPAGE
  3
DOS850
  9
$INSBASE
 10
0.0
 20
0.0
 30
0.0
  9
$EXTMIN
 10
-6.19237
 20
-5.02214
 30
1.000000E+20
  9
$EXTMAX
 10
6.19774
 20
5.01593
 30
-1.000000E+20
  9
$LIMMIN
 10
0.0
 20
0.0
  9
$LIMMAX
 10
0.0
 20
0.0
  9
$ORTHOMODE
 70
     0
  9
$REGENMODE
 70
     1
  9
$FILLMODE
 70
     1
  9
$QTEXTMODE
 70
     0
  9
$MIRRTEXT
 70
     1
  9
$LTSCALE
 40
1.0
  9
$ATTMODE
 70
     1
  9
$TEXTSIZE
 40
0.2
  9
$TRACEWID
 40
0.05
  9
$TEXTSTYLE
  7
Standard
  9
$CLAYER
  8
0
  9
$CELTYPE
  6
Continuous
  9
$CECOLOR
 62
   256
  9
$CELTSCALE
 40
1.0
  9
$DISPSILH
 70
     0
  9
$DIMSCALE
 40
1.0
  9
$DIMASZ
 40
0.18
  9
$DIMEXO
 40
0.0625
  9
$DIMDLI
 40
0.38
  9
$DIMRND
 40
0.0
  9
$DIMDLE
 40
0.0
  9
$DIMEXE
 40
0.18
  9
$DIMTP
 40
0.0
  9
$DIMTM
 40
0.0
  9
$DIMTXT
 40
0.18
  9
$DIMCEN
 40
0.09
  9
$DIMTSZ
 40
0.0
  9
$DIMTOL
 70
     0
  9
$DIMLIM
 70
     0
  9
$DIMTIH
 70
     1
  9
$DIMTOH
 70
     1
  9
$DIMSE1
 70
     0
  9
$DIMSE2
 70
     0
  9
$DIMTAD
 70
     0
  9
$DIMZIN
 70
     0
  9
$DIMBLK
  1

  9
$DIMASO
 70
     1
  9
$DIMSHO
 70
     1
  9
$DIMPOST
  1

  9
$DIMAPOST
  1

  9
$DIMALT
 70
     0
  9
$DIMALTD
 70
     2
  9
$DIMALTF
 40
25.4
  9
$DIMLFAC
 40
1.0
  9
$DIMTOFL
 70
     0
  9
$DIMTVP
 40
0.0
  9
$DIMTIX
 70
     0
  9
$DIMSOXD
 70
     0
  9
$DIMSAH
 70
     0
  9
$DIMBLK1
  1

  9
$DIMBLK2
  1

  9
$DIMSTYLE
  2
Standard
  9
$DIMCLRD
 70
     0
  9
$DIMCLRE
 70
     0
  9
$DIMCLRT
 70
     0
  9
$DIMTFAC
 40
1.0
  9
$DIMGAP
 40
0.09
  9
$DIMJUST
 70
     0
  9
$DIMSD1
 70
     0
  9
$DIMSD2
 70
     0
  9
$DIMTOLJ
 70
     1
  9
$DIMTZIN
 70
     0
  9
$DIMALTZ
 70
     0
  9
$DIMALTTZ
 70
     0
  9
$DIMUPT
 70
     0
  9
$DIMDEC
 70
     4
  9
$DIMTDEC
 70
     4
  9
$DIMALTU
 70
     2
  9
$DIMALTTD
 70
     2
  9
$DIMTXSTY
  7
Standard
  9
$DIMAUNIT
 70
     0
  9
$DIMADEC
 70
     0
  9
$DIMALTRND
 40
0.0
  9
$DIMAZIN
 70
     0
  9
$DIMDSEP
 70
     0
  9
$DIMATFIT
 70
     3
  9
$DIMFRAC
 70
     0
  9
$DIMLDRBLK
  1

  9
$DIMLUNIT
 70
     2
  9
$DIMLWD
 70
     0
  9
$DIMLWE
 70
     0
  9
$DIMTMOVE
 70
     0
  9
$LUNITS
 70
     2
  9
$LUPREC
 70
     4
  9
$SKETCHINC
 40
0.1
  9
$FILLETRAD
 40
0.0
  9
$AUNITS
 70
     0
  9
$AUPREC
 70
     0
  9
$MENU
  1
acad
  9
$ELEVATION
 40
0.0
  9
$PELEVATION
 40
0.0
  9
$THICKNESS
 40
0.0
  9
$LIMCHECK
 70
     0
  9
$CHAMFERA
 40
0.0
  9
$CHAMFERB
 40
0.0
  9
$CHAMFERC
 40
0.0
  9
$CHAMFERD
 40
0.0
  9
$SKPOLY
 70
     0
  9
$TDCREATE
 40
0.000000000
  9
$TDUCREATE
 40
0.000000000
  9
$TDUPDATE
 40
0.000000000
  9
$TDUUPDATE
 40
0.000000000
  9
$TDINDWG
 40
0.0000000000
  9
$TDUSRTIMER
 40
0.0000000000
  9
$USRTIMER
 70
     1
  9
$ANGBASE
 50
0.0
  9
$ANGDIR
 70
     0
  9
$PDMODE
 70
     0
  9
$PDSIZE
 40
0.0
  9
$PLINEWID
 40
0.0
  9
$SPLFRAME
 70
     0
  9
$SPLINETYPE
 70
     6
  9
$SPLINESEGS
 70
     8
  9
$HANDSEED
  5
31
  9
$SURFTAB1
 70
     6
  9
$SURFTAB2
 70
     6
  9
$SURFTYPE
 70
     6
  9
$SURFU
 70
     6
  9
$SURFV
 70
     6
  9
$UCSBASE
  2

  9
$UCSNAME
  2

  9
$UCSORG
 10
0.0
 20
0.0
 30
0.0
  9
$UCSXDIR
 10
1.0
 20
0.0
 30
0.0
  9
$UCSYDIR
 10
0.0
 20
1.0
 30
0.0
  9
$UCSORTHOREF
  2

  9
$UCSORTHOVIEW
 70
     0
  9
$UCSORGTOP
 10
0.0
 20
0.0
 30
0.0
  9
$UCSORGBOTTOM
 10
0.0
 20
0.0
 30
0.0
  9
$UCSORGLEFT
 10
0.0
 20
0.0
 30
0.0
  9
$UCSORGRIGHT
 10
0.0
 20
0.0
 30
0.0
  9
$UCSORGFRONT
 10
0.0
 20
0.0
 30
0.0
  9
$UCSORGBACK
 10
0.0
 20
0.0
 30
0.0
  9
$PUCSBASE
  2

  9
$PUCSNAME
  2

  9
$PUCSORG
 10
0.0
 20
0.0
 30
0.0
  9
$PUCSXDIR
 10
1.0
 20
0.0
 30
0.0
  9
$PUCSYDIR
 10
0.0
 20
1.0
 30
0.0
  9
$PUCSORTHOREF
  2

  9
$PUCSORTHOVIEW
 70
     0
  9
$PUCSORGTOP
 10
0.0
 20
0.0
 30
0.0
  9
$PUCSORGBOTTOM
 10
0.0
 20
0.0
 30
0.0
  9
$PUCSORGLEFT
 10
0.0
 20
0.0
 30
0.0
  9
$PUCSORGRIGHT
 10
0.0
 20
0.0
 30
0.0
  9
$PUCSORGFRONT
 10
0.0
 20
0.0
 30
0.0
  9
$PUCSORGBACK
 10
0.0
 20
0.0
 30
0.0
  9
$USERI1
 70
     0
  9
$USERI2
 70
     0
  9
$USERI3
 70
     0
  9
$USERI4
 70
     0
  9
$USERI5
 70
     0
  9
$USERR1
 40
0.0
  9
$USERR2
 40
0.0
  9
$USERR3
 40
0.0
  9
$USERR4
 40
0.0
  9
$USERR5
 40
0.0
  9
$WORLDVIEW
 70
     1
  9
$SHADEDGE
 70
     3
  9
$SHADEDIF
 70
    70
  9
$TILEMODE
 70
     1
  9
$MAXACTVP
 70
    16
  9
$PINSBASE
 10
0.0
 20
0.0
 30
0.0
  9
$PLIMCHECK
 70
     0
  9
$PEXTMIN
 10
1.000000E+20
 20
1.000000E+20
 30
1.000000E+20
  9
$PEXTMAX
 10
-1.000000E+20
 20
-1.000000E+20
 30
-1.000000E+20
  9
$PLIMMIN
 10
0.0
 20
0.0
  9
$PLIMMAX
 10
12.0
 20
9.0
  9
$UNITMODE
 70
     0
  9
$VISRETAIN
 70
     0
  9
$PLINEGEN
 70
     1
  9
$PSLTSCALE
 70
     0
  9
$TREEDEPTH
 70
  3020
  9
$CMLSTYLE
  2
Standard
  9
$CMLJUST
 70
     0
  9
$CMLSCALE
 40
1.0
  9
$PROXYGRAPHICS
 70
     0
  9
$MEASUREMENT
 70
     0
  9
$CELWEIGHT
370
     0
  9
$ENDCAPS
280
     0
  9
$JOINSTYLE
280
     0
  9
$LWDISPLAY
290
     0
  9
$INSUNITS
 70
     5
  9
$HYPERLINKBASE
  1

  9
$XEDIT
290
     1
  9
$CEPSNTYPE
380
     0
  9
$PSTYLEMODE
290
     1
  9
$FINGERPRINTGUID
  2

  9
$VERSIONGUID
  2

  9
$EXTNAMES
290
     1
  9
$PSVPSCALE
 40
0.0
  0
ENDSEC
  0
SECTION
  2
CLASSES
  0
CLASS
  1
LWPOLYLINE
  2
AcDbPolyline
  3
AutoCAD 2000
 90
    32768
280
     0
281
     1
  0
CLASS
  1
IMAGE
  2
AcDbRasterImage
  3
ISM
 90
    32895
280
     0
281
     1
  0
CLASS
  1
OLE2FRAME
  2
AcDbOle2Frame
  3
AutoCAD 2000
 90
    32768
280
     0
281
     1
  0
CLASS
  1
HATCH
  2
AcDbHatch
  3
AutoCAD 2000
 90
    32768
280
     0
281
     1
  0
CLASS
  1
DICTIONARYVAR
  2
AcDbDictionaryVar
  3
AutoCAD 2000
 90
    32768
280
     0
281
     0
  0
CLASS
  1
RASTERVARIABLES
  2
AcDbRasterVariables
  3
ISM
 90
    32768
280
     0
281
     0
  0
CLASS
  1
IMAGEDEF
  2
AcDbRasterImageDef
  3
ISM
 90
    32768
280
     0
281
     0
  0
CLASS
  1
IMAGEDEF_REACTOR
  2
AcDbRasterImageDefReactor
  3
ISM
 90
    32769
280
     0
281
     0
  0
CLASS
  1
IDBUFFER
  2
AcDbIdBuffer
  3
AutoCAD 2000
 90
    32768
280
     0
281
     0
  0
CLASS
  1
SPATIAL_FILTER
  2
AcDbSpatialFilter
  3
AutoCAD 2000
 90
    32768
280
     0
281
     0
  0
CLASS
  1
XRECORD
  2
AcDbXrecord
  3
AutoCAD 2000
 90
    32768
280
     0
281
     0
  0
CLASS
  1
SORTENTSTABLE
  2
AcDbSortentsTable
  3
AutoCAD 2000
 90
    32768
280
     0
281
     0
  0
CLASS
  1
LAYER_INDEX
  2
AcDbLayerIndex
  3
AutoCAD 2000
 90
    32768
280
     0
281
     0
  0
CLASS
  1
SPATIAL_INDEX
  2
AcDbSpatialIndex
  3
AutoCAD 2000
 90
    32768
280
     0
281
     0
  0
CLASS
  1
OBJECT_PTR
  2
CAseDLPNTableRecord
  3
"ASE-LPNTableRecord"
 90
    32769
280
     0
281
     0
  0
CLASS
  1
LAYOUT
  2
AcDbLayout
  3
AutoCAD 2000
 90
        0
280
     0
281
     0
  0
CLASS
  1
PLOTSETTINGS
  2
AcDbPlotSettings
  3
AutoCAD 2000
 90
    32768
280
     0
281
     0
  0
CLASS
  1
ACDBDICTIONARYWDFLT
  2
AcDbDictionaryWithDefault
  3
AutoCAD 2000
 90
        0
280
     0
281
     0
  0
CLASS
  1
ACDBPLACEHOLDER
  2
AcDbPlaceHolder
  3
AutoCAD 2000
 90
        0
280
     0
281
     0
  0
CLASS
  1
VBA_PROJECT
  2
AcDbVbaProject
  3
acadvba
 90
    32768
280
     0
281
     0
  0
CLASS
  1
WIPEOUT
  2
AcDbWipeout
  3
WipeOut|AutoCAD Express Tool|expresstools@autodesk.com
 90
    32895
280
     0
281
     1
  0
CLASS
  1
WIPEOUTVARIABLES
  2
AcDbWipeoutVariables
  3
WipeOut|AutoCAD Express Tool|expresstools@autodesk.com
 90
        0
280
     0
281
     0
  0
CLASS
  1
RTEXT
  2
RText
  3
RText|AutoCAD Express Tool|expresstools@autodesk.com
 90
    32768
280
     0
281
     1
  0
CLASS
  1
ARCALIGNEDTEXT
  2
AcDbArcAlignedText
  3
ATEXT|AutoCAD Express Tool|expresstools@autodesk.com
 90
    32768
280
     0
281
     1
  0
ENDSEC
  0
SECTION
  2
TABLES
  0
TABLE
  2
VPORT
  5
7
100
AcDbSymbolTable
 70
     1
  0
VPORT
  5
15
100
AcDbSymbolTableRecord
100
AcDbViewportTableRecord
  2
*ACTIVE
 70
     0
 10
0.0
 20
0.0
 11
1.0
 21
1.0
 12
6.591288
 22
4.579184
 13
0.0
 23
0.0
 14
1.0
 24
1.0
 15
0.0
 25
0.0
 16
0.0
 26
0.0
 36
1.0
 17
0.0
 27
0.0
 37
0.0
 40
9.158369
 41
0.688564
 42
50.0
 43
0.0
 44
0.0
 50
0.0
 51
0.0
 71
     0
 72
   100
 73
     1
 74
     1
 75
     0
 76
     0
 77
     0
 78
     0
281
     0
 65
     0
110
0.0
120
0.0
130
0.0
111
1.0
121
0.0
131
0.0
112
0.0
122
1.0
132
0.0
345
0
346
0
 79
     0
146
0.0
  0
ENDTAB
  0
TABLE
  2
LTYPE
  5
4
100
AcDbSymbolTable
 70
     3
  0
LTYPE
  5
11
100
AcDbSymbolTableRecord
100
AcDbLinetypeTableRecord
  2
ByBlock
 70
    64
  3

 72
    65
 73
     0
 40
0.0
  0
LTYPE
  5
12
100
AcDbSymbolTableRecord
100
AcDbLinetypeTableRecord
  2
ByLayer
 70
    64
  3

 72
    65
 73
     0
 40
0.0
  0
LTYPE
  5
13
100
AcDbSymbolTableRecord
100
AcDbLinetypeTableRecord
  2
Continuous
 70
    64
  3
Solid line
 72
    65
 73
     0
 40
0.0
  0
ENDTAB
  0
TABLE
  2
LAYER
  5
2
100
AcDbSymbolTable
 70
     2
  0
LAYER
  5
14
100
AcDbSymbolTableRecord
100
AcDbLayerTableRecord
  2
0
 70
     0
 62
     7
  6
Continuous
290
     1
370
    -3
390
1D
  0
LAYER
  5
24
100
AcDbSymbolTableRecord
100
AcDbLayerTableRecord
  2
Ebene 1
 70
     0
 62
     7
  6
Continuous
290
     1
370
    -3
390
1F
  0
ENDTAB
  0
TABLE
  2
STYLE
  5
3
100
AcDbSymbolTable
 70
     1
  0
STYLE
  5
17
100
AcDbSymbolTableRecord
100
AcDbTextStyleTableRecord
  2
Standard
 70
     0
 40
0.0
 41
1.0
 50
0.0
 71
     0
 42
0.0
  3
txt
  4

  0
ENDTAB
  0
TABLE
  2
VIEW
  5
5
100
AcDbSymbolTable
 70
     0
  0
ENDTAB
  0
TABLE
  2
UCS
  5
6
100
AcDbSymbolTable
 70
     0
  0
ENDTAB
  0
TABLE
  2
APPID
  5
8
100
AcDbSymbolTable
 70
     1
  0
APPID
  5
16
100
AcDbSymbolTableRecord
100
AcDbRegAppTableRecord
  2
ACAD
 70
     0
  0
ENDTAB
  0
TABLE
  2
DIMSTYLE
  5
9
100
AcDbSymbolTable
 70
     1
100
AcDbDimStyleTable
 71
     0
  0
DIMSTYLE
105
18
100
AcDbSymbolTableRecord
100
AcDbDimStyleTableRecord
  2
Standard
 70
     0
  3

  4

 40
1.0
 41
0.18
 42
0.0625
 43
0.38
 44
0.18
 45
0.0
 46
0.0
 47
0.0
 48
0.0
 71
     0
 72
     0
 73
     1
 74
     1
 75
     0
 76
     0
 77
     0
 78
     0
 79
     0
140
0.18
141
0.09
142
0.0
143
25.4
144
1.0
145
0.0
146
1.0
147
0.09
148
0.0
170
     0
171
     2
172
     0
173
     0
174
     0
175
     0
176
     0
177
     0
178
     0
179
     0
271
     4
272
     4
273
     2
274
     2
275
     0
276
     0
277
     2
278
    46
279
     0
280
     0
281
     0
282
     0
283
     1
284
     0
285
     0
286
     0
288
     0
340
17
341
0
342
0
343
0
344
0
371
    -2
372
    -2
  0
ENDTAB
  0
TABLE
  2
BLOCK_RECORD
  5
1
100
AcDbSymbolTable
 70
     0
  0
BLOCK_RECORD
  5
A
100
AcDbSymbolTableRecord
100
AcDbBlockTableRecord
  2
*MODEL_SPACE
340
20
  0
BLOCK_RECORD
  5
B
100
AcDbSymbolTableRecord
100
AcDbBlockTableRecord
  2
*PAPER_SPACE
340
21
  0
ENDTAB
  0
ENDSEC
  0
SECTION
  2
BLOCKS
  0
BLOCK
  5
D
100
AcDbEntity
  8
0
100
AcDbBlockBegin
  2
*MODEL_SPACE
 70
     0
 10
0.0
 20
0.0
 30
0.0
  3
*MODEL_SPACE
  1

  0
ENDBLK
  5
E
100
AcDbEntity
  8
0
100
AcDbBlockEnd
  0
BLOCK
  5
F
100
AcDbEntity
 67
     1
  8
0
100
AcDbBlockBegin
  2
*PAPER_SPACE
 70
     0
 10
0.0
 20
0.0
 30
0.0
  3
*PAPER_SPACE
  1

  0
ENDBLK
  5
10
100
AcDbEntity
 67
     1
  8
0
100
AcDbBlockEnd
  0
ENDSEC
  0
SECTION
  2
ENTITIES
  0
SPLINE
  5
25
100
AcDbEntity
  8
Ebene 1
100
AcDbSpline
210
0.0
220
0.0
230
1.0
 70
     1
 71
     3
 72
    84
 73
    80
 74
     0
 42
0.0000000001
 43
0.0000000001
 40
0.0
 40
0.0
 40
0.0
 40
0.0
 40
0.05
 40
0.05
 40
0.05
 40
0.05
 40
0.1
 40
0.1
 40
0.1
 40
0.1
 40
0.15
 40
0.15
 40
0.15
 40
0.15
 40
0.2
 40
0.2
 40
0.2
 40
0.2
 40
0.25
 40
0.25
 40
0.25
 40
0.25
 40
0.3
 40
0.3
 40
0.3
 40
0.3
 40
0.35
 40
0.35
 40
0.35
 40
0.35
 40
0.4
 40
0.4
 40
0.4
 40
0.4
 40
0.45
 40
0.45
 40
0.45
 40
0.45
 40
0.4999999999999999
 40
0.4999999999999999
 40
0.4999999999999999
 40
0.4999999999999999
 40
0.5499999999999999
 40
0.5499999999999999
 40
0.5499999999999999
 40
0.5499999999999999
 40
0.6
 40
0.6
 40
0.6
 40
0.6
 40
0.65
 40
0.65
 40
0.65
 40
0.65
 40
0.7000000000000001
 40
0.7000000000000001
 40
0.7000000000000001
 40
0.7000000000000001
 40
0.7500000000000001
 40
0.7500000000000001
 40
0.7500000000000001
 40
0.7500000000000001
 40
0.8000000000000002
 40
0.8000000000000002
 40
0.8000000000000002
 40
0.8000000000000002
 40
0.8500000000000002
 40
0.8500000000000002
 40
0.8500000000000002
 40
0.8500000000000002
 40
0.9000000000000002
 40
0.9000000000000002
 40
0.9000000000000002
 40
0.9000000000000002
 40
0.9500000000000003
 40
0.9500000000000003
 40
0.9500000000000003
 40
0.9500000000000003
 40
1.0
 40
1.0
 40
1.0
 40
1.0
 10
3.9777800000000005
 20
5.01593
 30
0.0
 10
3.5409000000000002
 20
4.16249
 30
0.0
 10
2.5350600000000001
 20
3.4589100000000004
 30
0.0
 10
2.2455000000000003
 20
2.46577
 30
0.0
 10
2.2455000000000003
 20
2.46577
 30
0.0
 10
2.16676
 20
2.3438500000000002
 30
0.0
 10
2.0626200000000003
 20
2.2397100000000001
 30
0.0
 10
1.9686400000000002
 20
2.1482700000000001
 30
0.0
 10
1.9686400000000002
 20
2.1482700000000001
 30
0.0
 10
1.9889600000000001
 20
2.0314300000000003
 30
0.0
 10
2.2353400000000003
 20
1.9831700000000001
 30
0.0
 10
2.2226400000000002
 20
1.8688700000000003
 30
0.0
 10
2.2226400000000002
 20
1.8688700000000003
 30
0.0
 10
1.6232000000000002
 20
1.9882500000000001
 30
0.0
 10
1.48858
 20
1.4091300000000002
 30
0.0
 10
1.9737200000000001
 20
1.1856100000000001
 30
0.0
 10
1.9737200000000001
 20
1.1856100000000001
 30
0.0
 10
1.7705200000000001
 20
1.02559
 30
0.0
 10
1.4276200000000001
 20
1.0992500000000001
 30
0.0
 10
1.2193400000000001
 20
1.10433
 30
0.0
 10
1.2193400000000001
 20
1.10433
 30
0.0
 10
0.9501000000000001
 20
0.8350900000000001
 30
0.0
 10
1.3412600000000001
 20
0.63697
 30
0.0
 10
1.2625200000000001
 20
0.36011
 30
0.0
 10
1.2625200000000001
 20
0.36011
 30
0.0
 10
0.38114
 20
0.13659
 30
0.0
 10
0.7723000000000001
 20
-1.4229600000000002
 30
0.0
 10
1.5774800000000002
 20
-1.2629400000000002
 30
0.0
 10
1.5774800000000002
 20
-1.2629400000000002
 30
0.0
 10
1.6867000000000001
 20
-1.37978
 30
0.0
 10
1.8340200000000002
 20
-1.4407400000000001
 30
0.0
 10
1.9762600000000001
 20
-1.4966200000000001
 30
0.0
 10
1.9762600000000001
 20
-1.4966200000000001
 30
0.0
 10
3.3529400000000003
 20
-1.4407400000000001
 30
0.0
 10
4.9074200000000001
 20
-1.25024
 30
0.0
 10
6.1977400000000005
 20
-0.7041400000000001
 30
0.0
 10
6.1977400000000005
 20
-0.7041400000000001
 30
0.0
 10
5.8091200000000001
 20
-1.1943600000000001
 30
0.0
 10
5.3468400000000003
 20
-1.7277600000000002
 30
0.0
 10
4.76518
 20
-2.0020800000000003
 30
0.0
 10
4.76518
 20
-2.0020800000000003
 30
0.0
 10
3.4774000000000003
 20
-2.1265400000000003
 30
0.0
 10
2.1896200000000001
 20
-2.4389600000000002
 30
0.0
 10
0.9577200000000001
 20
-2.81488
 30
0.0
 10
0.9577200000000001
 20
-2.81488
 30
0.0
 10
0.7113400000000001
 20
-2.8555200000000003
 30
0.0
 10
0.41162
 20
-2.9164800000000004
 30
0.0
 10
0.14746
 20
-2.9241000000000001
 30
0.0
 10
0.14746
 20
-2.9241000000000001
 30
0.0
 10
-0.15987
 20
-2.8428200000000001
 30
0.0
 10
-0.21321
 20
-2.4542000000000002
 30
0.0
 10
-0.48499
 20
-2.3881600000000001
 30
0.0
 10
-0.48499
 20
-2.3881600000000001
 30
0.0
 10
-0.6653300000000001
 20
-2.7310600000000003
 30
0.0
 10
-1.0310900000000001
 20
-2.7717000000000001
 30
0.0
 10
-1.3612900000000001
 20
-2.9164800000000004
 30
0.0
 10
-1.3612900000000001
 20
-2.9164800000000004
 30
0.0
 10
-1.6533900000000001
 20
-2.77678
 30
0.0
 10
-1.3028700000000002
 20
-2.35514
 30
0.0
 10
-1.5670300000000001
 20
-2.2230600000000003
 30
0.0
 10
-1.5670300000000001
 20
-2.2230600000000003
 30
0.0
 10
-2.9767300000000003
 20
-3.2974800000000002
 30
0.0
 10
-4.34579
 20
-4.8037000000000001
 30
0.0
 10
-6.1923700000000004
 20
-5.0221400000000003
 30
0.0
 10
-6.1923700000000004
 20
-5.0221400000000003
 30
0.0
 10
-4.1959300000000006
 20
-3.8893000000000004
 30
0.0
 10
-2.7938500000000004
 20
-1.7455400000000001
 30
0.0
 10
-1.9658100000000001
 20
0.39821
 30
0.0
 10
-1.9658100000000001
 20
0.39821
 30
0.0
 10
-1.6229100000000001
 20
0.9316100000000001
 30
0.0
 10
-1.08697
 20
1.22879
 30
0.0
 10
-0.5789700000000001
 20
1.5513700000000001
 30
0.0
 10
-0.5789700000000001
 20
1.5513700000000001
 30
0.0
 10
-0.48499
 20
1.8333100000000002
 30
0.0
 10
-0.39355
 20
2.1152500000000001
 30
0.0
 10
-0.19289
 20
2.3489300000000002
 30
0.0
 10
-0.19289
 20
2.3489300000000002
 30
0.0
 10
1.0923400000000001
 20
3.3928700000000003
 30
0.0
 10
2.3090000000000002
 20
4.6603300000000001
 30
0.0
 10
3.9777800000000005
 20
5.01593
 30
0.0
  0
SPLINE
  5
26
100
AcDbEntity
  8
Ebene 1
 62
     7
100
AcDbSpline
210
0.0
220
0.0
230
1.0
 70
     1
 71
     3
 72
   216
 73
   212
 74
     0
 42
0.0000000001
 43
0.0000000001
 40
0.0
 40
0.0
 40
0.0
 40
0.0
 40
0.0188679245283019
 40
0.0188679245283019
 40
0.0188679245283019
 40
0.0188679245283019
 40
0.0377358490566038
 40
0.0377358490566038
 40
0.0377358490566038
 40
0.0377358490566038
 40
0.0566037735849057
 40
0.0566037735849057
 40
0.0566037735849057
 40
0.0566037735849057
 40
0.0754716981132075
 40
0.0754716981132075
 40
0.0754716981132075
 40
0.0754716981132075
 40
0.0943396226415094
 40
0.0943396226415094
 40
0.0943396226415094
 40
0.0943396226415094
 40
0.1132075471698113
 40
0.1132075471698113
 40
0.1132075471698113
 40
0.1132075471698113
 40
0.1320754716981132
 40
0.1320754716981132
 40
0.1320754716981132
 40
0.1320754716981132
 40
0.1509433962264151
 40
0.1509433962264151
 40
0.1509433962264151
 40
0.1509433962264151
 40
0.169811320754717
 40
0.169811320754717
 40
0.169811320754717
 40
0.169811320754717
 40
0.1886792452830189
 40
0.1886792452830189
 40
0.1886792452830189
 40
0.1886792452830189
 40
0.2075471698113207
 40
0.2075471698113207
 40
0.2075471698113207
 40
0.2075471698113207
 40
0.2264150943396226
 40
0.2264150943396226
 40
0.2264150943396226
 40
0.2264150943396226
 40
0.2452830188679245
 40
0.2452830188679245
 40
0.2452830188679245
 40
0.2452830188679245
 40
0.2641509433962264
 40
0.2641509433962264
 40
0.2641509433962264
 40
0.2641509433962264
 40
0.2830188679245283
 40
0.2830188679245283
 40
0.2830188679245283
 40
0.2830188679245283
 40
0.3018867924528302
 40
0.3018867924528302
 40
0.3018867924528302
 40
0.3018867924528302
 40
0.3207547169811321
 40
0.3207547169811321
 40
0.3207547169811321
 40
0.3207547169811321
 40
0.3396226415094339
 40
0.3396226415094339
 40
0.3396226415094339
 40
0.3396226415094339
 40
0.3584905660377358
 40
0.3584905660377358
 40
0.3584905660377358
 40
0.3584905660377358
 40
0.3773584905660377
 40
0.3773584905660377
 40
0.3773584905660377
 40
0.3773584905660377
 40
0.3962264150943396
 40
0.3962264150943396
 40
0.3962264150943396
 40
0.3962264150943396
 40
0.4150943396226415
 40
0.4150943396226415
 40
0.4150943396226415
 40
0.4150943396226415
 40
0.4339622641509434
 40
0.4339622641509434
 40
0.4339622641509434
 40
0.4339622641509434
 40
0.4528301886792452
 40
0.4528301886792452
 40
0.4528301886792452
 40
0.4528301886792452
 40
0.4716981132075471
 40
0.4716981132075471
 40
0.4716981132075471
 40
0.4716981132075471
 40
0.490566037735849
 40
0.490566037735849
 40
0.490566037735849
 40
0.490566037735849
 40
0.5094339622641509
 40
0.5094339622641509
 40
0.5094339622641509
 40
0.5094339622641509
 40
0.5283018867924528
 40
0.5283018867924528
 40
0.5283018867924528
 40
0.5283018867924528
 40
0.5471698113207547
 40
0.5471698113207547
 40
0.5471698113207547
 40
0.5471698113207547
 40
0.5660377358490566
 40
0.5660377358490566
 40
0.5660377358490566
 40
0.5660377358490566
 40
0.5849056603773585
 40
0.5849056603773585
 40
0.5849056603773585
 40
0.5849056603773585
 40
0.6037735849056604
 40
0.6037735849056604
 40
0.6037735849056604
 40
0.6037735849056604
 40
0.6226415094339622
 40
0.6226415094339622
 40
0.6226415094339622
 40
0.6226415094339622
 40
0.6415094339622641
 40
0.6415094339622641
 40
0.6415094339622641
 40
0.6415094339622641
 40
0.660377358490566
 40
0.660377358490566
 40
0.660377358490566
 40
0.660377358490566
 40
0.6792452830188679
 40
0.6792452830188679
 40
0.6792452830188679
 40
0.6792452830188679
 40
0.6981132075471698
 40
0.6981132075471698
 40
0.6981132075471698
 40
0.6981132075471698
 40
0.7169811320754717
 40
0.7169811320754717
 40
0.7169811320754717
 40
0.7169811320754717
 40
0.7358490566037735
 40
0.7358490566037735
 40
0.7358490566037735
 40
0.7358490566037735
 40
0.7547169811320754
 40
0.7547169811320754
 40
0.7547169811320754
 40
0.7547169811320754
 40
0.7735849056603773
 40
0.7735849056603773
 40
0.7735849056603773
 40
0.7735849056603773
 40
0.7924528301886792
 40
0.7924528301886792
 40
0.7924528301886792
 40
0.7924528301886792
 40
0.8113207547169811
 40
0.8113207547169811
 40
0.8113207547169811
 40
0.8113207547169811
 40
0.830188679245283
 40
0.830188679245283
 40
0.830188679245283
 40
0.830188679245283
 40
0.8490566037735848
 40
0.8490566037735848
 40
0.8490566037735848
 40
0.8490566037735848
 40
0.8679245283018867
 40
0.8679245283018867
 40
0.8679245283018867
 40
0.8679245283018867
 40
0.8867924528301886
 40
0.8867924528301886
 40
0.8867924528301886
 40
0.8867924528301886
 40
0.9056603773584905
 40
0.9056603773584905
 40
0.9056603773584905
 40
0.9056603773584905
 40
0.9245283018867924
 40
0.9245283018867924
 40
0.9245283018867924
 40
0.9245283018867924
 40
0.9433962264150942
 40
0.9433962264150942
 40
0.9433962264150942
 40
0.9433962264150942
 40
0.9622641509433961
 40
0.9622641509433961
 40
0.9622641509433961
 40
0.9622641509433961
 40
0.981132075471698
 40
0.981132075471698
 40
0.981132075471698
 40
0.981132075471698
 40
1.0
 40
1.0
 40
1.0
 40
1.0
 10
1.6308200000000002
 20
1.1779900000000001
 30
0.0
 10
1.4352400000000001
 20
1.1221100000000002
 30
0.0
 10
1.27268
 20
1.2186300000000001
 30
0.0
 10
1.0847200000000001
 20
1.3126100000000001
 30
0.0
 10
1.0847200000000001
 20
1.3126100000000001
 30
0.0
 10
0.785
 20
1.1729100000000001
 30
0.0
 10
0.89168
 20
0.8122300000000001
 30
0.0
 10
0.8637400000000001
 20
0.55569
 30
0.0
 10
0.8637400000000001
 20
0.55569
 30
0.0
 10
0.7164200000000001
 20
0.37535
 30
0.0
 10
0.45734
 20
0.21279
 30
0.0
 10
0.39638
 20
0.01213
 30
0.0
 10
0.39638
 20
0.01213
 30
0.0
 10
0.33034
 20
-0.10724
 30
0.0
 10
0.2643
 20
-0.21392
 30
0.0
 10
0.1754
 20
-0.3206000000000001
 30
0.0
 10
0.1754
 20
-0.3206000000000001
 30
0.0
 10
0.14238
 20
-0.3637800000000001
 30
0.0
 10
0.0738
 20
-0.4780800000000001
 30
0.0
 10
0.02808
 20
-0.4044200000000001
 30
0.0
 10
0.02808
 20
-0.4044200000000001
 30
0.0
 10
-0.12685
 20
-0.2317
 30
0.0
 10
-0.08875
 20
0.02483
 30
0.0
 10
-0.07097
 20
0.21787
 30
0.0
 10
-0.07097
 20
0.21787
 30
0.0
 10
-0.27417
 20
0.11881
 30
0.0
 10
-0.23861
 20
-0.01326
 30
0.0
 10
-0.17765
 20
-0.14788
 30
0.0
 10
-0.17765
 20
-0.14788
 30
0.0
 10
-0.06081
 20
-0.40696
 30
0.0
 10
-0.45197
 20
-0.36632
 30
0.0
 10
-0.6018300000000001
 20
-0.8921000000000001
 30
0.0
 10
-0.6018300000000001
 20
-0.8921000000000001
 30
0.0
 10
-0.63231
 20
-0.82352
 30
0.0
 10
-0.5815100000000001
 20
-0.69652
 30
0.0
 10
-0.63231
 20
-0.65842
 30
0.0
 10
-0.63231
 20
-0.65842
 30
0.0
 10
-0.67803
 20
-0.8336800000000001
 30
0.0
 10
-0.7059700000000001
 20
-1.0140200000000001
 30
0.0
 10
-0.7897900000000001
 20
-1.1816600000000002
 30
0.0
 10
-0.7897900000000001
 20
-1.1816600000000002
 30
0.0
 10
-1.25207
 20
-1.0470400000000002
 30
0.0
 10
-1.1987300000000001
 20
-1.6058400000000002
 30
0.0
 10
-1.2622300000000002
 20
-1.8877800000000002
 30
0.0
 10
-1.2622300000000002
 20
-1.8877800000000002
 30
0.0
 10
-1.63053
 20
-2.0757400000000001
 30
0.0
 10
-2.0394700000000001
 20
-2.2002000000000002
 30
0.0
 10
-2.3061700000000003
 20
-2.5405600000000002
 30
0.0
 10
-2.3061700000000003
 20
-2.5405600000000002
 30
0.0
 10
-2.3061700000000003
 20
-2.5405600000000002
 30
0.0
 10
-2.05979
 20
-2.3678400000000002
 30
0.0
 10
-2.05979
 20
-2.3678400000000002
 30
0.0
 10
-2.05979
 20
-2.3678400000000002
 30
0.0
 10
-1.9073900000000001
 20
-2.23576
 30
0.0
 10
-1.6457700000000002
 20
-2.1544800000000004
 30
0.0
 10
-1.9099300000000001
 20
-2.3703800000000004
 30
0.0
 10
-1.9099300000000001
 20
-2.3703800000000004
 30
0.0
 10
-2.5474700000000001
 20
-2.8733000000000004
 30
0.0
 10
-3.0884900000000002
 20
-3.5464000000000002
 30
0.0
 10
-3.8276300000000005
 20
-3.9121600000000005
 30
0.0
 10
-3.8276300000000005
 20
-3.9121600000000005
 30
0.0
 10
-3.8276300000000005
 20
-3.9121600000000005
 30
0.0
 10
-3.2027900000000002
 20
-3.2390600000000003
 30
0.0
 10
-3.2027900000000002
 20
-3.2390600000000003
 30
0.0
 10
-3.2027900000000002
 20
-3.2390600000000003
 30
0.0
 10
-3.1265900000000002
 20
-3.1476200000000003
 30
0.0
 10
-3.0199100000000003
 20
-3.0587200000000001
 30
0.0
 10
-2.9716500000000003
 20
-2.9545800000000004
 30
0.0
 10
-2.9716500000000003
 20
-2.9545800000000004
 30
0.0
 10
-3.1951700000000001
 20
-3.11206
 30
0.0
 10
-3.3958300000000001
 20
-3.3889200000000002
 30
0.0
 10
-3.6269700000000005
 20
-3.5768800000000005
 30
0.0
 10
-3.6269700000000005
 20
-3.5768800000000005
 30
0.0
 10
-4.1146500000000001
 20
-4.0163000000000002
 30
0.0
 10
-4.6480500000000005
 20
-4.4582600000000001
 30
0.0
 10
-5.2779700000000007
 20
-4.6157400000000006
 30
0.0
 10
-5.2779700000000007
 20
-4.6157400000000006
 30
0.0
 10
-4.86395
 20
-4.19156
 30
0.0
 10
-4.4702500000000001
 20
-3.7165800000000004
 30
0.0
 10
-3.9266900000000002
 20
-3.4524200000000005
 30
0.0
 10
-3.9266900000000002
 20
-3.4524200000000005
 30
0.0
 10
-4.0257500000000004
 20
-3.4295600000000004
 30
0.0
 10
-4.2086300000000003
 20
-3.5946600000000002
 30
0.0
 10
-4.3407100000000005
 20
-3.6378400000000002
 30
0.0
 10
-4.3407100000000005
 20
-3.6378400000000002
 30
0.0
 10
-4.3407100000000005
 20
-3.6378400000000002
 30
0.0
 10
-3.6599900000000005
 20
-2.9545800000000004
 30
0.0
 10
-3.6599900000000005
 20
-2.9545800000000004
 30
0.0
 10
-3.6599900000000005
 20
-2.9545800000000004
 30
0.0
 10
-3.6625300000000003
 20
-2.9977600000000004
 30
0.0
 10
-3.6879300000000002
 20
-3.0434800000000002
 30
0.0
 10
-3.7133300000000005
 20
-3.0815800000000002
 30
0.0
 10
-3.7133300000000005
 20
-3.0815800000000002
 30
0.0
 10
-3.7971500000000002
 20
-3.19842
 30
0.0
 10
-3.7361900000000001
 20
-3.2492200000000002
 30
0.0
 10
-3.6371300000000004
 20
-3.1450800000000001
 30
0.0
 10
-3.6371300000000004
 20
-3.1450800000000001
 30
0.0
 10
-3.3272500000000003
 20
-2.7615400000000001
 30
0.0
 10
-2.9843500000000001
 20
-2.3907000000000003
 30
0.0
 10
-2.7201900000000001
 20
-1.9843000000000002
 30
0.0
 10
-2.7201900000000001
 20
-1.9843000000000002
 30
0.0
 10
-2.7684500000000001
 20
-1.9182600000000001
 30
0.0
 10
-2.9233900000000004
 20
-2.1671800000000001
 30
0.0
 10
-2.9614900000000004
 20
-2.22052
 30
0.0
 10
-2.9614900000000004
 20
-2.22052
 30
0.0
 10
-3.11389
 20
-2.4262600000000001
 30
0.0
 10
-3.2586700000000004
 20
-2.6370800000000001
 30
0.0
 10
-3.4491700000000001
 20
-2.7996400000000001
 30
0.0
 10
-3.4491700000000001
 20
-2.7996400000000001
 30
0.0
 10
-3.4491700000000001
 20
-2.7996400000000001
 30
0.0
 10
-2.0369300000000004
 20
-0.07676
 30
0.0
 10
-2.0369300000000004
 20
-0.07676
 30
0.0
 10
-2.0369300000000004
 20
-0.07676
 30
0.0
 10
-1.9886700000000002
 20
-0.04882
 30
0.0
 10
-1.9429500000000002
 20
-0.00818
 30
0.0
 10
-1.8819900000000001
 20
-0.0285
 30
0.0
 10
-1.8819900000000001
 20
-0.0285
 30
0.0
 10
-1.7829300000000001
 20
-0.12502
 30
0.0
 10
-1.8515100000000002
 20
-0.27234
 30
0.0
 10
-1.8616700000000002
 20
-0.38918
 30
0.0
 10
-1.8616700000000002
 20
-0.38918
 30
0.0
 10
-1.9073900000000001
 20
-0.54666
 30
0.0
 10
-1.8007100000000003
 20
-0.41204
 30
0.0
 10
-1.7727700000000002
 20
-0.33584
 30
0.0
 10
-1.7727700000000002
 20
-0.33584
 30
0.0
 10
-1.6914900000000002
 20
-0.04374
 30
0.0
 10
-1.9683500000000003
 20
0.27121
 30
0.0
 10
-1.6457700000000002
 20
0.5048900000000001
 30
0.0
 10
-1.6457700000000002
 20
0.5048900000000001
 30
0.0
 10
-1.9099300000000001
 20
0.4109100000000001
 30
0.0
 10
-1.50607
 20
0.95447
 30
0.0
 10
-1.3231900000000001
 20
0.9925700000000001
 30
0.0
 10
-1.3231900000000001
 20
0.9925700000000001
 30
0.0
 10
-1.3460500000000002
 20
0.9011300000000001
 30
0.0
 10
-1.46035
 20
0.7411100000000001
 30
0.0
 10
-1.3993900000000001
 20
0.68269
 30
0.0
 10
-1.3993900000000001
 20
0.68269
 30
0.0
 10
-1.2825500000000001
 20
1.2262500000000001
 30
0.0
 10
-0.68057
 20
1.3380100000000001
 30
0.0
 10
-0.25131
 20
1.53105
 30
0.0
 10
-0.25131
 20
1.53105
 30
0.0
 10
-0.48753
 20
1.5183500000000001
 30
0.0
 10
-0.4164100000000001
 20
1.9120500000000002
 30
0.0
 10
-0.26655
 20
2.13557
 30
0.0
 10
-0.26655
 20
2.13557
 30
0.0
 10
0.21096
 20
2.7121500000000003
 30
0.0
 10
0.95264
 20
3.0067900000000001
 30
0.0
 10
1.5927200000000001
 20
3.3166700000000002
 30
0.0
 10
1.5927200000000001
 20
3.3166700000000002
 30
0.0
 10
1.4809600000000001
 20
3.3852500000000001
 30
0.0
 10
1.3082400000000001
 20
3.2404700000000002
 30
0.0
 10
1.1761600000000001
 20
3.2201500000000003
 30
0.0
 10
1.1761600000000001
 20
3.2201500000000003
 30
0.0
 10
1.7832200000000002
 20
4.0558100000000001
 30
0.0
 10
2.7662000000000004
 20
4.5892100000000005
 30
0.0
 10
3.7339400000000005
 20
4.8254300000000008
 30
0.0
 10
3.7339400000000005
 20
4.8254300000000008
 30
0.0
 10
3.5282000000000004
 20
4.5384100000000007
 30
0.0
 10
3.1548200000000004
 20
4.4520500000000007
 30
0.0
 10
2.9414600000000002
 20
4.1675700000000004
 30
0.0
 10
2.9414600000000002
 20
4.1675700000000004
 30
0.0
 10
2.9414600000000002
 20
4.1675700000000004
 30
0.0
 10
2.8017600000000003
 20
4.0100899999999999
 30
0.0
 10
2.8017600000000003
 20
4.0100899999999999
 30
0.0
 10
2.8017600000000003
 20
4.0100899999999999
 30
0.0
 10
2.4004400000000001
 20
3.5173300000000003
 30
0.0
 10
3.5713800000000004
 20
4.7339900000000004
 30
0.0
 10
3.2488000000000001
 20
4.1193100000000005
 30
0.0
 10
3.2488000000000001
 20
4.1193100000000005
 30
0.0
 10
3.2183200000000003
 20
4.03803
 30
0.0
 10
3.1878400000000005
 20
3.9669100000000004
 30
0.0
 10
3.1040200000000002
 20
3.9288100000000004
 30
0.0
 10
3.1040200000000002
 20
3.9288100000000004
 30
0.0
 10
3.0075000000000003
 20
3.8551500000000005
 30
0.0
 10
2.9211400000000003
 20
3.7713300000000003
 30
0.0
 10
2.8373200000000001
 20
3.6900500000000003
 30
0.0
 10
2.8373200000000001
 20
3.6900500000000003
 30
0.0
 10
2.7433400000000003
 20
3.5884500000000004
 30
0.0
 10
2.6239600000000003
 20
3.5097100000000001
 30
0.0
 10
2.50204
 20
3.4436700000000005
 30
0.0
 10
2.50204
 20
3.4436700000000005
 30
0.0
 10
2.50204
 20
3.4436700000000005
 30
0.0
 10
2.3725000000000001
 20
3.3623900000000004
 30
0.0
 10
2.3725000000000001
 20
3.3623900000000004
 30
0.0
 10
2.3725000000000001
 20
3.3623900000000004
 30
0.0
 10
2.1972400000000003
 20
3.2988900000000001
 30
0.0
 10
2.0550000000000002
 20
3.0855300000000003
 30
0.0
 10
2.3140800000000001
 20
3.2633300000000003
 30
0.0
 10
2.3140800000000001
 20
3.2633300000000003
 30
0.0
 10
2.4055200000000001
 20
3.3141300000000005
 30
0.0
 10
2.5045800000000003
 20
3.3750900000000001
 30
0.0
 10
2.6087200000000004
 20
3.4055700000000004
 30
0.0
 10
2.6087200000000004
 20
3.4055700000000004
 30
0.0
 10
2.6061800000000002
 20
3.1744300000000001
 30
0.0
 10
2.3115400000000004
 20
2.7680300000000004
 30
0.0
 10
2.17184
 20
2.8823300000000001
 30
0.0
 10
2.17184
 20
2.8823300000000001
 30
0.0
 10
2.3496400000000004
 20
2.4454500000000001
 30
0.0
 10
1.8568800000000001
 20
2.34639
 30
0.0
 10
1.8086200000000001
 20
2.0542899999999999
 30
0.0
 10
1.8086200000000001
 20
2.0542899999999999
 30
0.0
 10
1.7248000000000001
 20
2.0796900000000003
 30
0.0
 10
1.7273400000000001
 20
2.1939900000000003
 30
0.0
 10
1.6308200000000002
 20
2.17367
 30
0.0
 10
1.6308200000000002
 20
2.17367
 30
0.0
 10
1.9153000000000002
 20
1.7571100000000002
 30
0.0
 10
1.19394
 20
1.2541900000000001
 30
0.0
 10
0.9094600000000001
 20
1.6910700000000001
 30
0.0
 10
0.9094600000000001
 20
1.6910700000000001
 30
0.0
 10
1.0136000000000001
 20
1.3913500000000001
 30
0.0
 10
1.3514200000000001
 20
1.2465700000000002
 30
0.0
 10
1.6308200000000002
 20
1.1779900000000001
 30
0.0
  0
SPLINE
  5
27
100
AcDbEntity
  8
Ebene 1
100
AcDbSpline
210
0.0
220
0.0
230
1.0
 70
     1
 71
     3
 72
    32
 73
    28
 74
     0
 42
0.0000000001
 43
0.0000000001
 40
0.0
 40
0.0
 40
0.0
 40
0.0
 40
0.1428571428571429
 40
0.1428571428571429
 40
0.1428571428571429
 40
0.1428571428571429
 40
0.2857142857142857
 40
0.2857142857142857
 40
0.2857142857142857
 40
0.2857142857142857
 40
0.4285714285714286
 40
0.4285714285714286
 40
0.4285714285714286
 40
0.4285714285714286
 40
0.5714285714285714
 40
0.5714285714285714
 40
0.5714285714285714
 40
0.5714285714285714
 40
0.7142857142857142
 40
0.7142857142857142
 40
0.7142857142857142
 40
0.7142857142857142
 40
0.857142857142857
 40
0.857142857142857
 40
0.857142857142857
 40
0.857142857142857
 40
1.0
 40
1.0
 40
1.0
 40
1.0
 10
1.2803000000000002
 20
2.8239100000000001
 30
0.0
 10
1.40476
 20
2.8188300000000002
 30
0.0
 10
1.23204
 20
2.7908900000000001
 30
0.0
 10
1.2168000000000001
 20
2.7477100000000001
 30
0.0
 10
1.2168000000000001
 20
2.7477100000000001
 30
0.0
 10
1.31586
 20
2.63849
 30
0.0
 10
1.18886
 20
2.4835500000000001
 30
0.0
 10
1.1406000000000001
 20
2.3819500000000002
 30
0.0
 10
1.1406000000000001
 20
2.3819500000000002
 30
0.0
 10
1.1406000000000001
 20
2.3819500000000002
 30
0.0
 10
1.2599800000000001
 20
2.4479900000000003
 30
0.0
 10
1.2599800000000001
 20
2.4479900000000003
 30
0.0
 10
1.2599800000000001
 20
2.4479900000000003
 30
0.0
 10
0.99582
 20
2.0669900000000001
 30
0.0
 10
0.55894
 20
1.69869
 30
0.0
 10
0.03062
 20
1.6250300000000002
 30
0.0
 10
0.03062
 20
1.6250300000000002
 30
0.0
 10
0.03062
 20
1.6250300000000002
 30
0.0
 10
-0.07097
 20
1.6656700000000002
 30
0.0
 10
-0.07097
 20
1.6656700000000002
 30
0.0
 10
-0.07097
 20
1.6656700000000002
 30
0.0
 10
-0.19289
 20
1.9450700000000001
 30
0.0
 10
0.10682
 20
2.2371700000000003
 30
0.0
 10
0.28716
 20
2.4454500000000001
 30
0.0
 10
0.28716
 20
2.4454500000000001
 30
0.0
 10
0.6249800000000001
 20
2.5546700000000002
 30
0.0
 10
0.9704200000000001
 20
2.6715100000000001
 30
0.0
 10
1.2803000000000002
 20
2.8239100000000001
 30
0.0
  0
SPLINE
  5
28
100
AcDbEntity
  8
Ebene 1
 62
     7
100
AcDbSpline
210
0.0
220
0.0
230
1.0
 70
     1
 71
     3
 72
    16
 73
    12
 74
     0
 42
0.0000000001
 43
0.0000000001
 40
0.0
 40
0.0
 40
0.0
 40
0.0
 40
0.3333333333333333
 40
0.3333333333333333
 40
0.3333333333333333
 40
0.3333333333333333
 40
0.6666666666666666
 40
0.6666666666666666
 40
0.6666666666666666
 40
0.6666666666666666
 40
1.0
 40
1.0
 40
1.0
 40
1.0
 10
1.9178400000000002
 20
2.1177900000000003
 30
0.0
 10
1.9178400000000002
 20
2.1177900000000003
 30
0.0
 10
2.0804
 20
1.9603100000000002
 30
0.0
 10
2.0804
 20
1.9603100000000002
 30
0.0
 10
2.0804
 20
1.9603100000000002
 30
0.0
 10
1.9864200000000001
 20
1.9222100000000002
 30
0.0
 10
1.9000600000000001
 20
1.9755500000000001
 30
0.0
 10
1.8365600000000002
 20
2.0238100000000001
 30
0.0
 10
1.8365600000000002
 20
2.0238100000000001
 30
0.0
 10
1.8492600000000001
 20
2.0669900000000001
 30
0.0
 10
1.8899000000000001
 20
2.0949300000000002
 30
0.0
 10
1.9178400000000002
 20
2.1177900000000003
 30
0.0
  0
SPLINE
  5
29
100
AcDbEntity
  8
Ebene 1
100
AcDbSpline
210
0.0
220
0.0
230
1.0
 70
     1
 71
     3
 72
    68
 73
    64
 74
     0
 42
0.0000000001
 43
0.0000000001
 40
0.0
 40
0.0
 40
0.0
 40
0.0
 40
0.0625
 40
0.0625
 40
0.0625
 40
0.0625
 40
0.125
 40
0.125
 40
0.125
 40
0.125
 40
0.1875
 40
0.1875
 40
0.1875
 40
0.1875
 40
0.25
 40
0.25
 40
0.25
 40
0.25
 40
0.3125
 40
0.3125
 40
0.3125
 40
0.3125
 40
0.375
 40
0.375
 40
0.375
 40
0.375
 40
0.4375
 40
0.4375
 40
0.4375
 40
0.4375
 40
0.5
 40
0.5
 40
0.5
 40
0.5
 40
0.5625
 40
0.5625
 40
0.5625
 40
0.5625
 40
0.625
 40
0.625
 40
0.625
 40
0.625
 40
0.6875
 40
0.6875
 40
0.6875
 40
0.6875
 40
0.75
 40
0.75
 40
0.75
 40
0.75
 40
0.8125
 40
0.8125
 40
0.8125
 40
0.8125
 40
0.875
 40
0.875
 40
0.875
 40
0.875
 40
0.9375
 40
0.9375
 40
0.9375
 40
0.9375
 40
1.0
 40
1.0
 40
1.0
 40
1.0
 10
-1.2800100000000001
 20
-0.16312
 30
0.0
 10
-1.2673100000000002
 20
0.25089
 30
0.0
 10
-1.3231900000000001
 20
0.7969900000000001
 30
0.0
 10
-0.6907300000000001
 20
0.9036700000000001
 30
0.0
 10
-0.6907300000000001
 20
0.9036700000000001
 30
0.0
 10
-0.42149
 20
1.10687
 30
0.0
 10
-0.04811
 20
1.06623
 30
0.0
 10
0.20334
 20
1.2872100000000002
 30
0.0
 10
0.20334
 20
1.2872100000000002
 30
0.0
 10
0.28716
 20
1.3303900000000002
 30
0.0
 10
0.36336
 20
1.49041
 30
0.0
 10
0.20588
 20
1.4548500000000002
 30
0.0
 10
0.20588
 20
1.4548500000000002
 30
0.0
 10
0.06618
 20
1.4980300000000002
 30
0.0
 10
0.3989200000000001
 20
1.5234300000000001
 30
0.0
 10
0.4548
 20
1.49041
 30
0.0
 10
0.4548
 20
1.49041
 30
0.0
 10
0.34812
 20
1.15005
 30
0.0
 10
-0.07605
 20
1.0865500000000001
 30
0.0
 10
-0.24877
 20
0.7944500000000001
 30
0.0
 10
-0.24877
 20
0.7944500000000001
 30
0.0
 10
-0.35291
 20
0.44647
 30
0.0
 10
-0.4697500000000001
 20
0.10103
 30
0.0
 10
-0.5434100000000001
 20
-0.25202
 30
0.0
 10
-0.5434100000000001
 20
-0.25202
 30
0.0
 10
-0.5434100000000001
 20
-0.25202
 30
0.0
 10
-0.5637300000000001
 20
-0.32314
 30
0.0
 10
-0.5637300000000001
 20
-0.32314
 30
0.0
 10
-0.5637300000000001
 20
-0.32314
 30
0.0
 10
-0.6704100000000001
 20
-0.5212600000000001
 30
0.0
 10
-0.4900700000000001
 20
-0.07422
 30
0.0
 10
-0.5992900000000001
 20
-0.1936
 30
0.0
 10
-0.5992900000000001
 20
-0.1936
 30
0.0
 10
-0.74153
 20
-0.3206000000000001
 30
0.0
 10
-0.8710700000000001
 20
-0.4806200000000001
 30
0.0
 10
-1.03617
 20
-0.56952
 30
0.0
 10
-1.03617
 20
-0.56952
 30
0.0
 10
-1.0107700000000002
 20
-0.45522
 30
0.0
 10
-0.8609100000000001
 20
-0.39172
 30
0.0
 10
-0.7999500000000001
 20
-0.27996
 30
0.0
 10
-0.7999500000000001
 20
-0.27996
 30
0.0
 10
-0.51039
 20
0.01721
 30
0.0
 10
-0.40117
 20
0.42869
 30
0.0
 10
-0.33513
 20
0.8173100000000001
 30
0.0
 10
-0.33513
 20
0.8173100000000001
 30
0.0
 10
-0.32751
 20
0.8884300000000001
 30
0.0
 10
-0.27671
 20
0.9443100000000001
 30
0.0
 10
-0.24877
 20
1.0052700000000001
 30
0.0
 10
-0.24877
 20
1.0052700000000001
 30
0.0
 10
-0.3325900000000001
 20
1.0052700000000001
 30
0.0
 10
-0.37323
 20
0.9290700000000001
 30
0.0
 10
-0.4164100000000001
 20
0.8655700000000001
 30
0.0
 10
-0.4164100000000001
 20
0.8655700000000001
 30
0.0
 10
-0.4062500000000001
 20
0.23311
 30
0.0
 10
-0.8101100000000001
 20
-0.04374
 30
0.0
 10
-1.3917700000000002
 20
-0.82352
 30
0.0
 10
-1.3917700000000002
 20
-0.82352
 30
0.0
 10
-1.1504700000000001
 20
-0.3637800000000001
 30
0.0
 10
-1.07681
 20
0.14929
 30
0.0
 10
-0.97267
 20
0.6445900000000001
 30
0.0
 10
-0.97267
 20
0.6445900000000001
 30
0.0
 10
-1.12253
 20
0.4007500000000001
 30
0.0
 10
-1.1530100000000001
 20
0.09087
 30
0.0
 10
-1.2800100000000001
 20
-0.16312
 30
0.0
  0
SPLINE
  5
2A
100
AcDbEntity
  8
Ebene 1
 62
     7
100
AcDbSpline
210
0.0
220
0.0
230
1.0
 70
     1
 71
     3
 72
    16
 73
    12
 74
     0
 42
0.0000000001
 43
0.0000000001
 40
0.0
 40
0.0
 40
0.0
 40
0.0
 40
0.3333333333333333
 40
0.3333333333333333
 40
0.3333333333333333
 40
0.3333333333333333
 40
0.6666666666666666
 40
0.6666666666666666
 40
0.6666666666666666
 40
0.6666666666666666
 40
1.0
 40
1.0
 40
1.0
 40
1.0
 10
1.5216000000000001
 20
1.5462900000000002
 30
0.0
 10
1.5978000000000001
 20
1.4243700000000001
 30
0.0
 10
1.7273400000000001
 20
1.3253100000000002
 30
0.0
 10
1.8340200000000002
 20
1.22879
 30
0.0
 10
1.8340200000000002
 20
1.22879
 30
0.0
 10
1.6790800000000001
 20
1.2186300000000001
 30
0.0
 10
1.5089000000000001
 20
1.2440300000000002
 30
0.0
 10
1.3742800000000002
 20
1.3354700000000002
 30
0.0
 10
1.3742800000000002
 20
1.3354700000000002
 30
0.0
 10
1.3184
 20
1.44469
 30
0.0
 10
1.4504800000000002
 20
1.5081900000000001
 30
0.0
 10
1.5216000000000001
 20
1.5462900000000002
 30
0.0
  0
SPLINE
  5
2B
100
AcDbEntity
  8
Ebene 1
100
AcDbSpline
210
0.0
220
0.0
230
1.0
 70
     1
 71
     3
 72
    36
 73
    32
 74
     0
 42
0.0000000001
 43
0.0000000001
 40
0.0
 40
0.0
 40
0.0
 40
0.0
 40
0.125
 40
0.125
 40
0.125
 40
0.125
 40
0.25
 40
0.25
 40
0.25
 40
0.25
 40
0.375
 40
0.375
 40
0.375
 40
0.375
 40
0.5
 40
0.5
 40
0.5
 40
0.5
 40
0.625
 40
0.625
 40
0.625
 40
0.625
 40
0.75
 40
0.75
 40
0.75
 40
0.75
 40
0.875
 40
0.875
 40
0.875
 40
0.875
 40
1.0
 40
1.0
 40
1.0
 40
1.0
 10
-1.3968500000000001
 20
-0.00564
 30
0.0
 10
-1.3689100000000001
 20
0.00705
 30
0.0
 10
-1.3536700000000002
 20
-0.0158
 30
0.0
 10
-1.3587500000000001
 20
-0.03866
 30
0.0
 10
-1.3587500000000001
 20
-0.03866
 30
0.0
 10
-1.6000500000000002
 20
-0.35616
 30
0.0
 10
-1.5822700000000001
 20
-0.7320800000000001
 30
0.0
 10
-1.5340100000000001
 20
-1.1080000000000001
 30
0.0
 10
-1.5340100000000001
 20
-1.1080000000000001
 30
0.0
 10
-1.4781300000000002
 20
-1.1715
 30
0.0
 10
-1.4374900000000002
 20
-1.2477
 30
0.0
 10
-1.3638300000000001
 20
-1.29342
 30
0.0
 10
-1.3638300000000001
 20
-1.29342
 30
0.0
 10
-1.29779
 20
-1.3112000000000001
 30
0.0
 10
-1.2596900000000002
 20
-1.2223000000000002
 30
0.0
 10
-1.20889
 20
-1.2477
 30
0.0
 10
-1.20889
 20
-1.2477
 30
0.0
 10
-1.2850900000000001
 20
-1.3112000000000001
 30
0.0
 10
-1.3206500000000001
 20
-1.4255000000000002
 30
0.0
 10
-1.29525
 20
-1.5271000000000001
 30
0.0
 10
-1.29525
 20
-1.5271000000000001
 30
0.0
 10
-1.4400300000000001
 20
-1.4737600000000002
 30
0.0
 10
-1.4806700000000002
 20
-1.2146800000000002
 30
0.0
 10
-1.6406900000000002
 20
-1.1918200000000001
 30
0.0
 10
-1.6406900000000002
 20
-1.1918200000000001
 30
0.0
 10
-1.6406900000000002
 20
-0.9556000000000001
 30
0.0
 10
-1.7067300000000001
 20
-0.72192
 30
0.0
 10
-1.7600700000000002
 20
-0.50602
 30
0.0
 10
-1.7600700000000002
 20
-0.50602
 30
0.0
 10
-1.67117
 20
-0.31552
 30
0.0
 10
-1.4705100000000002
 20
-0.21392
 30
0.0
 10
-1.3968500000000001
 20
-0.00564
 30
0.0
  0
SPLINE
  5
2C
100
AcDbEntity
  8
Ebene 1
 62
     7
100
AcDbSpline
210
0.0
220
0.0
230
1.0
 70
     1
 71
     3
 72
   144
 73
   140
 74
     0
 42
0.0000000001
 43
0.0000000001
 40
0.0
 40
0.0
 40
0.0
 40
0.0
 40
0.0285714285714286
 40
0.0285714285714286
 40
0.0285714285714286
 40
0.0285714285714286
 40
0.0571428571428571
 40
0.0571428571428571
 40
0.0571428571428571
 40
0.0571428571428571
 40
0.0857142857142857
 40
0.0857142857142857
 40
0.0857142857142857
 40
0.0857142857142857
 40
0.1142857142857143
 40
0.1142857142857143
 40
0.1142857142857143
 40
0.1142857142857143
 40
0.1428571428571429
 40
0.1428571428571429
 40
0.1428571428571429
 40
0.1428571428571429
 40
0.1714285714285714
 40
0.1714285714285714
 40
0.1714285714285714
 40
0.1714285714285714
 40
0.2
 40
0.2
 40
0.2
 40
0.2
 40
0.2285714285714286
 40
0.2285714285714286
 40
0.2285714285714286
 40
0.2285714285714286
 40
0.2571428571428572
 40
0.2571428571428572
 40
0.2571428571428572
 40
0.2571428571428572
 40
0.2857142857142858
 40
0.2857142857142858
 40
0.2857142857142858
 40
0.2857142857142858
 40
0.3142857142857143
 40
0.3142857142857143
 40
0.3142857142857143
 40
0.3142857142857143
 40
0.3428571428571429
 40
0.3428571428571429
 40
0.3428571428571429
 40
0.3428571428571429
 40
0.3714285714285715
 40
0.3714285714285715
 40
0.3714285714285715
 40
0.3714285714285715
 40
0.4000000000000001
 40
0.4000000000000001
 40
0.4000000000000001
 40
0.4000000000000001
 40
0.4285714285714287
 40
0.4285714285714287
 40
0.4285714285714287
 40
0.4285714285714287
 40
0.4571428571428572
 40
0.4571428571428572
 40
0.4571428571428572
 40
0.4571428571428572
 40
0.4857142857142858
 40
0.4857142857142858
 40
0.4857142857142858
 40
0.4857142857142858
 40
0.5142857142857144
 40
0.5142857142857144
 40
0.5142857142857144
 40
0.5142857142857144
 40
0.5428571428571429
 40
0.5428571428571429
 40
0.5428571428571429
 40
0.5428571428571429
 40
0.5714285714285715
 40
0.5714285714285715
 40
0.5714285714285715
 40
0.5714285714285715
 40
0.6000000000000001
 40
0.6000000000000001
 40
0.6000000000000001
 40
0.6000000000000001
 40
0.6285714285714287
 40
0.6285714285714287
 40
0.6285714285714287
 40
0.6285714285714287
 40
0.6571428571428573
 40
0.6571428571428573
 40
0.6571428571428573
 40
0.6571428571428573
 40
0.6857142857142858
 40
0.6857142857142858
 40
0.6857142857142858
 40
0.6857142857142858
 40
0.7142857142857144
 40
0.7142857142857144
 40
0.7142857142857144
 40
0.7142857142857144
 40
0.742857142857143
 40
0.742857142857143
 40
0.742857142857143
 40
0.742857142857143
 40
0.7714285714285716
 40
0.7714285714285716
 40
0.7714285714285716
 40
0.7714285714285716
 40
0.8000000000000002
 40
0.8000000000000002
 40
0.8000000000000002
 40
0.8000000000000002
 40
0.8285714285714287
 40
0.8285714285714287
 40
0.8285714285714287
 40
0.8285714285714287
 40
0.8571428571428573
 40
0.8571428571428573
 40
0.8571428571428573
 40
0.8571428571428573
 40
0.8857142857142859
 40
0.8857142857142859
 40
0.8857142857142859
 40
0.8857142857142859
 40
0.9142857142857145
 40
0.9142857142857145
 40
0.9142857142857145
 40
0.9142857142857145
 40
0.9428571428571431
 40
0.9428571428571431
 40
0.9428571428571431
 40
0.9428571428571431
 40
0.9714285714285716
 40
0.9714285714285716
 40
0.9714285714285716
 40
0.9714285714285716
 40
1.0
 40
1.0
 40
1.0
 40
1.0
 10
0.36336
 20
-0.2444
 30
0.0
 10
0.5640200000000001
 20
-0.8540000000000001
 30
0.0
 10
0.10682
 20
-1.6464800000000002
 30
0.0
 10
0.78754
 20
-2.0655800000000002
 30
0.0
 10
0.78754
 20
-2.0655800000000002
 30
0.0
 10
0.69864
 20
-1.9055600000000001
 30
0.0
 10
0.52846
 20
-1.7836400000000001
 30
0.0
 10
0.4929000000000001
 20
-1.5906000000000002
 30
0.0
 10
0.4929000000000001
 20
-1.5906000000000002
 30
0.0
 10
0.46496
 20
-1.5017
 30
0.0
 10
0.48782
 20
-1.4712200000000002
 30
0.0
 10
0.4802
 20
-1.3747
 30
0.0
 10
0.4802
 20
-1.3747
 30
0.0
 10
0.6249800000000001
 20
-1.5829800000000001
 30
0.0
 10
0.7494400000000001
 20
-1.7887200000000001
 30
0.0
 10
0.9882000000000001
 20
-1.8776200000000001
 30
0.0
 10
0.9882000000000001
 20
-1.8776200000000001
 30
0.0
 10
0.9678800000000001
 20
-1.8039600000000002
 30
0.0
 10
0.85104
 20
-1.7277600000000002
 30
0.0
 10
0.78754
 20
-1.6591800000000001
 30
0.0
 10
0.78754
 20
-1.6591800000000001
 30
0.0
 10
1.10758
 20
-1.6160000000000001
 30
0.0
 10
1.3463400000000001
 20
-1.8674600000000001
 30
0.0
 10
1.5089000000000001
 20
-2.1036800000000002
 30
0.0
 10
1.5089000000000001
 20
-2.1036800000000002
 30
0.0
 10
1.3895200000000001
 20
-1.7353800000000001
 30
0.0
 10
1.9076800000000003
 20
-1.7811000000000001
 30
0.0
 10
2.1642200000000003
 20
-1.7455400000000001
 30
0.0
 10
2.1642200000000003
 20
-1.7455400000000001
 30
0.0
 10
2.1642200000000003
 20
-1.7455400000000001
 30
0.0
 10
2.2378800000000001
 20
-1.7201400000000002
 30
0.0
 10
2.2378800000000001
 20
-1.7201400000000002
 30
0.0
 10
2.2378800000000001
 20
-1.7201400000000002
 30
0.0
 10
2.2378800000000001
 20
-1.7201400000000002
 30
0.0
 10
2.3852000000000002
 20
-1.6744200000000002
 30
0.0
 10
2.3852000000000002
 20
-1.6744200000000002
 30
0.0
 10
2.3852000000000002
 20
-1.6744200000000002
 30
0.0
 10
2.3852000000000002
 20
-1.6744200000000002
 30
0.0
 10
2.2378800000000001
 20
-1.8496800000000002
 30
0.0
 10
2.2378800000000001
 20
-1.8496800000000002
 30
0.0
 10
2.2378800000000001
 20
-1.8496800000000002
 30
0.0
 10
2.1972400000000003
 20
-1.92334
 30
0.0
 10
2.0829400000000002
 20
-1.9106400000000001
 30
0.0
 10
2.0397600000000002
 20
-1.9741400000000002
 30
0.0
 10
2.0397600000000002
 20
-1.9741400000000002
 30
0.0
 10
2.0397600000000002
 20
-1.9741400000000002
 30
0.0
 10
2.8576400000000004
 20
-1.7099800000000001
 30
0.0
 10
2.8576400000000004
 20
-1.7099800000000001
 30
0.0
 10
2.8576400000000004
 20
-1.7099800000000001
 30
0.0
 10
2.8576400000000004
 20
-1.7099800000000001
 30
0.0
 10
2.6417400000000004
 20
-1.7379200000000001
 30
0.0
 10
2.6417400000000004
 20
-1.7379200000000001
 30
0.0
 10
2.6417400000000004
 20
-1.7379200000000001
 30
0.0
 10
2.5426800000000003
 20
-1.7480800000000001
 30
0.0
 10
2.46902
 20
-1.7760200000000002
 30
0.0
 10
2.3750400000000003
 20
-1.7988800000000003
 30
0.0
 10
2.3750400000000003
 20
-1.7988800000000003
 30
0.0
 10
2.3801200000000002
 20
-1.7760200000000002
 30
0.0
 10
2.5096600000000002
 20
-1.5702800000000001
 30
0.0
 10
2.6214200000000001
 20
-1.5652000000000001
 30
0.0
 10
2.6214200000000001
 20
-1.5652000000000001
 30
0.0
 10
3.3859600000000003
 20
-1.3747
 30
0.0
 10
4.2038400000000005
 20
-1.6058400000000002
 30
0.0
 10
4.8845600000000005
 20
-1.3696200000000001
 30
0.0
 10
4.8845600000000005
 20
-1.3696200000000001
 30
0.0
 10
4.75502
 20
-1.33152
 30
0.0
 10
4.5899200000000002
 20
-1.3950200000000001
 30
0.0
 10
4.468
 20
-1.3366
 30
0.0
 10
4.468
 20
-1.3366
 30
0.0
 10
4.468
 20
-1.3366
 30
0.0
 10
4.6864400000000002
 20
-1.2604000000000002
 30
0.0
 10
4.6864400000000002
 20
-1.2604000000000002
 30
0.0
 10
4.6864400000000002
 20
-1.2604000000000002
 30
0.0
 10
4.6864400000000002
 20
-1.2604000000000002
 30
0.0
 10
5.0039400000000001
 20
-1.1715
 30
0.0
 10
5.0039400000000001
 20
-1.1715
 30
0.0
 10
5.0039400000000001
 20
-1.1715
 30
0.0
 10
5.0039400000000001
 20
-1.1715
 30
0.0
 10
5.7634000000000007
 20
-1.00386
 30
0.0
 10
5.7634000000000007
 20
-1.00386
 30
0.0
 10
5.7634000000000007
 20
-1.00386
 30
0.0
 10
5.5119400000000001
 20
-1.3416800000000002
 30
0.0
 10
5.1842800000000002
 20
-1.6109200000000001
 30
0.0
 10
4.8363000000000005
 20
-1.8446000000000002
 30
0.0
 10
4.8363000000000005
 20
-1.8446000000000002
 30
0.0
 10
3.7974400000000004
 20
-2.0605000000000002
 30
0.0
 10
2.7077800000000001
 20
-2.2459200000000004
 30
0.0
 10
1.6460600000000001
 20
-2.2586200000000001
 30
0.0
 10
1.6460600000000001
 20
-2.2586200000000001
 30
0.0
 10
1.6333600000000001
 20
-2.27386
 30
0.0
 10
1.61304
 20
-2.2764000000000002
 30
0.0
 10
1.5952600000000001
 20
-2.27894
 30
0.0
 10
1.5952600000000001
 20
-2.27894
 30
0.0
 10
1.4708000000000001
 20
-2.3145000000000002
 30
0.0
 10
1.3361800000000001
 20
-2.3475200000000003
 30
0.0
 10
1.2269600000000001
 20
-2.4008600000000002
 30
0.0
 10
1.2269600000000001
 20
-2.4008600000000002
 30
0.0
 10
1.3920600000000001
 20
-2.4211800000000001
 30
0.0
 10
1.5825600000000002
 20
-2.3526000000000002
 30
0.0
 10
1.7629000000000001
 20
-2.3627600000000002
 30
0.0
 10
1.7629000000000001
 20
-2.3627600000000002
 30
0.0
 10
1.0567800000000001
 20
-2.7666200000000001
 30
0.0
 10
-0.09637
 20
-2.8021800000000003
 30
0.0
 10
-0.63739
 20
-2.0655800000000002
 30
0.0
 10
-0.63739
 20
-2.0655800000000002
 30
0.0
 10
-0.5459500000000001
 20
-2.05796
 30
0.0
 10
-0.38847
 20
-2.18242
 30
0.0
 10
-0.27671
 20
-2.23576
 30
0.0
 10
-0.27671
 20
-2.23576
 30
0.0
 10
-0.27671
 20
-2.23576
 30
0.0
 10
-0.20559
 20
-2.2662400000000003
 30
0.0
 10
-0.20559
 20
-2.2662400000000003
 30
0.0
 10
-0.20559
 20
-2.2662400000000003
 30
0.0
 10
-0.47737
 20
-1.9182600000000001
 30
0.0
 10
-1.41717
 20
-1.8979400000000002
 30
0.0
 10
-1.0717300000000001
 20
-1.3035800000000002
 30
0.0
 10
-1.0717300000000001
 20
-1.3035800000000002
 30
0.0
 10
-0.71613
 20
-1.08006
 30
0.0
 10
-0.33767
 20
-1.7938000000000001
 30
0.0
 10
-0.01509
 20
-1.6871200000000002
 30
0.0
 10
-0.01509
 20
-1.6871200000000002
 30
0.0
 10
0.05348
 20
-1.7861800000000001
 30
0.0
 10
-0.05827
 20
-1.8446000000000002
 30
0.0
 10
-0.13447
 20
-1.8573000000000002
 30
0.0
 10
-0.13447
 20
-1.8573000000000002
 30
0.0
 10
0.21604
 20
-1.9131800000000001
 30
0.0
 10
0.03062
 20
-1.4128000000000001
 30
0.0
 10
-0.09383
 20
-1.2578600000000002
 30
0.0
 10
-0.09383
 20
-1.2578600000000002
 30
0.0
 10
-0.20305
 20
-1.0521200000000002
 30
0.0
 10
-0.31481
 20
-0.8489200000000001
 30
0.0
 10
-0.3427500000000001
 20
-0.6076200000000001
 30
0.0
 10
-0.3427500000000001
 20
-0.6076200000000001
 30
0.0
 10
-0.05319
 20
-0.27488
 30
0.0
 10
0.03062
 20
-0.84638
 30
0.0
 10
0.11444
 20
-1.0648200000000001
 30
0.0
 10
0.11444
 20
-1.0648200000000001
 30
0.0
 10
0.05602
 20
-0.7651000000000001
 30
0.0
 10
0.12714
 20
-0.46538
 30
0.0
 10
0.36336
 20
-0.2444
 30
0.0
  0
SPLINE
  5
2D
100
AcDbEntity
  8
Ebene 1
100
AcDbSpline
210
0.0
220
0.0
230
1.0
 70
     1
 71
     3
 72
    20
 73
    16
 74
     0
 42
0.0000000001
 43
0.0000000001
 40
0.0
 40
0.0
 40
0.0
 40
0.0
 40
0.25
 40
0.25
 40
0.25
 40
0.25
 40
0.5
 40
0.5
 40
0.5
 40
0.5
 40
0.75
 40
0.75
 40
0.75
 40
0.75
 40
1.0
 40
1.0
 40
1.0
 40
1.0
 10
-2.1232900000000003
 20
-0.7905000000000001
 30
0.0
 10
-1.9404100000000002
 20
-0.76256
 30
0.0
 10
-1.7270500000000002
 20
-0.8768600000000001
 30
0.0
 10
-1.7499100000000001
 20
-1.08768
 30
0.0
 10
-1.7499100000000001
 20
-1.08768
 30
0.0
 10
-1.8134100000000002
 20
-1.00132
 30
0.0
 10
-1.9150100000000001
 20
-0.8794000000000001
 30
0.0
 10
-2.0445500000000001
 20
-0.90988
 30
0.0
 10
-2.0445500000000001
 20
-0.90988
 30
0.0
 10
-2.0445500000000001
 20
-0.90988
 30
0.0
 10
-2.3341100000000004
 20
-1.20198
 30
0.0
 10
-2.3341100000000004
 20
-1.20198
 30
0.0
 10
-2.3341100000000004
 20
-1.20198
 30
0.0
 10
-2.31379
 20
-1.0724400000000001
 30
0.0
 10
-2.2172700000000001
 20
-0.90734
 30
0.0
 10
-2.1232900000000003
 20
-0.7905000000000001
 30
0.0
  0
SPLINE
  5
2E
100
AcDbEntity
  8
Ebene 1
 62
     7
100
AcDbSpline
210
0.0
220
0.0
230
1.0
 70
     1
 71
     3
 72
    20
 73
    16
 74
     0
 42
0.0000000001
 43
0.0000000001
 40
0.0
 40
0.0
 40
0.0
 40
0.0
 40
0.25
 40
0.25
 40
0.25
 40
0.25
 40
0.5
 40
0.5
 40
0.5
 40
0.5
 40
0.75
 40
0.75
 40
0.75
 40
0.75
 40
1.0
 40
1.0
 40
1.0
 40
1.0
 10
1.3768200000000002
 20
-1.5525000000000002
 30
0.0
 10
1.3768200000000002
 20
-1.5525000000000002
 30
0.0
 10
1.5343000000000002
 20
-1.7150600000000003
 30
0.0
 10
1.5343000000000002
 20
-1.7150600000000003
 30
0.0
 10
1.5343000000000002
 20
-1.7150600000000003
 30
0.0
 10
1.5343000000000002
 20
-1.7150600000000003
 30
0.0
 10
1.5216000000000001
 20
-1.7480800000000001
 30
0.0
 10
1.5216000000000001
 20
-1.7480800000000001
 30
0.0
 10
1.5216000000000001
 20
-1.7480800000000001
 30
0.0
 10
1.5647800000000001
 20
-1.8090400000000002
 30
0.0
 10
1.44286
 20
-1.8674600000000001
 30
0.0
 10
1.3895200000000001
 20
-1.8700000000000001
 30
0.0
 10
1.3895200000000001
 20
-1.8700000000000001
 30
0.0
 10
1.3057000000000001
 20
-1.7861800000000001
 30
0.0
 10
1.3260200000000002
 20
-1.6464800000000002
 30
0.0
 10
1.3768200000000002
 20
-1.5525000000000002
 30
0.0
  0
SPLINE
  5
2F
100
AcDbEntity
  8
Ebene 1
 62
     7
100
AcDbSpline
210
0.0
220
0.0
230
1.0
 70
     1
 71
     3
 72
    24
 73
    20
 74
     0
 42
0.0000000001
 43
0.0000000001
 40
0.0
 40
0.0
 40
0.0
 40
0.0
 40
0.2
 40
0.2
 40
0.2
 40
0.2
 40
0.4
 40
0.4
 40
0.4
 40
0.4
 40
0.6000000000000001
 40
0.6000000000000001
 40
0.6000000000000001
 40
0.6000000000000001
 40
0.8
 40
0.8
 40
0.8
 40
0.8
 40
1.0
 40
1.0
 40
1.0
 40
1.0
 10
2.13374
 20
-2.31704
 30
0.0
 10
2.2302600000000004
 20
-2.3018000000000001
 30
0.0
 10
2.3115400000000004
 20
-2.3145000000000002
 30
0.0
 10
2.4106000000000001
 20
-2.3145000000000002
 30
0.0
 10
2.4106000000000001
 20
-2.3145000000000002
 30
0.0
 10
2.0245200000000003
 20
-2.4872200000000002
 30
0.0
 10
1.6257400000000002
 20
-2.5913600000000003
 30
0.0
 10
1.2091800000000001
 20
-2.7005800000000004
 30
0.0
 10
1.2091800000000001
 20
-2.7005800000000004
 30
0.0
 10
1.2168000000000001
 20
-2.6269200000000001
 30
0.0
 10
1.3463400000000001
 20
-2.5481800000000003
 30
0.0
 10
1.4733400000000001
 20
-2.5761200000000004
 30
0.0
 10
1.4733400000000001
 20
-2.5761200000000004
 30
0.0
 10
1.4733400000000001
 20
-2.5761200000000004
 30
0.0
 10
1.6892400000000001
 20
-2.5075400000000001
 30
0.0
 10
1.6892400000000001
 20
-2.5075400000000001
 30
0.0
 10
1.6892400000000001
 20
-2.5075400000000001
 30
0.0
 10
1.6892400000000001
 20
-2.5075400000000001
 30
0.0
 10
2.13374
 20
-2.31704
 30
0.0
 10
2.13374
 20
-2.31704
 30
0.0
  0
SPLINE
  5
30
100
AcDbEntity
  8
Ebene 1
 62
     7
100
AcDbSpline
210
0.0
220
0.0
230
1.0
 70
     1
 71
     3
 72
    28
 73
    24
 74
     0
 42
0.0000000001
 43
0.0000000001
 40
0.0
 40
0.0
 40
0.0
 40
0.0
 40
0.1666666666666667
 40
0.1666666666666667
 40
0.1666666666666667
 40
0.1666666666666667
 40
0.3333333333333333
 40
0.3333333333333333
 40
0.3333333333333333
 40
0.3333333333333333
 40
0.5
 40
0.5
 40
0.5
 40
0.5
 40
0.6666666666666666
 40
0.6666666666666666
 40
0.6666666666666666
 40
0.6666666666666666
 40
0.8333333333333333
 40
0.8333333333333333
 40
0.8333333333333333
 40
0.8333333333333333
 40
1.0
 40
1.0
 40
1.0
 40
1.0
 10
0.13476
 20
-2.7513800000000002
 30
0.0
 10
0.34304
 20
-2.7437600000000004
 30
0.0
 10
0.55386
 20
-2.6675600000000004
 30
0.0
 10
0.7545200000000001
 20
-2.6929600000000002
 30
0.0
 10
0.7545200000000001
 20
-2.6929600000000002
 30
0.0
 10
0.6910200000000001
 20
-2.7234400000000001
 30
0.0
 10
0.5411600000000001
 20
-2.7310600000000003
 30
0.0
 10
0.5411600000000001
 20
-2.7894800000000002
 30
0.0
 10
0.5411600000000001
 20
-2.7894800000000002
 30
0.0
 10
0.5411600000000001
 20
-2.7894800000000002
 30
0.0
 10
0.9678800000000001
 20
-2.7005800000000004
 30
0.0
 10
0.9678800000000001
 20
-2.7005800000000004
 30
0.0
 10
0.9678800000000001
 20
-2.7005800000000004
 30
0.0
 10
0.9678800000000001
 20
-2.7005800000000004
 30
0.0
 10
1.14822
 20
-2.7183600000000001
 30
0.0
 10
1.14822
 20
-2.7183600000000001
 30
0.0
 10
1.14822
 20
-2.7183600000000001
 30
0.0
 10
0.8434200000000001
 20
-2.7844000000000002
 30
0.0
 10
0.5183000000000001
 20
-2.8428200000000001
 30
0.0
 10
0.20588
 20
-2.8225000000000002
 30
0.0
 10
0.20588
 20
-2.8225000000000002
 30
0.0
 10
0.20588
 20
-2.8225000000000002
 30
0.0
 10
0.13476
 20
-2.7513800000000002
 30
0.0
 10
0.13476
 20
-2.7513800000000002
 30
0.0
  0
ENDSEC
  0
SECTION
  2
OBJECTS
  0
DICTIONARY
  5
19
100
AcDbDictionary
280
     0
281
     1
  3
ACAD_GROUP
350
1A
  3
ACAD_MLINESTYLE
350
1B
  3
ACAD_LAYOUT
350
1E
  3
ACAD_PLOTSETTINGS
350
22
  3
ACAD_PLOTSTYLENAME
350
1F
  3
ACAD_WIPEOUT_VARS
350
23
  0
DICTIONARY
  5
1A
102
{ACAD_REACTORS
330
19
102
}
100
AcDbDictionary
280
     0
281
     1
  0
DICTIONARY
  5
1B
102
{ACAD_REACTORS
330
19
102
}
100
AcDbDictionary
280
     0
281
     1
  3
Standard
350
1C
  0
MLINESTYLE
  5
1C
102
{ACAD_REACTORS
330
1B
102
}
100
AcDbMlineStyle
  2
Standard
 70
     0
  3

 62
     0
 51
90.0
 52
90.0
 71
     2
 49
0.5
 62
   256
  6
BYLAYER
 49
-0.5
 62
   256
  6
BYLAYER
  0
ACDBDICTIONARYWDFLT
  5
1F
102
{ACAD_REACTORS
330
19
102
}
100
AcDbDictionary
281
     1
  3
Normal
350
1D
100
AcDbDictionaryWithDefault
340
1D
  0
ACDBPLACEHOLDER
  5
1D
102
{ACAD_REACTORS
330
1F
102
}
  0
LAYOUT
  5
20
102
{ACAD_REACTORS
330
1E
102
}
100
AcDbPlotSettings
  1

  2

  4

  6

 40
0.0
 41
0.0
 42
0.0
 43
0.0
 44
0.0
 45
0.0
 46
0.0
 47
0.0
 48
0.0
 49
0.0
140
0.0
141
0.0
142
1.0
143
1.0
 70
  1024
 72
     0
 73
     0
 74
     0
  7

 75
     0
147
1.0
148
0.0
149
0.0
100
AcDbLayout
  1
Model
 70
     0
 71
     0
 10
0.0
 20
0.0
 11
0.0
 21
0.0
 12
0.0
 22
0.0
 32
0.0
 14
0.0
 24
0.0
 34
0.0
 15
0.0
 25
0.0
 35
0.0
146
0.0
 13
0.0
 23
0.0
 33
0.0
 16
0.0
 26
0.0
 36
0.0
 17
0.0
 27
0.0
 37
0.0
 76
     0
330
A
331
0
345
0
346
0
  0
LAYOUT
  5
21
102
{ACAD_REACTORS
330
1E
102
}
100
AcDbPlotSettings
  1

  2

  4

  6

 40
0.0
 41
0.0
 42
0.0
 43
0.0
 44
0.0
 45
0.0
 46
0.0
 47
0.0
 48
0.0
 49
0.0
140
0.0
141
0.0
142
1.0
143
1.0
 70
     0
 72
     0
 73
     0
 74
     0
  7

 75
     0
147
1.0
148
0.0
149
0.0
100
AcDbLayout
  1
Layout1
 70
     0
 71
     0
 10
0.0
 20
0.0
 11
0.0
 21
0.0
 12
0.0
 22
0.0
 32
0.0
 14
0.0
 24
0.0
 34
0.0
 15
0.0
 25
0.0
 35
0.0
146
0.0
 13
0.0
 23
0.0
 33
0.0
 16
0.0
 26
0.0
 36
0.0
 17
0.0
 27
0.0
 37
0.0
 76
     0
330
B
331
0
345
0
346
0
  0
DICTIONARY
  5
1E
102
{ACAD_REACTORS
330
19
102
}
100
AcDbDictionary
280
     0
281
     1
  3
Layout1
350
21
  3
Model
350
20
  0
DICTIONARY
  5
22
102
{ACAD_REACTORS
330
19
102
}
100
AcDbDictionary
280
     0
281
     1
  0
WIPEOUTVARIABLES
  5
23
100
AcDbWipeoutVariables
 70
     1
  0
ENDSEC
  0
EOF
