  0
SECTION
  2
HEADER
  9
$ACADVER
  1
AC1015
  9
$ACADMAINTVER
 70
     6
  9
$DWGCODEPAGE
  3
DOS850
  9
$INSBASE
 10
0.0
 20
0.0
 30
0.0
  9
$EXTMIN
 10
-4.79029
 20
-6.23626
 30
1.000000E+20
  9
$EXTMAX
 10
4.79575
 20
6.23005
 30
-1.000000E+20
  9
$LIMMIN
 10
0.0
 20
0.0
  9
$LIMMAX
 10
0.0
 20
0.0
  9
$ORTHOMODE
 70
     0
  9
$REGENMODE
 70
     1
  9
$FILLMODE
 70
     1
  9
$QTEXTMODE
 70
     0
  9
$MIRRTEXT
 70
     1
  9
$LTSCALE
 40
1.0
  9
$ATTMODE
 70
     1
  9
$TEXTSIZE
 40
0.2
  9
$TRACEWID
 40
0.05
  9
$TEXTSTYLE
  7
Standard
  9
$CLAYER
  8
0
  9
$CELTYPE
  6
Continuous
  9
$CECOLOR
 62
   256
  9
$CELTSCALE
 40
1.0
  9
$DISPSILH
 70
     0
  9
$DIMSCALE
 40
1.0
  9
$DIMASZ
 40
0.18
  9
$DIMEXO
 40
0.0625
  9
$DIMDLI
 40
0.38
  9
$DIMRND
 40
0.0
  9
$DIMDLE
 40
0.0
  9
$DIMEXE
 40
0.18
  9
$DIMTP
 40
0.0
  9
$DIMTM
 40
0.0
  9
$DIMTXT
 40
0.18
  9
$DIMCEN
 40
0.09
  9
$DIMTSZ
 40
0.0
  9
$DIMTOL
 70
     0
  9
$DIMLIM
 70
     0
  9
$DIMTIH
 70
     1
  9
$DIMTOH
 70
     1
  9
$DIMSE1
 70
     0
  9
$DIMSE2
 70
     0
  9
$DIMTAD
 70
     0
  9
$DIMZIN
 70
     0
  9
$DIMBLK
  1

  9
$DIMASO
 70
     1
  9
$DIMSHO
 70
     1
  9
$DIMPOST
  1

  9
$DIMAPOST
  1

  9
$DIMALT
 70
     0
  9
$DIMALTD
 70
     2
  9
$DIMALTF
 40
25.4
  9
$DIMLFAC
 40
1.0
  9
$DIMTOFL
 70
     0
  9
$DIMTVP
 40
0.0
  9
$DIMTIX
 70
     0
  9
$DIMSOXD
 70
     0
  9
$DIMSAH
 70
     0
  9
$DIMBLK1
  1

  9
$DIMBLK2
  1

  9
$DIMSTYLE
  2
Standard
  9
$DIMCLRD
 70
     0
  9
$DIMCLRE
 70
     0
  9
$DIMCLRT
 70
     0
  9
$DIMTFAC
 40
1.0
  9
$DIMGAP
 40
0.09
  9
$DIMJUST
 70
     0
  9
$DIMSD1
 70
     0
  9
$DIMSD2
 70
     0
  9
$DIMTOLJ
 70
     1
  9
$DIMTZIN
 70
     0
  9
$DIMALTZ
 70
     0
  9
$DIMALTTZ
 70
     0
  9
$DIMUPT
 70
     0
  9
$DIMDEC
 70
     4
  9
$DIMTDEC
 70
     4
  9
$DIMALTU
 70
     2
  9
$DIMALTTD
 70
     2
  9
$DIMTXSTY
  7
Standard
  9
$DIMAUNIT
 70
     0
  9
$DIMADEC
 70
     0
  9
$DIMALTRND
 40
0.0
  9
$DIMAZIN
 70
     0
  9
$DIMDSEP
 70
     0
  9
$DIMATFIT
 70
     3
  9
$DIMFRAC
 70
     0
  9
$DIMLDRBLK
  1

  9
$DIMLUNIT
 70
     2
  9
$DIMLWD
 70
     0
  9
$DIMLWE
 70
     0
  9
$DIMTMOVE
 70
     0
  9
$LUNITS
 70
     2
  9
$LUPREC
 70
     4
  9
$SKETCHINC
 40
0.1
  9
$FILLETRAD
 40
0.0
  9
$AUNITS
 70
     0
  9
$AUPREC
 70
     0
  9
$MENU
  1
acad
  9
$ELEVATION
 40
0.0
  9
$PELEVATION
 40
0.0
  9
$THICKNESS
 40
0.0
  9
$LIMCHECK
 70
     0
  9
$CHAMFERA
 40
0.0
  9
$CHAMFERB
 40
0.0
  9
$CHAMFERC
 40
0.0
  9
$CHAMFERD
 40
0.0
  9
$SKPOLY
 70
     0
  9
$TDCREATE
 40
0.000000000
  9
$TDUCREATE
 40
0.000000000
  9
$TDUPDATE
 40
0.000000000
  9
$TDUUPDATE
 40
0.000000000
  9
$TDINDWG
 40
0.0000000000
  9
$TDUSRTIMER
 40
0.0000000000
  9
$USRTIMER
 70
     1
  9
$ANGBASE
 50
0.0
  9
$ANGDIR
 70
     0
  9
$PDMODE
 70
     0
  9
$PDSIZE
 40
0.0
  9
$PLINEWID
 40
0.0
  9
$SPLFRAME
 70
     0
  9
$SPLINETYPE
 70
     6
  9
$SPLINESEGS
 70
     8
  9
$HANDSEED
  5
38
  9
$SURFTAB1
 70
     6
  9
$SURFTAB2
 70
     6
  9
$SURFTYPE
 70
     6
  9
$SURFU
 70
     6
  9
$SURFV
 70
     6
  9
$UCSBASE
  2

  9
$UCSNAME
  2

  9
$UCSORG
 10
0.0
 20
0.0
 30
0.0
  9
$UCSXDIR
 10
1.0
 20
0.0
 30
0.0
  9
$UCSYDIR
 10
0.0
 20
1.0
 30
0.0
  9
$UCSORTHOREF
  2

  9
$UCSORTHOVIEW
 70
     0
  9
$UCSORGTOP
 10
0.0
 20
0.0
 30
0.0
  9
$UCSORGBOTTOM
 10
0.0
 20
0.0
 30
0.0
  9
$UCSORGLEFT
 10
0.0
 20
0.0
 30
0.0
  9
$UCSORGRIGHT
 10
0.0
 20
0.0
 30
0.0
  9
$UCSORGFRONT
 10
0.0
 20
0.0
 30
0.0
  9
$UCSORGBACK
 10
0.0
 20
0.0
 30
0.0
  9
$PUCSBASE
  2

  9
$PUCSNAME
  2

  9
$PUCSORG
 10
0.0
 20
0.0
 30
0.0
  9
$PUCSXDIR
 10
1.0
 20
0.0
 30
0.0
  9
$PUCSYDIR
 10
0.0
 20
1.0
 30
0.0
  9
$PUCSORTHOREF
  2

  9
$PUCSORTHOVIEW
 70
     0
  9
$PUCSORGTOP
 10
0.0
 20
0.0
 30
0.0
  9
$PUCSORGBOTTOM
 10
0.0
 20
0.0
 30
0.0
  9
$PUCSORGLEFT
 10
0.0
 20
0.0
 30
0.0
  9
$PUCSORGRIGHT
 10
0.0
 20
0.0
 30
0.0
  9
$PUCSORGFRONT
 10
0.0
 20
0.0
 30
0.0
  9
$PUCSORGBACK
 10
0.0
 20
0.0
 30
0.0
  9
$USERI1
 70
     0
  9
$USERI2
 70
     0
  9
$USERI3
 70
     0
  9
$USERI4
 70
     0
  9
$USERI5
 70
     0
  9
$USERR1
 40
0.0
  9
$USERR2
 40
0.0
  9
$USERR3
 40
0.0
  9
$USERR4
 40
0.0
  9
$USERR5
 40
0.0
  9
$WORLDVIEW
 70
     1
  9
$SHADEDGE
 70
     3
  9
$SHADEDIF
 70
    70
  9
$TILEMODE
 70
     1
  9
$MAXACTVP
 70
    16
  9
$PINSBASE
 10
0.0
 20
0.0
 30
0.0
  9
$PLIMCHECK
 70
     0
  9
$PEXTMIN
 10
1.000000E+20
 20
1.000000E+20
 30
1.000000E+20
  9
$PEXTMAX
 10
-1.000000E+20
 20
-1.000000E+20
 30
-1.000000E+20
  9
$PLIMMIN
 10
0.0
 20
0.0
  9
$PLIMMAX
 10
12.0
 20
9.0
  9
$UNITMODE
 70
     0
  9
$VISRETAIN
 70
     0
  9
$PLINEGEN
 70
     1
  9
$PSLTSCALE
 70
     0
  9
$TREEDEPTH
 70
  3020
  9
$CMLSTYLE
  2
Standard
  9
$CMLJUST
 70
     0
  9
$CMLSCALE
 40
1.0
  9
$PROXYGRAPHICS
 70
     0
  9
$MEASUREMENT
 70
     0
  9
$CELWEIGHT
370
     0
  9
$ENDCAPS
280
     0
  9
$JOINSTYLE
280
     0
  9
$LWDISPLAY
290
     0
  9
$INSUNITS
 70
     5
  9
$HYPERLINKBASE
  1

  9
$XEDIT
290
     1
  9
$CEPSNTYPE
380
     0
  9
$PSTYLEMODE
290
     1
  9
$FINGERPRINTGUID
  2

  9
$VERSIONGUID
  2

  9
$EXTNAMES
290
     1
  9
$PSVPSCALE
 40
0.0
  0
ENDSEC
  0
SECTION
  2
CLASSES
  0
CLASS
  1
LWPOLYLINE
  2
AcDbPolyline
  3
AutoCAD 2000
 90
    32768
280
     0
281
     1
  0
CLASS
  1
IMAGE
  2
AcDbRasterImage
  3
ISM
 90
    32895
280
     0
281
     1
  0
CLASS
  1
OLE2FRAME
  2
AcDbOle2Frame
  3
AutoCAD 2000
 90
    32768
280
     0
281
     1
  0
CLASS
  1
HATCH
  2
AcDbHatch
  3
AutoCAD 2000
 90
    32768
280
     0
281
     1
  0
CLASS
  1
DICTIONARYVAR
  2
AcDbDictionaryVar
  3
AutoCAD 2000
 90
    32768
280
     0
281
     0
  0
CLASS
  1
RASTERVARIABLES
  2
AcDbRasterVariables
  3
ISM
 90
    32768
280
     0
281
     0
  0
CLASS
  1
IMAGEDEF
  2
AcDbRasterImageDef
  3
ISM
 90
    32768
280
     0
281
     0
  0
CLASS
  1
IMAGEDEF_REACTOR
  2
AcDbRasterImageDefReactor
  3
ISM
 90
    32769
280
     0
281
     0
  0
CLASS
  1
IDBUFFER
  2
AcDbIdBuffer
  3
AutoCAD 2000
 90
    32768
280
     0
281
     0
  0
CLASS
  1
SPATIAL_FILTER
  2
AcDbSpatialFilter
  3
AutoCAD 2000
 90
    32768
280
     0
281
     0
  0
CLASS
  1
XRECORD
  2
AcDbXrecord
  3
AutoCAD 2000
 90
    32768
280
     0
281
     0
  0
CLASS
  1
SORTENTSTABLE
  2
AcDbSortentsTable
  3
AutoCAD 2000
 90
    32768
280
     0
281
     0
  0
CLASS
  1
LAYER_INDEX
  2
AcDbLayerIndex
  3
AutoCAD 2000
 90
    32768
280
     0
281
     0
  0
CLASS
  1
SPATIAL_INDEX
  2
AcDbSpatialIndex
  3
AutoCAD 2000
 90
    32768
280
     0
281
     0
  0
CLASS
  1
OBJECT_PTR
  2
CAseDLPNTableRecord
  3
"ASE-LPNTableRecord"
 90
    32769
280
     0
281
     0
  0
CLASS
  1
LAYOUT
  2
AcDbLayout
  3
AutoCAD 2000
 90
        0
280
     0
281
     0
  0
CLASS
  1
PLOTSETTINGS
  2
AcDbPlotSettings
  3
AutoCAD 2000
 90
    32768
280
     0
281
     0
  0
CLASS
  1
ACDBDICTIONARYWDFLT
  2
AcDbDictionaryWithDefault
  3
AutoCAD 2000
 90
        0
280
     0
281
     0
  0
CLASS
  1
ACDBPLACEHOLDER
  2
AcDbPlaceHolder
  3
AutoCAD 2000
 90
        0
280
     0
281
     0
  0
CLASS
  1
VBA_PROJECT
  2
AcDbVbaProject
  3
acadvba
 90
    32768
280
     0
281
     0
  0
CLASS
  1
WIPEOUT
  2
AcDbWipeout
  3
WipeOut|AutoCAD Express Tool|expresstools@autodesk.com
 90
    32895
280
     0
281
     1
  0
CLASS
  1
WIPEOUTVARIABLES
  2
AcDbWipeoutVariables
  3
WipeOut|AutoCAD Express Tool|expresstools@autodesk.com
 90
        0
280
     0
281
     0
  0
CLASS
  1
RTEXT
  2
RText
  3
RText|AutoCAD Express Tool|expresstools@autodesk.com
 90
    32768
280
     0
281
     1
  0
CLASS
  1
ARCALIGNEDTEXT
  2
AcDbArcAlignedText
  3
ATEXT|AutoCAD Express Tool|expresstools@autodesk.com
 90
    32768
280
     0
281
     1
  0
ENDSEC
  0
SECTION
  2
TABLES
  0
TABLE
  2
VPORT
  5
7
100
AcDbSymbolTable
 70
     1
  0
VPORT
  5
15
100
AcDbSymbolTableRecord
100
AcDbViewportTableRecord
  2
*ACTIVE
 70
     0
 10
0.0
 20
0.0
 11
1.0
 21
1.0
 12
6.591288
 22
4.579184
 13
0.0
 23
0.0
 14
1.0
 24
1.0
 15
0.0
 25
0.0
 16
0.0
 26
0.0
 36
1.0
 17
0.0
 27
0.0
 37
0.0
 40
9.158369
 41
0.688564
 42
50.0
 43
0.0
 44
0.0
 50
0.0
 51
0.0
 71
     0
 72
   100
 73
     1
 74
     1
 75
     0
 76
     0
 77
     0
 78
     0
281
     0
 65
     0
110
0.0
120
0.0
130
0.0
111
1.0
121
0.0
131
0.0
112
0.0
122
1.0
132
0.0
345
0
346
0
 79
     0
146
0.0
  0
ENDTAB
  0
TABLE
  2
LTYPE
  5
4
100
AcDbSymbolTable
 70
     3
  0
LTYPE
  5
11
100
AcDbSymbolTableRecord
100
AcDbLinetypeTableRecord
  2
ByBlock
 70
    64
  3

 72
    65
 73
     0
 40
0.0
  0
LTYPE
  5
12
100
AcDbSymbolTableRecord
100
AcDbLinetypeTableRecord
  2
ByLayer
 70
    64
  3

 72
    65
 73
     0
 40
0.0
  0
LTYPE
  5
13
100
AcDbSymbolTableRecord
100
AcDbLinetypeTableRecord
  2
Continuous
 70
    64
  3
Solid line
 72
    65
 73
     0
 40
0.0
  0
ENDTAB
  0
TABLE
  2
LAYER
  5
2
100
AcDbSymbolTable
 70
     2
  0
LAYER
  5
14
100
AcDbSymbolTableRecord
100
AcDbLayerTableRecord
  2
0
 70
     0
 62
     7
  6
Continuous
290
     1
370
    -3
390
1D
  0
LAYER
  5
24
100
AcDbSymbolTableRecord
100
AcDbLayerTableRecord
  2
Ebene 1
 70
     0
 62
     7
  6
Continuous
290
     1
370
    -3
390
1F
  0
ENDTAB
  0
TABLE
  2
STYLE
  5
3
100
AcDbSymbolTable
 70
     1
  0
STYLE
  5
17
100
AcDbSymbolTableRecord
100
AcDbTextStyleTableRecord
  2
Standard
 70
     0
 40
0.0
 41
1.0
 50
0.0
 71
     0
 42
0.0
  3
txt
  4

  0
ENDTAB
  0
TABLE
  2
VIEW
  5
5
100
AcDbSymbolTable
 70
     0
  0
ENDTAB
  0
TABLE
  2
UCS
  5
6
100
AcDbSymbolTable
 70
     0
  0
ENDTAB
  0
TABLE
  2
APPID
  5
8
100
AcDbSymbolTable
 70
     1
  0
APPID
  5
16
100
AcDbSymbolTableRecord
100
AcDbRegAppTableRecord
  2
ACAD
 70
     0
  0
ENDTAB
  0
TABLE
  2
DIMSTYLE
  5
9
100
AcDbSymbolTable
 70
     1
100
AcDbDimStyleTable
 71
     0
  0
DIMSTYLE
105
18
100
AcDbSymbolTableRecord
100
AcDbDimStyleTableRecord
  2
Standard
 70
     0
  3

  4

 40
1.0
 41
0.18
 42
0.0625
 43
0.38
 44
0.18
 45
0.0
 46
0.0
 47
0.0
 48
0.0
 71
     0
 72
     0
 73
     1
 74
     1
 75
     0
 76
     0
 77
     0
 78
     0
 79
     0
140
0.18
141
0.09
142
0.0
143
25.4
144
1.0
145
0.0
146
1.0
147
0.09
148
0.0
170
     0
171
     2
172
     0
173
     0
174
     0
175
     0
176
     0
177
     0
178
     0
179
     0
271
     4
272
     4
273
     2
274
     2
275
     0
276
     0
277
     2
278
    46
279
     0
280
     0
281
     0
282
     0
283
     1
284
     0
285
     0
286
     0
288
     0
340
17
341
0
342
0
343
0
344
0
371
    -2
372
    -2
  0
ENDTAB
  0
TABLE
  2
BLOCK_RECORD
  5
1
100
AcDbSymbolTable
 70
     0
  0
BLOCK_RECORD
  5
A
100
AcDbSymbolTableRecord
100
AcDbBlockTableRecord
  2
*MODEL_SPACE
340
20
  0
BLOCK_RECORD
  5
B
100
AcDbSymbolTableRecord
100
AcDbBlockTableRecord
  2
*PAPER_SPACE
340
21
  0
ENDTAB
  0
ENDSEC
  0
SECTION
  2
BLOCKS
  0
BLOCK
  5
D
100
AcDbEntity
  8
0
100
AcDbBlockBegin
  2
*MODEL_SPACE
 70
     0
 10
0.0
 20
0.0
 30
0.0
  3
*MODEL_SPACE
  1

  0
ENDBLK
  5
E
100
AcDbEntity
  8
0
100
AcDbBlockEnd
  0
BLOCK
  5
F
100
AcDbEntity
 67
     1
  8
0
100
AcDbBlockBegin
  2
*PAPER_SPACE
 70
     0
 10
0.0
 20
0.0
 30
0.0
  3
*PAPER_SPACE
  1

  0
ENDBLK
  5
10
100
AcDbEntity
 67
     1
  8
0
100
AcDbBlockEnd
  0
ENDSEC
  0
SECTION
  2
ENTITIES
  0
SPLINE
  5
25
100
AcDbEntity
  8
Ebene 1
100
AcDbSpline
210
0.0
220
0.0
230
1.0
 70
     1
 71
     3
 72
   124
 73
   120
 74
     0
 42
0.0000000001
 43
0.0000000001
 40
0.0
 40
0.0
 40
0.0
 40
0.0
 40
0.0333333333333333
 40
0.0333333333333333
 40
0.0333333333333333
 40
0.0333333333333333
 40
0.0666666666666667
 40
0.0666666666666667
 40
0.0666666666666667
 40
0.0666666666666667
 40
0.1
 40
0.1
 40
0.1
 40
0.1
 40
0.1333333333333333
 40
0.1333333333333333
 40
0.1333333333333333
 40
0.1333333333333333
 40
0.1666666666666667
 40
0.1666666666666667
 40
0.1666666666666667
 40
0.1666666666666667
 40
0.2
 40
0.2
 40
0.2
 40
0.2
 40
0.2333333333333333
 40
0.2333333333333333
 40
0.2333333333333333
 40
0.2333333333333333
 40
0.2666666666666667
 40
0.2666666666666667
 40
0.2666666666666667
 40
0.2666666666666667
 40
0.3
 40
0.3
 40
0.3
 40
0.3
 40
0.3333333333333333
 40
0.3333333333333333
 40
0.3333333333333333
 40
0.3333333333333333
 40
0.3666666666666666
 40
0.3666666666666666
 40
0.3666666666666666
 40
0.3666666666666666
 40
0.4
 40
0.4
 40
0.4
 40
0.4
 40
0.4333333333333333
 40
0.4333333333333333
 40
0.4333333333333333
 40
0.4333333333333333
 40
0.4666666666666666
 40
0.4666666666666666
 40
0.4666666666666666
 40
0.4666666666666666
 40
0.4999999999999999
 40
0.4999999999999999
 40
0.4999999999999999
 40
0.4999999999999999
 40
0.5333333333333333
 40
0.5333333333333333
 40
0.5333333333333333
 40
0.5333333333333333
 40
0.5666666666666667
 40
0.5666666666666667
 40
0.5666666666666667
 40
0.5666666666666667
 40
0.6
 40
0.6
 40
0.6
 40
0.6
 40
0.6333333333333333
 40
0.6333333333333333
 40
0.6333333333333333
 40
0.6333333333333333
 40
0.6666666666666666
 40
0.6666666666666666
 40
0.6666666666666666
 40
0.6666666666666666
 40
0.7
 40
0.7
 40
0.7
 40
0.7
 40
0.7333333333333333
 40
0.7333333333333333
 40
0.7333333333333333
 40
0.7333333333333333
 40
0.7666666666666666
 40
0.7666666666666666
 40
0.7666666666666666
 40
0.7666666666666666
 40
0.7999999999999999
 40
0.7999999999999999
 40
0.7999999999999999
 40
0.7999999999999999
 40
0.8333333333333333
 40
0.8333333333333333
 40
0.8333333333333333
 40
0.8333333333333333
 40
0.8666666666666666
 40
0.8666666666666666
 40
0.8666666666666666
 40
0.8666666666666666
 40
0.8999999999999999
 40
0.8999999999999999
 40
0.8999999999999999
 40
0.8999999999999999
 40
0.9333333333333332
 40
0.9333333333333332
 40
0.9333333333333332
 40
0.9333333333333332
 40
0.9666666666666666
 40
0.9666666666666666
 40
0.9666666666666666
 40
0.9666666666666666
 40
1.0
 40
1.0
 40
1.0
 40
1.0
 10
-3.4161500000000005
 20
6.2300500000000003
 30
0.0
 10
-4.2111700000000001
 20
5.4121700000000006
 30
0.0
 10
-3.9165300000000003
 20
3.5147900000000001
 30
0.0
 10
-2.4077700000000002
 20
3.2023700000000002
 30
0.0
 10
-2.4077700000000002
 20
3.2023700000000002
 30
0.0
 10
-1.4730500000000002
 20
3.4868500000000004
 30
0.0
 10
-0.5992900000000001
 20
3.9872300000000003
 30
0.0
 10
0.42432
 20
3.9084900000000005
 30
0.0
 10
0.42432
 20
3.9084900000000005
 30
0.0
 10
1.2625200000000001
 20
3.6392500000000001
 30
0.0
 10
2.2683600000000004
 20
3.6519500000000003
 30
0.0
 10
2.8906600000000005
 20
2.9458300000000004
 30
0.0
 10
2.8906600000000005
 20
2.9458300000000004
 30
0.0
 10
4.1428799999999999
 20
2.9915500000000002
 30
0.0
 10
4.2495600000000007
 20
4.3072699999999999
 30
0.0
 10
3.7517200000000002
 20
5.14039
 30
0.0
 10
3.7517200000000002
 20
5.14039
 30
0.0
 10
4.25718
 20
4.6755700000000004
 30
0.0
 10
4.6102400000000001
 20
4.0989900000000006
 30
0.0
 10
4.6839000000000004
 20
3.4258900000000003
 30
0.0
 10
4.6839000000000004
 20
3.4258900000000003
 30
0.0
 10
4.6889800000000008
 20
2.7807300000000001
 30
0.0
 10
3.9904800000000002
 20
2.3997300000000004
 30
0.0
 10
3.6577400000000004
 20
1.9069700000000001
 30
0.0
 10
3.6577400000000004
 20
1.9069700000000001
 30
0.0
 10
3.8279200000000002
 20
1.1373500000000001
 30
0.0
 10
4.4502200000000007
 20
0.48965
 30
0.0
 10
4.1530400000000007
 20
-0.31552
 30
0.0
 10
4.1530400000000007
 20
-0.31552
 30
0.0
 10
4.2597200000000006
 20
-0.46538
 30
0.0
 10
4.5518200000000002
 20
-0.4349
 30
0.0
 10
4.5848400000000007
 20
-0.6711200000000001
 30
0.0
 10
4.5848400000000007
 20
-0.6711200000000001
 30
0.0
 10
4.55436
 20
-2.6193000000000004
 30
0.0
 10
4.9506000000000006
 20
-4.9307000000000007
 30
0.0
 10
4.7270799999999999
 20
-6.2184800000000005
 30
0.0
 10
4.7270799999999999
 20
-6.2184800000000005
 30
0.0
 10
4.7270799999999999
 20
-6.2184800000000005
 30
0.0
 10
4.2876600000000007
 20
-5.2659800000000008
 30
0.0
 10
4.2876600000000007
 20
-5.2659800000000008
 30
0.0
 10
4.2876600000000007
 20
-5.2659800000000008
 30
0.0
 10
4.3359200000000007
 20
-5.5784000000000002
 30
0.0
 10
4.3638600000000007
 20
-5.9060600000000001
 30
0.0
 10
4.34354
 20
-6.2362600000000006
 30
0.0
 10
4.34354
 20
-6.2362600000000006
 30
0.0
 10
4.0565199999999999
 20
-5.8425600000000006
 30
0.0
 10
3.9142800000000002
 20
-5.32186
 30
0.0
 10
3.7669600000000001
 20
-4.8494200000000003
 30
0.0
 10
3.7669600000000001
 20
-4.8494200000000003
 30
0.0
 10
3.7466400000000002
 20
-5.1212000000000009
 30
0.0
 10
3.7644200000000003
 20
-5.4361600000000001
 30
0.0
 10
3.7999800000000001
 20
-5.7054
 30
0.0
 10
3.7999800000000001
 20
-5.7054
 30
0.0
 10
3.4799400000000005
 20
-5.6139600000000005
 30
0.0
 10
3.4901000000000004
 20
-5.1339000000000006
 30
0.0
 10
3.3427800000000003
 20
-4.8748200000000006
 30
0.0
 10
3.3427800000000003
 20
-4.8748200000000006
 30
0.0
 10
3.3427800000000003
 20
-4.8748200000000006
 30
0.0
 10
3.1751400000000003
 20
-4.3693600000000004
 30
0.0
 10
3.1751400000000003
 20
-4.3693600000000004
 30
0.0
 10
3.1751400000000003
 20
-4.3693600000000004
 30
0.0
 10
3.13958
 20
-4.5725600000000002
 30
0.0
 10
3.1726000000000001
 20
-4.8087800000000005
 30
0.0
 10
3.2234000000000003
 20
-5.0018200000000004
 30
0.0
 10
3.2234000000000003
 20
-5.0018200000000004
 30
0.0
 10
2.6722200000000003
 20
-4.6843200000000005
 30
0.0
 10
2.9008200000000004
 20
-3.8689800000000005
 30
0.0
 10
2.5503
 20
-3.3940000000000001
 30
0.0
 10
2.5503
 20
-3.3940000000000001
 30
0.0
 10
2.2937600000000002
 20
-3.3330400000000004
 30
0.0
 10
2.4334600000000002
 20
-4.1001200000000004
 30
0.0
 10
2.37758
 20
-4.3338000000000001
 30
0.0
 10
2.37758
 20
-4.3338000000000001
 30
0.0
 10
1.8441800000000002
 20
-3.8664400000000003
 30
0.0
 10
2.0651600000000001
 20
-3.0231600000000003
 30
0.0
 10
1.6054200000000001
 20
-2.5456400000000001
 30
0.0
 10
1.6054200000000001
 20
-2.5456400000000001
 30
0.0
 10
1.3006200000000001
 20
-2.4034
 30
0.0
 10
1.1710800000000001
 20
-2.7793200000000002
 30
0.0
 10
1.11012
 20
-3.0003000000000002
 30
0.0
 10
1.11012
 20
-3.0003000000000002
 30
0.0
 10
0.9501000000000001
 20
-2.8783800000000004
 30
0.0
 10
0.9577200000000001
 20
-2.6142200000000004
 30
0.0
 10
0.8764400000000001
 20
-2.4821400000000002
 30
0.0
 10
0.8764400000000001
 20
-2.4821400000000002
 30
0.0
 10
0.8764400000000001
 20
-2.4821400000000002
 30
0.0
 10
0.6656200000000001
 20
-3.3101800000000003
 30
0.0
 10
0.6656200000000001
 20
-3.3101800000000003
 30
0.0
 10
0.6656200000000001
 20
-3.3101800000000003
 30
0.0
 10
0.4497200000000001
 20
-3.0206200000000001
 30
0.0
 10
0.3989200000000001
 20
-2.6396200000000003
 30
0.0
 10
0.277
 20
-2.3221200000000004
 30
0.0
 10
0.277
 20
-2.3221200000000004
 30
0.0
 10
0.07888
 20
-2.3424400000000003
 30
0.0
 10
-0.03795
 20
-2.57104
 30
0.0
 10
-0.19797
 20
-2.6370800000000001
 30
0.0
 10
-0.19797
 20
-2.6370800000000001
 30
0.0
 10
-0.7110500000000001
 20
-2.1976600000000004
 30
0.0
 10
-1.9734300000000002
 20
-1.4509000000000001
 30
0.0
 10
-1.03363
 20
-0.9124200000000001
 30
0.0
 10
-1.03363
 20
-0.9124200000000001
 30
0.0
 10
-1.1022100000000001
 20
-0.84384
 30
0.0
 10
-1.1784100000000002
 20
-0.7879600000000001
 30
0.0
 10
-1.2850900000000001
 20
-0.7981200000000001
 30
0.0
 10
-1.2850900000000001
 20
-0.7981200000000001
 30
0.0
 10
-2.2350500000000002
 20
-1.4305800000000002
 30
0.0
 10
-3.7184100000000004
 20
-0.17074
 30
0.0
 10
-2.6008100000000001
 20
0.6471300000000001
 30
0.0
 10
-2.6008100000000001
 20
0.6471300000000001
 30
0.0
 10
-2.5220700000000003
 20
0.7614300000000001
 30
0.0
 10
-2.6135100000000002
 20
0.8884300000000001
 30
0.0
 10
-2.6338300000000001
 20
1.0052700000000001
 30
0.0
 10
-2.6338300000000001
 20
1.0052700000000001
 30
0.0
 10
-3.1875500000000003
 20
2.2346300000000001
 30
0.0
 10
-4.7953700000000001
 20
2.9458300000000004
 30
0.0
 10
-4.7902900000000006
 20
4.4037900000000008
 30
0.0
 10
-4.7902900000000006
 20
4.4037900000000008
 30
0.0
 10
-4.5820100000000004
 20
5.1073700000000004
 30
0.0
 10
-4.1908500000000002
 20
5.9887500000000005
 30
0.0
 10
-3.4161500000000005
 20
6.2300500000000003
 30
0.0
  0
SPLINE
  5
26
100
AcDbEntity
  8
Ebene 1
 62
     7
100
AcDbSpline
210
0.0
220
0.0
230
1.0
 70
     1
 71
     3
 72
   360
 73
   356
 74
     0
 42
0.0000000001
 43
0.0000000001
 40
0.0
 40
0.0
 40
0.0
 40
0.0
 40
0.0112359550561798
 40
0.0112359550561798
 40
0.0112359550561798
 40
0.0112359550561798
 40
0.0224719101123596
 40
0.0224719101123596
 40
0.0224719101123596
 40
0.0224719101123596
 40
0.0337078651685393
 40
0.0337078651685393
 40
0.0337078651685393
 40
0.0337078651685393
 40
0.0449438202247191
 40
0.0449438202247191
 40
0.0449438202247191
 40
0.0449438202247191
 40
0.0561797752808989
 40
0.0561797752808989
 40
0.0561797752808989
 40
0.0561797752808989
 40
0.0674157303370787
 40
0.0674157303370787
 40
0.0674157303370787
 40
0.0674157303370787
 40
0.0786516853932584
 40
0.0786516853932584
 40
0.0786516853932584
 40
0.0786516853932584
 40
0.0898876404494382
 40
0.0898876404494382
 40
0.0898876404494382
 40
0.0898876404494382
 40
0.101123595505618
 40
0.101123595505618
 40
0.101123595505618
 40
0.101123595505618
 40
0.1123595505617978
 40
0.1123595505617978
 40
0.1123595505617978
 40
0.1123595505617978
 40
0.1235955056179775
 40
0.1235955056179775
 40
0.1235955056179775
 40
0.1235955056179775
 40
0.1348314606741573
 40
0.1348314606741573
 40
0.1348314606741573
 40
0.1348314606741573
 40
0.1460674157303371
 40
0.1460674157303371
 40
0.1460674157303371
 40
0.1460674157303371
 40
0.1573033707865169
 40
0.1573033707865169
 40
0.1573033707865169
 40
0.1573033707865169
 40
0.1685393258426966
 40
0.1685393258426966
 40
0.1685393258426966
 40
0.1685393258426966
 40
0.1797752808988764
 40
0.1797752808988764
 40
0.1797752808988764
 40
0.1797752808988764
 40
0.1910112359550562
 40
0.1910112359550562
 40
0.1910112359550562
 40
0.1910112359550562
 40
0.202247191011236
 40
0.202247191011236
 40
0.202247191011236
 40
0.202247191011236
 40
0.2134831460674157
 40
0.2134831460674157
 40
0.2134831460674157
 40
0.2134831460674157
 40
0.2247191011235955
 40
0.2247191011235955
 40
0.2247191011235955
 40
0.2247191011235955
 40
0.2359550561797753
 40
0.2359550561797753
 40
0.2359550561797753
 40
0.2359550561797753
 40
0.2471910112359551
 40
0.2471910112359551
 40
0.2471910112359551
 40
0.2471910112359551
 40
0.2584269662921348
 40
0.2584269662921348
 40
0.2584269662921348
 40
0.2584269662921348
 40
0.2696629213483146
 40
0.2696629213483146
 40
0.2696629213483146
 40
0.2696629213483146
 40
0.2808988764044944
 40
0.2808988764044944
 40
0.2808988764044944
 40
0.2808988764044944
 40
0.2921348314606742
 40
0.2921348314606742
 40
0.2921348314606742
 40
0.2921348314606742
 40
0.303370786516854
 40
0.303370786516854
 40
0.303370786516854
 40
0.303370786516854
 40
0.3146067415730338
 40
0.3146067415730338
 40
0.3146067415730338
 40
0.3146067415730338
 40
0.3258426966292136
 40
0.3258426966292136
 40
0.3258426966292136
 40
0.3258426966292136
 40
0.3370786516853934
 40
0.3370786516853934
 40
0.3370786516853934
 40
0.3370786516853934
 40
0.3483146067415732
 40
0.3483146067415732
 40
0.3483146067415732
 40
0.3483146067415732
 40
0.359550561797753
 40
0.359550561797753
 40
0.359550561797753
 40
0.359550561797753
 40
0.3707865168539328
 40
0.3707865168539328
 40
0.3707865168539328
 40
0.3707865168539328
 40
0.3820224719101126
 40
0.3820224719101126
 40
0.3820224719101126
 40
0.3820224719101126
 40
0.3932584269662924
 40
0.3932584269662924
 40
0.3932584269662924
 40
0.3932584269662924
 40
0.4044943820224722
 40
0.4044943820224722
 40
0.4044943820224722
 40
0.4044943820224722
 40
0.415730337078652
 40
0.415730337078652
 40
0.415730337078652
 40
0.415730337078652
 40
0.4269662921348318
 40
0.4269662921348318
 40
0.4269662921348318
 40
0.4269662921348318
 40
0.4382022471910116
 40
0.4382022471910116
 40
0.4382022471910116
 40
0.4382022471910116
 40
0.4494382022471914
 40
0.4494382022471914
 40
0.4494382022471914
 40
0.4494382022471914
 40
0.4606741573033713
 40
0.4606741573033713
 40
0.4606741573033713
 40
0.4606741573033713
 40
0.4719101123595511
 40
0.4719101123595511
 40
0.4719101123595511
 40
0.4719101123595511
 40
0.4831460674157309
 40
0.4831460674157309
 40
0.4831460674157309
 40
0.4831460674157309
 40
0.4943820224719107
 40
0.4943820224719107
 40
0.4943820224719107
 40
0.4943820224719107
 40
0.5056179775280905
 40
0.5056179775280905
 40
0.5056179775280905
 40
0.5056179775280905
 40
0.5168539325842703
 40
0.5168539325842703
 40
0.5168539325842703
 40
0.5168539325842703
 40
0.5280898876404501
 40
0.5280898876404501
 40
0.5280898876404501
 40
0.5280898876404501
 40
0.5393258426966299
 40
0.5393258426966299
 40
0.5393258426966299
 40
0.5393258426966299
 40
0.5505617977528097
 40
0.5505617977528097
 40
0.5505617977528097
 40
0.5505617977528097
 40
0.5617977528089895
 40
0.5617977528089895
 40
0.5617977528089895
 40
0.5617977528089895
 40
0.5730337078651693
 40
0.5730337078651693
 40
0.5730337078651693
 40
0.5730337078651693
 40
0.5842696629213491
 40
0.5842696629213491
 40
0.5842696629213491
 40
0.5842696629213491
 40
0.5955056179775289
 40
0.5955056179775289
 40
0.5955056179775289
 40
0.5955056179775289
 40
0.6067415730337087
 40
0.6067415730337087
 40
0.6067415730337087
 40
0.6067415730337087
 40
0.6179775280898885
 40
0.6179775280898885
 40
0.6179775280898885
 40
0.6179775280898885
 40
0.6292134831460683
 40
0.6292134831460683
 40
0.6292134831460683
 40
0.6292134831460683
 40
0.6404494382022481
 40
0.6404494382022481
 40
0.6404494382022481
 40
0.6404494382022481
 40
0.6516853932584279
 40
0.6516853932584279
 40
0.6516853932584279
 40
0.6516853932584279
 40
0.6629213483146077
 40
0.6629213483146077
 40
0.6629213483146077
 40
0.6629213483146077
 40
0.6741573033707875
 40
0.6741573033707875
 40
0.6741573033707875
 40
0.6741573033707875
 40
0.6853932584269673
 40
0.6853932584269673
 40
0.6853932584269673
 40
0.6853932584269673
 40
0.6966292134831471
 40
0.6966292134831471
 40
0.6966292134831471
 40
0.6966292134831471
 40
0.7078651685393269
 40
0.7078651685393269
 40
0.7078651685393269
 40
0.7078651685393269
 40
0.7191011235955067
 40
0.7191011235955067
 40
0.7191011235955067
 40
0.7191011235955067
 40
0.7303370786516865
 40
0.7303370786516865
 40
0.7303370786516865
 40
0.7303370786516865
 40
0.7415730337078663
 40
0.7415730337078663
 40
0.7415730337078663
 40
0.7415730337078663
 40
0.7528089887640461
 40
0.7528089887640461
 40
0.7528089887640461
 40
0.7528089887640461
 40
0.7640449438202259
 40
0.7640449438202259
 40
0.7640449438202259
 40
0.7640449438202259
 40
0.7752808988764057
 40
0.7752808988764057
 40
0.7752808988764057
 40
0.7752808988764057
 40
0.7865168539325855
 40
0.7865168539325855
 40
0.7865168539325855
 40
0.7865168539325855
 40
0.7977528089887653
 40
0.7977528089887653
 40
0.7977528089887653
 40
0.7977528089887653
 40
0.8089887640449451
 40
0.8089887640449451
 40
0.8089887640449451
 40
0.8089887640449451
 40
0.8202247191011249
 40
0.8202247191011249
 40
0.8202247191011249
 40
0.8202247191011249
 40
0.8314606741573047
 40
0.8314606741573047
 40
0.8314606741573047
 40
0.8314606741573047
 40
0.8426966292134845
 40
0.8426966292134845
 40
0.8426966292134845
 40
0.8426966292134845
 40
0.8539325842696643
 40
0.8539325842696643
 40
0.8539325842696643
 40
0.8539325842696643
 40
0.8651685393258441
 40
0.8651685393258441
 40
0.8651685393258441
 40
0.8651685393258441
 40
0.876404494382024
 40
0.876404494382024
 40
0.876404494382024
 40
0.876404494382024
 40
0.8876404494382038
 40
0.8876404494382038
 40
0.8876404494382038
 40
0.8876404494382038
 40
0.8988764044943836
 40
0.8988764044943836
 40
0.8988764044943836
 40
0.8988764044943836
 40
0.9101123595505634
 40
0.9101123595505634
 40
0.9101123595505634
 40
0.9101123595505634
 40
0.9213483146067432
 40
0.9213483146067432
 40
0.9213483146067432
 40
0.9213483146067432
 40
0.932584269662923
 40
0.932584269662923
 40
0.932584269662923
 40
0.932584269662923
 40
0.9438202247191028
 40
0.9438202247191028
 40
0.9438202247191028
 40
0.9438202247191028
 40
0.9550561797752826
 40
0.9550561797752826
 40
0.9550561797752826
 40
0.9550561797752826
 40
0.9662921348314624
 40
0.9662921348314624
 40
0.9662921348314624
 40
0.9662921348314624
 40
0.9775280898876422
 40
0.9775280898876422
 40
0.9775280898876422
 40
0.9775280898876422
 40
0.988764044943822
 40
0.988764044943822
 40
0.988764044943822
 40
0.988764044943822
 40
1.0
 40
1.0
 40
1.0
 40
1.0
 10
2.67476
 20
2.9280500000000003
 30
0.0
 10
2.8779600000000003
 20
2.8569300000000002
 30
0.0
 10
3.0583000000000005
 20
2.6588100000000003
 30
0.0
 10
3.1726000000000001
 20
2.4937100000000001
 30
0.0
 10
3.1726000000000001
 20
2.4937100000000001
 30
0.0
 10
3.4697800000000001
 20
2.0365100000000003
 30
0.0
 10
3.6552000000000002
 20
1.52597
 30
0.0
 10
3.7187000000000001
 20
0.9900300000000001
 30
0.0
 10
3.7187000000000001
 20
0.9900300000000001
 30
0.0
 10
3.8279200000000002
 20
0.8858900000000001
 30
0.0
 10
3.7161600000000004
 20
1.1652900000000002
 30
0.0
 10
3.7364800000000002
 20
1.23133
 30
0.0
 10
3.7364800000000002
 20
1.23133
 30
0.0
 10
3.7364800000000002
 20
1.23133
 30
0.0
 10
3.6425000000000005
 20
1.6758300000000002
 30
0.0
 10
3.6425000000000005
 20
1.6758300000000002
 30
0.0
 10
3.6425000000000005
 20
1.6758300000000002
 30
0.0
 10
3.8152200000000005
 20
1.2618100000000001
 30
0.0
 10
3.9600000000000004
 20
0.7944500000000001
 30
0.0
 10
3.9320600000000003
 20
0.32455
 30
0.0
 10
3.9320600000000003
 20
0.32455
 30
0.0
 10
3.9752400000000003
 20
0.31439
 30
0.0
 10
3.9676200000000001
 20
0.39313
 30
0.0
 10
3.9803200000000003
 20
0.42615
 30
0.0
 10
3.9803200000000003
 20
0.42615
 30
0.0
 10
3.9803200000000003
 20
0.4642500000000001
 30
0.0
 10
4.0387400000000007
 20
0.56077
 30
0.0
 10
4.0539800000000001
 20
0.47695
 30
0.0
 10
4.0539800000000001
 20
0.47695
 30
0.0
 10
4.0539800000000001
 20
0.47695
 30
0.0
 10
4.0717600000000003
 20
0.4312300000000001
 30
0.0
 10
4.0717600000000003
 20
0.4312300000000001
 30
0.0
 10
4.0717600000000003
 20
0.4312300000000001
 30
0.0
 10
4.0997000000000003
 20
0.3372500000000001
 30
0.0
 10
4.1200200000000002
 20
0.24581
 30
0.0
 10
4.0514400000000004
 20
0.16199
 30
0.0
 10
4.0514400000000004
 20
0.16199
 30
0.0
 10
3.8787200000000004
 20
0.00197
 30
0.0
 10
3.5663000000000005
 20
0.23819
 30
0.0
 10
3.4774000000000003
 20
0.11119
 30
0.0
 10
3.4774000000000003
 20
0.11119
 30
0.0
 10
3.7974400000000004
 20
-0.02342
 30
0.0
 10
4.1936800000000005
 20
-0.11232
 30
0.0
 10
4.1251000000000007
 20
-0.57206
 30
0.0
 10
4.1251000000000007
 20
-0.57206
 30
0.0
 10
4.2063800000000002
 20
-0.5619000000000001
 30
0.0
 10
4.34354
 20
-0.5111
 30
0.0
 10
4.41974
 20
-0.6431800000000001
 30
0.0
 10
4.41974
 20
-0.6431800000000001
 30
0.0
 10
4.468
 20
-1.8217400000000001
 30
0.0
 10
4.5797600000000003
 20
-2.9418800000000003
 30
0.0
 10
4.7245400000000002
 20
-4.1560000000000006
 30
0.0
 10
4.7245400000000002
 20
-4.1560000000000006
 30
0.0
 10
4.7245400000000002
 20
-4.1560000000000006
 30
0.0
 10
4.6000800000000002
 20
-3.8105600000000002
 30
0.0
 10
4.6000800000000002
 20
-3.8105600000000002
 30
0.0
 10
4.6000800000000002
 20
-3.8105600000000002
 30
0.0
 10
4.4857800000000001
 20
-3.3152600000000003
 30
0.0
 10
4.5137200000000002
 20
-3.8766000000000003
 30
0.0
 10
4.6153200000000005
 20
-4.0823400000000003
 30
0.0
 10
4.6153200000000005
 20
-4.0823400000000003
 30
0.0
 10
4.6610400000000007
 20
-4.2449000000000003
 30
0.0
 10
4.7626400000000002
 20
-4.3363400000000007
 30
0.0
 10
4.6356400000000004
 20
-4.4836600000000004
 30
0.0
 10
4.6356400000000004
 20
-4.4836600000000004
 30
0.0
 10
4.6356400000000004
 20
-4.4836600000000004
 30
0.0
 10
4.4603800000000007
 20
-3.9020000000000001
 30
0.0
 10
4.4603800000000007
 20
-3.9020000000000001
 30
0.0
 10
4.4603800000000007
 20
-3.9020000000000001
 30
0.0
 10
4.468
 20
-3.6581600000000001
 30
0.0
 10
4.3638600000000007
 20
-3.7800800000000003
 30
0.0
 10
4.4248200000000004
 20
-3.9528000000000003
 30
0.0
 10
4.4248200000000004
 20
-3.9528000000000003
 30
0.0
 10
4.4934000000000003
 20
-4.1763200000000005
 30
0.0
 10
4.468
 20
-4.34396
 30
0.0
 10
4.4603800000000007
 20
-4.5878000000000005
 30
0.0
 10
4.4603800000000007
 20
-4.5878000000000005
 30
0.0
 10
4.0717600000000003
 20
-4.6970200000000002
 30
0.0
 10
4.2978200000000006
 20
-4.1407600000000002
 30
0.0
 10
4.1200200000000002
 20
-3.8740600000000005
 30
0.0
 10
4.1200200000000002
 20
-3.8740600000000005
 30
0.0
 10
4.0031800000000004
 20
-3.5895800000000002
 30
0.0
 10
4.1454200000000005
 20
-4.4481000000000002
 30
0.0
 10
4.1632000000000007
 20
-4.6386000000000003
 30
0.0
 10
4.1632000000000007
 20
-4.6386000000000003
 30
0.0
 10
3.7187000000000001
 20
-4.6868600000000002
 30
0.0
 10
3.7364800000000002
 20
-4.2525200000000005
 30
0.0
 10
3.7187000000000001
 20
-3.9045400000000003
 30
0.0
 10
3.7187000000000001
 20
-3.9045400000000003
 30
0.0
 10
3.7187000000000001
 20
-3.9045400000000003
 30
0.0
 10
3.7187000000000001
 20
-3.7623000000000002
 30
0.0
 10
3.7187000000000001
 20
-3.7623000000000002
 30
0.0
 10
3.7187000000000001
 20
-3.7623000000000002
 30
0.0
 10
3.6882200000000003
 20
-3.5870400000000005
 30
0.0
 10
3.6501200000000003
 20
-3.7242000000000002
 30
0.0
 10
3.6348800000000003
 20
-3.8207200000000001
 30
0.0
 10
3.6348800000000003
 20
-3.8207200000000001
 30
0.0
 10
3.6348800000000003
 20
-3.8207200000000001
 30
0.0
 10
3.6069400000000003
 20
-4.2423600000000006
 30
0.0
 10
3.6069400000000003
 20
-4.2423600000000006
 30
0.0
 10
3.6069400000000003
 20
-4.2423600000000006
 30
0.0
 10
3.5104200000000003
 20
-4.8367200000000006
 30
0.0
 10
3.3935800000000005
 20
-3.7623000000000002
 30
0.0
 10
3.3554800000000005
 20
-3.8918400000000002
 30
0.0
 10
3.3554800000000005
 20
-3.8918400000000002
 30
0.0
 10
3.3554800000000005
 20
-3.8918400000000002
 30
0.0
 10
3.3504000000000005
 20
-4.1941000000000006
 30
0.0
 10
3.3504000000000005
 20
-4.1941000000000006
 30
0.0
 10
3.3504000000000005
 20
-4.1941000000000006
 30
0.0
 10
3.3504000000000005
 20
-4.1941000000000006
 30
0.0
 10
3.3402400000000001
 20
-4.4760400000000002
 30
0.0
 10
3.3402400000000001
 20
-4.4760400000000002
 30
0.0
 10
3.3402400000000001
 20
-4.4760400000000002
 30
0.0
 10
3.1624400000000001
 20
-4.2195
 30
0.0
 10
3.1980000000000004
 20
-3.8791400000000005
 30
0.0
 10
3.1472000000000002
 20
-3.5768800000000005
 30
0.0
 10
3.1472000000000002
 20
-3.5768800000000005
 30
0.0
 10
3.1345000000000001
 20
-3.5133800000000002
 30
0.0
 10
3.1268800000000003
 20
-3.4346400000000004
 30
0.0
 10
3.0760800000000001
 20
-3.4117800000000003
 30
0.0
 10
3.0760800000000001
 20
-3.4117800000000003
 30
0.0
 10
3.1446600000000005
 20
-4.1255200000000007
 30
0.0
 10
2.7712800000000004
 20
-3.5794200000000003
 30
0.0
 10
2.5401400000000001
 20
-3.15524
 30
0.0
 10
2.5401400000000001
 20
-3.15524
 30
0.0
 10
2.5401400000000001
 20
-3.15524
 30
0.0
 10
2.9008200000000004
 20
-3.4371800000000001
 30
0.0
 10
2.9008200000000004
 20
-3.4371800000000001
 30
0.0
 10
2.9008200000000004
 20
-3.4371800000000001
 30
0.0
 10
2.7408000000000001
 20
-2.8453600000000003
 30
0.0
 10
2.12866
 20
-3.3152600000000003
 30
0.0
 10
2.1947000000000001
 20
-2.8047200000000001
 30
0.0
 10
2.1947000000000001
 20
-2.8047200000000001
 30
0.0
 10
2.0702400000000001
 20
-2.8606000000000003
 30
0.0
 10
2.1540600000000003
 20
-3.0917400000000002
 30
0.0
 10
2.0118200000000002
 20
-3.0993600000000003
 30
0.0
 10
2.0118200000000002
 20
-3.0993600000000003
 30
0.0
 10
2.1312000000000002
 20
-2.7132800000000001
 30
0.0
 10
2.0270600000000001
 20
-2.3653000000000004
 30
0.0
 10
1.7629000000000001
 20
-2.05288
 30
0.0
 10
1.7629000000000001
 20
-2.05288
 30
0.0
 10
1.7654400000000001
 20
-2.2865600000000001
 30
0.0
 10
2.0550000000000002
 20
-2.5050000000000003
 30
0.0
 10
1.9711800000000002
 20
-2.7640800000000003
 30
0.0
 10
1.9711800000000002
 20
-2.7640800000000003
 30
0.0
 10
1.7425800000000002
 20
-2.52786
 30
0.0
 10
1.4225400000000001
 20
-2.2662400000000003
 30
0.0
 10
1.1152000000000002
 20
-2.2129000000000003
 30
0.0
 10
1.1152000000000002
 20
-2.2129000000000003
 30
0.0
 10
1.0872600000000001
 20
-2.0376400000000001
 30
0.0
 10
1.1812400000000001
 20
-1.8750800000000001
 30
0.0
 10
1.2117200000000001
 20
-1.7201400000000002
 30
0.0
 10
1.2117200000000001
 20
-1.7201400000000002
 30
0.0
 10
1.2218800000000001
 20
-1.6642600000000001
 30
0.0
 10
1.23204
 20
-1.5372600000000001
 30
0.0
 10
1.18886
 20
-1.5525000000000002
 30
0.0
 10
1.18886
 20
-1.5525000000000002
 30
0.0
 10
1.0821800000000001
 20
-2.1087600000000002
 30
0.0
 10
0.38368
 20
-2.1646400000000003
 30
0.0
 10
0.7697600000000001
 20
-1.5702800000000001
 30
0.0
 10
0.7697600000000001
 20
-1.5702800000000001
 30
0.0
 10
0.4395600000000001
 20
-1.8039600000000002
 30
0.0
 10
0.4954400000000001
 20
-1.9614400000000001
 30
0.0
 10
-0.19543
 20
-2.4770600000000003
 30
0.0
 10
-0.19543
 20
-2.4770600000000003
 30
0.0
 10
-0.26655
 20
-2.4059400000000002
 30
0.0
 10
-0.40879
 20
-2.3653000000000004
 30
0.0
 10
-0.34783
 20
-2.23576
 30
0.0
 10
-0.34783
 20
-2.23576
 30
0.0
 10
-0.34783
 20
-2.23576
 30
0.0
 10
-0.34529
 20
-2.19258
 30
0.0
 10
-0.34529
 20
-2.19258
 30
0.0
 10
-0.34529
 20
-2.19258
 30
0.0
 10
-0.34529
 20
-2.19258
 30
0.0
 10
-0.30719
 20
-2.0986000000000002
 30
0.0
 10
-0.30719
 20
-2.0986000000000002
 30
0.0
 10
-0.30719
 20
-2.0986000000000002
 30
0.0
 10
-0.26401
 20
-1.9919200000000001
 30
0.0
 10
-0.07351
 20
-1.9411200000000002
 30
0.0
 10
-0.10399
 20
-1.8242800000000001
 30
0.0
 10
-0.10399
 20
-1.8242800000000001
 30
0.0
 10
-0.5002300000000001
 20
-2.3018000000000001
 30
0.0
 10
-0.8990100000000001
 20
-1.8496800000000002
 30
0.0
 10
-1.0488700000000002
 20
-1.3924800000000002
 30
0.0
 10
-1.0488700000000002
 20
-1.3924800000000002
 30
0.0
 10
-0.80249
 20
-0.9149600000000001
 30
0.0
 10
-0.26655
 20
-1.37216
 30
0.0
 10
0.05348
 20
-1.4407400000000001
 30
0.0
 10
0.05348
 20
-1.4407400000000001
 30
0.0
 10
-0.28941
 20
-1.1105400000000001
 30
0.0
 10
-0.71613
 20
-0.8514600000000001
 30
0.0
 10
-1.1733300000000002
 20
-0.69906
 30
0.0
 10
-1.1733300000000002
 20
-0.69906
 30
0.0
 10
-1.16571
 20
-0.6076200000000001
 30
0.0
 10
-0.9777500000000001
 20
-0.53142
 30
0.0
 10
-1.03363
 20
-0.46284
 30
0.0
 10
-1.03363
 20
-0.46284
 30
0.0
 10
-1.5594100000000002
 20
-0.7143000000000001
 30
0.0
 10
-2.56271
 20
-0.97084
 30
0.0
 10
-2.7608300000000003
 20
-0.16058
 30
0.0
 10
-2.7608300000000003
 20
-0.16058
 30
0.0
 10
-2.7862300000000002
 20
0.33979
 30
0.0
 10
-2.2833100000000002
 20
0.7157100000000001
 30
0.0
 10
-1.8210300000000001
 20
0.59633
 30
0.0
 10
-1.8210300000000001
 20
0.59633
 30
0.0
 10
-1.9454900000000002
 20
0.7106300000000001
 30
0.0
 10
-2.1690100000000001
 20
0.7131700000000001
 30
0.0
 10
-2.3239500000000004
 20
0.6750700000000001
 30
0.0
 10
-2.3239500000000004
 20
0.6750700000000001
 30
0.0
 10
-2.3747500000000001
 20
1.3659500000000002
 30
0.0
 10
-2.3925300000000003
 20
2.3006700000000002
 30
0.0
 10
-1.5619500000000002
 20
2.5597500000000002
 30
0.0
 10
-1.5619500000000002
 20
2.5597500000000002
 30
0.0
 10
-0.9701300000000001
 20
2.6232500000000001
 30
0.0
 10
-0.20051
 20
2.34131
 30
0.0
 10
-0.11161
 20
2.1330300000000002
 30
0.0
 10
-0.11161
 20
2.1330300000000002
 30
0.0
 10
-0.06335
 20
2.0161900000000004
 30
0.0
 10
0.34812
 20
2.0136500000000002
 30
0.0
 10
0.4167
 20
2.0771500000000001
 30
0.0
 10
0.4167
 20
2.0771500000000001
 30
0.0
 10
0.4167
 20
2.0771500000000001
 30
0.0
 10
0.21858
 20
2.1330300000000002
 30
0.0
 10
0.21858
 20
2.1330300000000002
 30
0.0
 10
0.21858
 20
2.1330300000000002
 30
0.0
 10
-0.05827
 20
2.4505300000000001
 30
0.0
 10
-0.44181
 20
2.5267300000000001
 30
0.0
 10
-0.8405900000000001
 20
2.6080100000000002
 30
0.0
 10
-0.8405900000000001
 20
2.6080100000000002
 30
0.0
 10
-0.6678700000000001
 20
2.7934300000000003
 30
0.0
 10
-0.31481
 20
2.6892900000000002
 30
0.0
 10
-0.13955
 20
2.7324700000000002
 30
0.0
 10
-0.13955
 20
2.7324700000000002
 30
0.0
 10
-0.8964700000000001
 20
2.84423
 30
0.0
 10
-1.6686300000000001
 20
2.6283300000000001
 30
0.0
 10
-2.36205
 20
2.33623
 30
0.0
 10
-2.36205
 20
2.33623
 30
0.0
 10
-2.3417300000000001
 20
2.7324700000000002
 30
0.0
 10
-2.7709900000000003
 20
2.6054700000000004
 30
0.0
 10
-3.0453100000000002
 20
3.0042500000000003
 30
0.0
 10
-3.0453100000000002
 20
3.0042500000000003
 30
0.0
 10
-2.98943
 20
2.8289900000000001
 30
0.0
 10
-2.8268700000000004
 20
2.6791300000000002
 30
0.0
 10
-2.7151100000000001
 20
2.5114900000000002
 30
0.0
 10
-2.7151100000000001
 20
2.5114900000000002
 30
0.0
 10
-2.27569
 20
2.1457300000000004
 30
0.0
 10
-2.5754100000000002
 20
1.65551
 30
0.0
 10
-2.4763500000000001
 20
1.2033900000000002
 30
0.0
 10
-2.4763500000000001
 20
1.2033900000000002
 30
0.0
 10
-2.5449300000000004
 20
1.0738500000000002
 30
0.0
 10
-2.5601700000000003
 20
1.27959
 30
0.0
 10
-2.5855700000000001
 20
1.32023
 30
0.0
 10
-2.5855700000000001
 20
1.32023
 30
0.0
 10
-2.8573500000000003
 20
1.7520300000000002
 30
0.0
 10
-3.3501100000000004
 20
1.9882500000000001
 30
0.0
 10
-3.6091900000000003
 20
2.4479900000000003
 30
0.0
 10
-3.6091900000000003
 20
2.4479900000000003
 30
0.0
 10
-3.3018500000000004
 20
2.2473300000000003
 30
0.0
 10
-3.0148300000000003
 20
1.9552300000000002
 30
0.0
 10
-2.7328900000000003
 20
1.69869
 30
0.0
 10
-2.7328900000000003
 20
1.69869
 30
0.0
 10
-3.1519900000000001
 20
2.3743300000000001
 30
0.0
 10
-4.0816300000000005
 20
2.80105
 30
0.0
 10
-4.3356300000000001
 20
3.6138500000000002
 30
0.0
 10
-4.3356300000000001
 20
3.6138500000000002
 30
0.0
 10
-4.4473900000000004
 20
3.6595700000000004
 30
0.0
 10
-4.3305500000000006
 20
3.4639900000000003
 30
0.0
 10
-4.3026100000000005
 20
3.4208100000000004
 30
0.0
 10
-4.3026100000000005
 20
3.4208100000000004
 30
0.0
 10
-4.3026100000000005
 20
3.4208100000000004
 30
0.0
 10
-4.2238700000000007
 20
3.2531700000000003
 30
0.0
 10
-4.2238700000000007
 20
3.2531700000000003
 30
0.0
 10
-4.2238700000000007
 20
3.2531700000000003
 30
0.0
 10
-4.52867
 20
3.5046300000000001
 30
0.0
 10
-4.72933
 20
3.9211900000000002
 30
0.0
 10
-4.6988500000000002
 20
4.3199700000000005
 30
0.0
 10
-4.6988500000000002
 20
4.3199700000000005
 30
0.0
 10
-4.6988500000000002
 20
4.3199700000000005
 30
0.0
 10
-4.6683700000000004
 20
4.49777
 30
0.0
 10
-4.6683700000000004
 20
4.49777
 30
0.0
 10
-4.6683700000000004
 20
4.49777
 30
0.0
 10
-4.5845500000000001
 20
4.8660700000000006
 30
0.0
 10
-4.5159700000000003
 20
3.6138500000000002
 30
0.0
 10
-4.4600900000000001
 20
4.0659700000000001
 30
0.0
 10
-4.4600900000000001
 20
4.0659700000000001
 30
0.0
 10
-4.6683700000000004
 20
4.7035100000000005
 30
0.0
 10
-4.2899100000000008
 20
5.4401100000000007
 30
0.0
 10
-3.7742900000000001
 20
5.8261900000000004
 30
0.0
 10
-3.7742900000000001
 20
5.8261900000000004
 30
0.0
 10
-4.0232100000000006
 20
5.2978700000000005
 30
0.0
 10
-4.3254700000000001
 20
4.5130100000000004
 30
0.0
 10
-4.1705300000000003
 20
4.0812100000000004
 30
0.0
 10
-4.1705300000000003
 20
4.0812100000000004
 30
0.0
 10
-4.1806900000000002
 20
4.2412300000000007
 30
0.0
 10
-4.13497
 20
4.4012500000000001
 30
0.0
 10
-4.10703
 20
4.5612700000000004
 30
0.0
 10
-4.10703
 20
4.5612700000000004
 30
0.0
 10
-4.09687
 20
4.6730300000000007
 30
0.0
 10
-4.0714700000000006
 20
4.7695500000000006
 30
0.0
 10
-4.0435300000000005
 20
4.8660700000000006
 30
0.0
 10
-4.0435300000000005
 20
4.8660700000000006
 30
0.0
 10
-4.0435300000000005
 20
4.8660700000000006
 30
0.0
 10
-3.9343100000000004
 20
5.1530900000000006
 30
0.0
 10
-3.9343100000000004
 20
5.1530900000000006
 30
0.0
 10
-3.9343100000000004
 20
5.1530900000000006
 30
0.0
 10
-3.9241500000000005
 20
4.7212900000000007
 30
0.0
 10
-4.0511500000000007
 20
4.3047300000000002
 30
0.0
 10
-4.0054300000000005
 20
3.8729300000000002
 30
0.0
 10
-4.0054300000000005
 20
3.8729300000000002
 30
0.0
 10
-4.0054300000000005
 20
3.8729300000000002
 30
0.0
 10
-3.9343100000000004
 20
4.2412300000000007
 30
0.0
 10
-3.9343100000000004
 20
4.2412300000000007
 30
0.0
 10
-3.9343100000000004
 20
4.2412300000000007
 30
0.0
 10
-3.7184100000000004
 20
3.7154500000000001
 30
0.0
 10
-3.3450300000000004
 20
3.2506300000000001
 30
0.0
 10
-3.1494500000000003
 20
2.7400900000000004
 30
0.0
 10
-3.1494500000000003
 20
2.7400900000000004
 30
0.0
 10
-3.1342100000000004
 20
2.9051900000000002
 30
0.0
 10
-3.2078700000000002
 20
3.0906100000000003
 30
0.0
 10
-3.2688300000000003
 20
3.2531700000000003
 30
0.0
 10
-3.2688300000000003
 20
3.2531700000000003
 30
0.0
 10
-3.3577300000000001
 20
3.3750900000000001
 30
0.0
 10
-3.2408900000000003
 20
3.3166700000000002
 30
0.0
 10
-3.1723100000000004
 20
3.2684100000000003
 30
0.0
 10
-3.1723100000000004
 20
3.2684100000000003
 30
0.0
 10
-3.1723100000000004
 20
3.2684100000000003
 30
0.0
 10
-2.60589
 20
2.9636100000000001
 30
0.0
 10
-2.60589
 20
2.9636100000000001
 30
0.0
 10
-2.60589
 20
2.9636100000000001
 30
0.0
 10
-2.6465300000000003
 20
3.0753700000000004
 30
0.0
 10
-2.8344900000000002
 20
3.1693500000000001
 30
0.0
 10
-2.8573500000000003
 20
3.2811100000000004
 30
0.0
 10
-2.8573500000000003
 20
3.2811100000000004
 30
0.0
 10
-2.5804900000000002
 20
3.2455500000000002
 30
0.0
 10
-2.4103100000000004
 20
3.0575900000000003
 30
0.0
 10
-2.3772900000000003
 20
2.7985100000000003
 30
0.0
 10
-2.3772900000000003
 20
2.7985100000000003
 30
0.0
 10
-1.9708900000000003
 20
3.3166700000000002
 30
0.0
 10
-1.2241300000000002
 20
3.4843100000000002
 30
0.0
 10
-0.56881
 20
3.3928700000000003
 30
0.0
 10
-0.56881
 20
3.3928700000000003
 30
0.0
 10
-0.56881
 20
3.3928700000000003
 30
0.0
 10
-0.88885
 20
3.5198700000000005
 30
0.0
 10
-0.88885
 20
3.5198700000000005
 30
0.0
 10
-0.88885
 20
3.5198700000000005
 30
0.0
 10
0.09412
 20
4.0329500000000005
 30
0.0
 10
1.4073000000000002
 20
3.6341700000000001
 30
0.0
 10
2.0575400000000004
 20
2.7070700000000003
 30
0.0
 10
2.0575400000000004
 20
2.7070700000000003
 30
0.0
 10
2.0880200000000002
 20
2.8772500000000001
 30
0.0
 10
1.8010000000000002
 20
3.1947500000000004
 30
0.0
 10
1.6740000000000002
 20
3.3877900000000003
 30
0.0
 10
1.6740000000000002
 20
3.3877900000000003
 30
0.0
 10
2.0727800000000003
 20
3.3496900000000003
 30
0.0
 10
2.4004400000000001
 20
3.2176100000000001
 30
0.0
 10
2.67476
 20
2.9280500000000003
 30
0.0
  0
SPLINE
  5
27
100
AcDbEntity
  8
Ebene 1
 62
     7
100
AcDbSpline
210
0.0
220
0.0
230
1.0
 70
     1
 71
     3
 72
    48
 73
    44
 74
     0
 42
0.0000000001
 43
0.0000000001
 40
0.0
 40
0.0
 40
0.0
 40
0.0
 40
0.0909090909090909
 40
0.0909090909090909
 40
0.0909090909090909
 40
0.0909090909090909
 40
0.1818181818181818
 40
0.1818181818181818
 40
0.1818181818181818
 40
0.1818181818181818
 40
0.2727272727272727
 40
0.2727272727272727
 40
0.2727272727272727
 40
0.2727272727272727
 40
0.3636363636363637
 40
0.3636363636363637
 40
0.3636363636363637
 40
0.3636363636363637
 40
0.4545454545454546
 40
0.4545454545454546
 40
0.4545454545454546
 40
0.4545454545454546
 40
0.5454545454545455
 40
0.5454545454545455
 40
0.5454545454545455
 40
0.5454545454545455
 40
0.6363636363636365
 40
0.6363636363636365
 40
0.6363636363636365
 40
0.6363636363636365
 40
0.7272727272727274
 40
0.7272727272727274
 40
0.7272727272727274
 40
0.7272727272727274
 40
0.8181818181818183
 40
0.8181818181818183
 40
0.8181818181818183
 40
0.8181818181818183
 40
0.9090909090909093
 40
0.9090909090909093
 40
0.9090909090909093
 40
0.9090909090909093
 40
1.0
 40
1.0
 40
1.0
 40
1.0
 10
4.2038400000000005
 20
2.7883500000000003
 30
0.0
 10
4.0895400000000004
 20
2.4810100000000004
 30
0.0
 10
3.6958400000000005
 20
2.4429100000000004
 30
0.0
 10
3.4672400000000003
 20
2.2270100000000004
 30
0.0
 10
3.4672400000000003
 20
2.2270100000000004
 30
0.0
 10
3.3427800000000003
 20
2.42767
 30
0.0
 10
3.1903800000000002
 20
2.6537300000000004
 30
0.0
 10
3.0227400000000002
 20
2.8162900000000004
 30
0.0
 10
3.0227400000000002
 20
2.8162900000000004
 30
0.0
 10
3.4545400000000002
 20
2.9991700000000003
 30
0.0
 10
3.9879400000000005
 20
3.1033100000000005
 30
0.0
 10
4.3587800000000003
 20
3.3192100000000004
 30
0.0
 10
4.3587800000000003
 20
3.3192100000000004
 30
0.0
 10
4.2978200000000006
 20
3.3623900000000004
 30
0.0
 10
4.1276400000000004
 20
3.2760300000000004
 30
0.0
 10
4.0311200000000005
 20
3.3039700000000001
 30
0.0
 10
4.0311200000000005
 20
3.3039700000000001
 30
0.0
 10
4.16066
 20
3.5427300000000002
 30
0.0
 10
4.1403400000000001
 20
3.8119700000000005
 30
0.0
 10
4.3130600000000001
 20
4.0354900000000002
 30
0.0
 10
4.3130600000000001
 20
4.0354900000000002
 30
0.0
 10
4.2013000000000007
 20
4.0202500000000008
 30
0.0
 10
4.2521000000000004
 20
4.2285300000000001
 30
0.0
 10
4.1682800000000002
 20
4.3402900000000004
 30
0.0
 10
4.1682800000000002
 20
4.3402900000000004
 30
0.0
 10
4.1682800000000002
 20
4.3402900000000004
 30
0.0
 10
4.0793800000000005
 20
4.6120700000000001
 30
0.0
 10
4.0793800000000005
 20
4.6120700000000001
 30
0.0
 10
4.0793800000000005
 20
4.6120700000000001
 30
0.0
 10
4.17082
 20
4.4672900000000002
 30
0.0
 10
4.3003600000000004
 20
4.3072699999999999
 30
0.0
 10
4.3511600000000001
 20
4.1320100000000002
 30
0.0
 10
4.3511600000000001
 20
4.1320100000000002
 30
0.0
 10
4.41974
 20
3.7637100000000001
 30
0.0
 10
4.7245400000000002
 20
3.1896700000000004
 30
0.0
 10
4.2724200000000003
 20
2.9610700000000003
 30
0.0
 10
4.2724200000000003
 20
2.9610700000000003
 30
0.0
 10
4.2724200000000003
 20
2.9610700000000003
 30
0.0
 10
3.7288600000000005
 20
2.6156300000000003
 30
0.0
 10
3.7288600000000005
 20
2.6156300000000003
 30
0.0
 10
3.7288600000000005
 20
2.6156300000000003
 30
0.0
 10
3.7288600000000005
 20
2.6156300000000003
 30
0.0
 10
4.2038400000000005
 20
2.7883500000000003
 30
0.0
 10
4.2038400000000005
 20
2.7883500000000003
 30
0.0
  0
SPLINE
  5
28
100
AcDbEntity
  8
Ebene 1
 62
     7
100
AcDbSpline
210
0.0
220
0.0
230
1.0
 70
     1
 71
     3
 72
    16
 73
    12
 74
     0
 42
0.0000000001
 43
0.0000000001
 40
0.0
 40
0.0
 40
0.0
 40
0.0
 40
0.3333333333333333
 40
0.3333333333333333
 40
0.3333333333333333
 40
0.3333333333333333
 40
0.6666666666666666
 40
0.6666666666666666
 40
0.6666666666666666
 40
0.6666666666666666
 40
1.0
 40
1.0
 40
1.0
 40
1.0
 10
-3.8479500000000004
 20
4.2132900000000006
 30
0.0
 10
-3.8479500000000004
 20
4.2132900000000006
 30
0.0
 10
-3.0986500000000001
 20
3.3674700000000004
 30
0.0
 10
-3.0986500000000001
 20
3.3674700000000004
 30
0.0
 10
-3.0986500000000001
 20
3.3674700000000004
 30
0.0
 10
-3.1799300000000001
 20
3.3750900000000001
 30
0.0
 10
-3.2256500000000004
 20
3.4081100000000002
 30
0.0
 10
-3.3018500000000004
 20
3.4690700000000003
 30
0.0
 10
-3.3018500000000004
 20
3.4690700000000003
 30
0.0
 10
-3.5304500000000001
 20
3.6494100000000005
 30
0.0
 10
-3.7742900000000001
 20
3.9237300000000004
 30
0.0
 10
-3.8479500000000004
 20
4.2132900000000006
 30
0.0
  0
SPLINE
  5
29
100
AcDbEntity
  8
Ebene 1
100
AcDbSpline
210
0.0
220
0.0
230
1.0
 70
     1
 71
     3
 72
    32
 73
    28
 74
     0
 42
0.0000000001
 43
0.0000000001
 40
0.0
 40
0.0
 40
0.0
 40
0.0
 40
0.1428571428571429
 40
0.1428571428571429
 40
0.1428571428571429
 40
0.1428571428571429
 40
0.2857142857142857
 40
0.2857142857142857
 40
0.2857142857142857
 40
0.2857142857142857
 40
0.4285714285714286
 40
0.4285714285714286
 40
0.4285714285714286
 40
0.4285714285714286
 40
0.5714285714285714
 40
0.5714285714285714
 40
0.5714285714285714
 40
0.5714285714285714
 40
0.7142857142857142
 40
0.7142857142857142
 40
0.7142857142857142
 40
0.7142857142857142
 40
0.857142857142857
 40
0.857142857142857
 40
0.857142857142857
 40
0.857142857142857
 40
1.0
 40
1.0
 40
1.0
 40
1.0
 10
-0.16495
 20
3.0601300000000005
 30
0.0
 10
0.18302
 20
3.0779100000000001
 30
0.0
 10
0.46496
 20
2.7883500000000003
 30
0.0
 10
0.8205600000000001
 20
2.7832700000000004
 30
0.0
 10
0.8205600000000001
 20
2.7832700000000004
 30
0.0
 10
0.8180200000000001
 20
2.6791300000000002
 30
0.0
 10
0.63514
 20
2.7604100000000003
 30
0.0
 10
0.57418
 20
2.7019900000000003
 30
0.0
 10
0.57418
 20
2.7019900000000003
 30
0.0
 10
0.61736
 20
2.5724500000000003
 30
0.0
 10
0.7748400000000001
 20
2.47085
 30
0.0
 10
0.7723000000000001
 20
2.33623
 30
0.0
 10
0.7723000000000001
 20
2.33623
 30
0.0
 10
0.83072
 20
2.1838300000000004
 30
0.0
 10
0.9247000000000001
 20
2.00603
 30
0.0
 10
0.9501000000000001
 20
1.8637900000000001
 30
0.0
 10
0.9501000000000001
 20
1.8637900000000001
 30
0.0
 10
0.68086
 20
2.38449
 30
0.0
 10
0.1881
 20
2.9966300000000001
 30
0.0
 10
-0.48499
 20
2.8670900000000001
 30
0.0
 10
-0.48499
 20
2.8670900000000001
 30
0.0
 10
-0.6246900000000001
 20
2.9331300000000002
 30
0.0
 10
-0.50785
 20
2.9991700000000003
 30
0.0
 10
-0.36815
 20
3.0067900000000001
 30
0.0
 10
-0.36815
 20
3.0067900000000001
 30
0.0
 10
-0.36815
 20
3.0067900000000001
 30
0.0
 10
-0.16495
 20
3.0601300000000005
 30
0.0
 10
-0.16495
 20
3.0601300000000005
 30
0.0
  0
SPLINE
  5
2A
100
AcDbEntity
  8
Ebene 1
100
AcDbSpline
210
0.0
220
0.0
230
1.0
 70
     1
 71
     3
 72
    28
 73
    24
 74
     0
 42
0.0000000001
 43
0.0000000001
 40
0.0
 40
0.0
 40
0.0
 40
0.0
 40
0.1666666666666667
 40
0.1666666666666667
 40
0.1666666666666667
 40
0.1666666666666667
 40
0.3333333333333333
 40
0.3333333333333333
 40
0.3333333333333333
 40
0.3333333333333333
 40
0.5
 40
0.5
 40
0.5
 40
0.5
 40
0.6666666666666666
 40
0.6666666666666666
 40
0.6666666666666666
 40
0.6666666666666666
 40
0.8333333333333333
 40
0.8333333333333333
 40
0.8333333333333333
 40
0.8333333333333333
 40
1.0
 40
1.0
 40
1.0
 40
1.0
 10
1.52922
 20
2.8188300000000002
 30
0.0
 10
1.8314800000000002
 20
2.0339700000000001
 30
0.0
 10
2.50204
 20
1.3253100000000002
 30
0.0
 10
2.79922
 20
0.5023500000000001
 30
0.0
 10
2.79922
 20
0.5023500000000001
 30
0.0
 10
2.9744800000000002
 20
0.44901
 30
0.0
 10
3.1675200000000001
 20
0.41853
 30
0.0
 10
3.3224600000000004
 20
0.32201
 30
0.0
 10
3.3224600000000004
 20
0.32201
 30
0.0
 10
3.0303600000000004
 20
0.28391
 30
0.0
 10
2.6925400000000002
 20
0.37535
 30
0.0
 10
2.4233000000000002
 20
0.16707
 30
0.0
 10
2.4233000000000002
 20
0.16707
 30
0.0
 10
2.4233000000000002
 20
0.16707
 30
0.0
 10
2.3496400000000004
 20
0.19755
 30
0.0
 10
2.3496400000000004
 20
0.19755
 30
0.0
 10
2.3496400000000004
 20
0.19755
 30
0.0
 10
2.3496400000000004
 20
0.19755
 30
0.0
 10
2.4893400000000003
 20
0.38551
 30
0.0
 10
2.4893400000000003
 20
0.38551
 30
0.0
 10
2.4893400000000003
 20
0.38551
 30
0.0
 10
2.5782400000000001
 20
1.3405500000000001
 30
0.0
 10
1.6079600000000001
 20
1.9349100000000001
 30
0.0
 10
1.52922
 20
2.8188300000000002
 30
0.0
  0
SPLINE
  5
2B
100
AcDbEntity
  8
Ebene 1
100
AcDbSpline
210
0.0
220
0.0
230
1.0
 70
     1
 71
     3
 72
    84
 73
    80
 74
     0
 42
0.0000000001
 43
0.0000000001
 40
0.0
 40
0.0
 40
0.0
 40
0.0
 40
0.05
 40
0.05
 40
0.05
 40
0.05
 40
0.1
 40
0.1
 40
0.1
 40
0.1
 40
0.15
 40
0.15
 40
0.15
 40
0.15
 40
0.2
 40
0.2
 40
0.2
 40
0.2
 40
0.25
 40
0.25
 40
0.25
 40
0.25
 40
0.3
 40
0.3
 40
0.3
 40
0.3
 40
0.35
 40
0.35
 40
0.35
 40
0.35
 40
0.4
 40
0.4
 40
0.4
 40
0.4
 40
0.45
 40
0.45
 40
0.45
 40
0.45
 40
0.4999999999999999
 40
0.4999999999999999
 40
0.4999999999999999
 40
0.4999999999999999
 40
0.5499999999999999
 40
0.5499999999999999
 40
0.5499999999999999
 40
0.5499999999999999
 40
0.6
 40
0.6
 40
0.6
 40
0.6
 40
0.65
 40
0.65
 40
0.65
 40
0.65
 40
0.7000000000000001
 40
0.7000000000000001
 40
0.7000000000000001
 40
0.7000000000000001
 40
0.7500000000000001
 40
0.7500000000000001
 40
0.7500000000000001
 40
0.7500000000000001
 40
0.8000000000000002
 40
0.8000000000000002
 40
0.8000000000000002
 40
0.8000000000000002
 40
0.8500000000000002
 40
0.8500000000000002
 40
0.8500000000000002
 40
0.8500000000000002
 40
0.9000000000000002
 40
0.9000000000000002
 40
0.9000000000000002
 40
0.9000000000000002
 40
0.9500000000000003
 40
0.9500000000000003
 40
0.9500000000000003
 40
0.9500000000000003
 40
1.0
 40
1.0
 40
1.0
 40
1.0
 10
-0.7745500000000001
 20
2.13049
 30
0.0
 10
0.52846
 20
1.9933300000000003
 30
0.0
 10
0.8002400000000001
 20
-0.01326
 30
0.0
 10
2.2632800000000004
 20
0.06293
 30
0.0
 10
2.2632800000000004
 20
0.06293
 30
0.0
 10
2.2836000000000003
 20
-0.1809
 30
0.0
 10
2.5401400000000001
 20
-0.27234
 30
0.0
 10
2.6468200000000004
 20
-0.43998
 30
0.0
 10
2.6468200000000004
 20
-0.43998
 30
0.0
 10
2.5401400000000001
 20
-0.38156
 30
0.0
 10
2.38266
 20
-0.33838
 30
0.0
 10
2.2963
 20
-0.23678
 30
0.0
 10
2.2963
 20
-0.23678
 30
0.0
 10
2.0448400000000002
 20
0.00705
 30
0.0
 10
1.7044800000000002
 20
0.06293
 30
0.0
 10
1.3692000000000002
 20
0.08071
 30
0.0
 10
1.3692000000000002
 20
0.08071
 30
0.0
 10
1.2574400000000001
 20
0.07563
 30
0.0
 10
1.15076
 20
0.05277
 30
0.0
 10
1.0364600000000002
 20
0.07055
 30
0.0
 10
1.0364600000000002
 20
0.07055
 30
0.0
 10
1.0339200000000002
 20
0.16199
 30
0.0
 10
1.1990200000000002
 20
0.09595
 30
0.0
 10
1.2549000000000001
 20
0.14929
 30
0.0
 10
1.2549000000000001
 20
0.14929
 30
0.0
 10
0.9450200000000001
 20
0.45663
 30
0.0
 10
0.46496
 20
0.27121
 30
0.0
 10
0.11698
 20
0.14929
 30
0.0
 10
0.11698
 20
0.14929
 30
0.0
 10
-0.18527
 20
0.09849
 30
0.0
 10
-0.5230900000000001
 20
0.10103
 30
0.0
 10
-0.8329700000000001
 20
0.13405
 30
0.0
 10
-0.8329700000000001
 20
0.13405
 30
0.0
 10
-1.1504700000000001
 20
0.25343
 30
0.0
 10
-1.8057900000000002
 20
0.36265
 30
0.0
 10
-1.5543300000000002
 20
0.8630300000000001
 30
0.0
 10
-1.5543300000000002
 20
0.8630300000000001
 30
0.0
 10
-1.5111500000000002
 20
0.5912500000000001
 30
0.0
 10
-1.1987300000000001
 20
0.4439300000000001
 30
0.0
 10
-0.9371100000000001
 20
0.5252100000000001
 30
0.0
 10
-0.9371100000000001
 20
0.5252100000000001
 30
0.0
 10
-0.6704100000000001
 20
-0.04374
 30
0.0
 10
0.29732
 20
0.25851
 30
0.0
 10
0.74182
 20
0.5658500000000001
 30
0.0
 10
0.74182
 20
0.5658500000000001
 30
0.0
 10
0.7494400000000001
 20
0.6115700000000001
 30
0.0
 10
0.7494400000000001
 20
0.65983
 30
0.0
 10
0.72404
 20
0.70301
 30
0.0
 10
0.72404
 20
0.70301
 30
0.0
 10
0.4090800000000001
 20
0.6318900000000001
 30
0.0
 10
0.10174
 20
0.74365
 30
0.0
 10
-0.19289
 20
0.8223900000000001
 30
0.0
 10
-0.19289
 20
0.8223900000000001
 30
0.0
 10
-0.5002300000000001
 20
0.8808100000000001
 30
0.0
 10
-0.7999500000000001
 20
1.2465700000000002
 30
0.0
 10
-0.9447300000000001
 20
1.2465700000000002
 30
0.0
 10
-0.9447300000000001
 20
1.2465700000000002
 30
0.0
 10
-0.9447300000000001
 20
1.2465700000000002
 30
0.0
 10
-0.92949
 20
1.2618100000000001
 30
0.0
 10
-0.92949
 20
1.2618100000000001
 30
0.0
 10
-0.92949
 20
1.2618100000000001
 30
0.0
 10
-0.7974100000000001
 20
1.3811900000000001
 30
0.0
 10
-0.6475500000000001
 20
1.4751700000000001
 30
0.0
 10
-0.48499
 20
1.5386700000000002
 30
0.0
 10
-0.48499
 20
1.5386700000000002
 30
0.0
 10
-0.3122700000000001
 20
1.6732900000000002
 30
0.0
 10
-0.12177
 20
1.5920100000000001
 30
0.0
 10
0.0357
 20
1.4954900000000002
 30
0.0
 10
0.0357
 20
1.4954900000000002
 30
0.0
 10
-0.11923
 20
1.8917300000000001
 30
0.0
 10
-0.6272300000000001
 20
2.0669900000000001
 30
0.0
 10
-0.9980700000000001
 20
1.8917300000000001
 30
0.0
 10
-0.9980700000000001
 20
1.8917300000000001
 30
0.0
 10
-1.1860300000000001
 20
1.8434700000000002
 30
0.0
 10
-1.3079500000000002
 20
1.6301100000000002
 30
0.0
 10
-1.4882900000000001
 20
1.5920100000000001
 30
0.0
 10
-1.4882900000000001
 20
1.5920100000000001
 30
0.0
 10
-1.3511300000000002
 20
1.8383900000000002
 30
0.0
 10
-1.04379
 20
2.0314300000000003
 30
0.0
 10
-0.7745500000000001
 20
2.13049
 30
0.0
  0
SPLINE
  5
2C
100
AcDbEntity
  8
Ebene 1
100
AcDbSpline
210
0.0
220
0.0
230
1.0
 70
     1
 71
     3
 72
    36
 73
    32
 74
     0
 42
0.0000000001
 43
0.0000000001
 40
0.0
 40
0.0
 40
0.0
 40
0.0
 40
0.125
 40
0.125
 40
0.125
 40
0.125
 40
0.25
 40
0.25
 40
0.25
 40
0.25
 40
0.375
 40
0.375
 40
0.375
 40
0.375
 40
0.5
 40
0.5
 40
0.5
 40
0.5
 40
0.625
 40
0.625
 40
0.625
 40
0.625
 40
0.75
 40
0.75
 40
0.75
 40
0.75
 40
0.875
 40
0.875
 40
0.875
 40
0.875
 40
1.0
 40
1.0
 40
1.0
 40
1.0
 10
0.9043800000000001
 20
-0.092
 30
0.0
 10
1.5343000000000002
 20
-0.01326
 30
0.0
 10
2.0219800000000001
 20
-0.3079
 30
0.0
 10
2.50204
 20
-0.65588
 30
0.0
 10
2.50204
 20
-0.65588
 30
0.0
 10
2.7814400000000004
 20
-0.7727200000000001
 30
0.0
 10
2.7001600000000003
 20
-1.1003800000000001
 30
0.0
 10
2.8271600000000001
 20
-1.3239000000000001
 30
0.0
 10
2.8271600000000001
 20
-1.3239000000000001
 30
0.0
 10
2.9617800000000001
 20
-1.5652000000000001
 30
0.0
 10
2.7408000000000001
 20
-1.7074400000000001
 30
0.0
 10
2.71286
 20
-1.4051800000000001
 30
0.0
 10
2.71286
 20
-1.4051800000000001
 30
0.0
 10
2.4944200000000003
 20
-0.43998
 30
0.0
 10
0.9450200000000001
 20
0.34233
 30
0.0
 10
0.37606
 20
-0.6685800000000001
 30
0.0
 10
0.37606
 20
-0.6685800000000001
 30
0.0
 10
0.4090800000000001
 20
-0.7905000000000001
 30
0.0
 10
0.49036
 20
-0.90734
 30
0.0
 10
0.6046600000000001
 20
-0.9683000000000001
 30
0.0
 10
0.6046600000000001
 20
-0.9683000000000001
 30
0.0
 10
0.6046600000000001
 20
-0.9683000000000001
 30
0.0
 10
0.66054
 20
-1.0165600000000001
 30
0.0
 10
0.66054
 20
-1.0165600000000001
 30
0.0
 10
0.66054
 20
-1.0165600000000001
 30
0.0
 10
0.47766
 20
-0.9886200000000001
 30
0.0
 10
0.31002
 20
-0.8514600000000001
 30
0.0
 10
0.2008
 20
-0.7016000000000001
 30
0.0
 10
0.2008
 20
-0.7016000000000001
 30
0.0
 10
0.2897
 20
-0.38918
 30
0.0
 10
0.5665600000000001
 20
-0.07676
 30
0.0
 10
0.9043800000000001
 20
-0.092
 30
0.0
  0
SPLINE
  5
2D
100
AcDbEntity
  8
Ebene 1
100
AcDbSpline
210
0.0
220
0.0
230
1.0
 70
     1
 71
     3
 72
    16
 73
    12
 74
     0
 42
0.0000000001
 43
0.0000000001
 40
0.0
 40
0.0
 40
0.0
 40
0.0
 40
0.3333333333333333
 40
0.3333333333333333
 40
0.3333333333333333
 40
0.3333333333333333
 40
0.6666666666666666
 40
0.6666666666666666
 40
0.6666666666666666
 40
0.6666666666666666
 40
1.0
 40
1.0
 40
1.0
 40
1.0
 10
3.3377000000000003
 20
-0.5238
 30
0.0
 10
3.8863400000000001
 20
-0.9378200000000001
 30
0.0
 10
4.0793800000000005
 20
-1.7658600000000002
 30
0.0
 10
4.1784400000000002
 20
-2.4313400000000001
 30
0.0
 10
4.1784400000000002
 20
-2.4313400000000001
 30
0.0
 10
4.1911400000000008
 20
-2.5151600000000003
 30
0.0
 10
4.1835200000000006
 20
-2.6548600000000002
 30
0.0
 10
4.1352600000000006
 20
-2.6345400000000003
 30
0.0
 10
4.1352600000000006
 20
-2.6345400000000003
 30
0.0
 10
3.9396800000000005
 20
-1.9208000000000001
 30
0.0
 10
3.6628200000000004
 20
-1.1842000000000001
 30
0.0
 10
3.3377000000000003
 20
-0.5238
 30
0.0
  0
SPLINE
  5
2E
100
AcDbEntity
  8
Ebene 1
100
AcDbSpline
210
0.0
220
0.0
230
1.0
 70
     1
 71
     3
 72
    32
 73
    28
 74
     0
 42
0.0000000001
 43
0.0000000001
 40
0.0
 40
0.0
 40
0.0
 40
0.0
 40
0.1428571428571429
 40
0.1428571428571429
 40
0.1428571428571429
 40
0.1428571428571429
 40
0.2857142857142857
 40
0.2857142857142857
 40
0.2857142857142857
 40
0.2857142857142857
 40
0.4285714285714286
 40
0.4285714285714286
 40
0.4285714285714286
 40
0.4285714285714286
 40
0.5714285714285714
 40
0.5714285714285714
 40
0.5714285714285714
 40
0.5714285714285714
 40
0.7142857142857142
 40
0.7142857142857142
 40
0.7142857142857142
 40
0.7142857142857142
 40
0.857142857142857
 40
0.857142857142857
 40
0.857142857142857
 40
0.857142857142857
 40
1.0
 40
1.0
 40
1.0
 40
1.0
 10
1.14568
 20
-0.6381
 30
0.0
 10
1.6028800000000001
 20
-0.6228600000000001
 30
0.0
 10
1.9457800000000001
 20
-0.99116
 30
0.0
 10
2.2455000000000003
 20
-1.29596
 30
0.0
 10
2.2455000000000003
 20
-1.29596
 30
0.0
 10
2.3420200000000002
 20
-1.4763000000000002
 30
0.0
 10
2.59348
 20
-1.5982200000000002
 30
0.0
 10
2.6468200000000004
 20
-1.7201400000000002
 30
0.0
 10
2.6468200000000004
 20
-1.7201400000000002
 30
0.0
 10
2.3471000000000002
 20
-1.7404600000000001
 30
0.0
 10
2.1896200000000001
 20
-1.4432800000000001
 30
0.0
 10
2.0219800000000001
 20
-1.2477
 30
0.0
 10
2.0219800000000001
 20
-1.2477
 30
0.0
 10
1.7527400000000002
 20
-1.1029200000000001
 30
0.0
 10
1.4479400000000002
 20
-0.99116
 30
0.0
 10
1.1329800000000001
 20
-1.0318000000000001
 30
0.0
 10
1.1329800000000001
 20
-1.0318000000000001
 30
0.0
 10
1.1329800000000001
 20
-1.0318000000000001
 30
0.0
 10
0.9577200000000001
 20
-0.9835400000000001
 30
0.0
 10
0.9577200000000001
 20
-0.9835400000000001
 30
0.0
 10
0.9577200000000001
 20
-0.9835400000000001
 30
0.0
 10
0.8789800000000001
 20
-0.94798
 30
0.0
 10
0.8154800000000001
 20
-0.8692400000000001
 30
0.0
 10
0.80786
 20
-0.78034
 30
0.0
 10
0.80786
 20
-0.78034
 30
0.0
 10
0.8637400000000001
 20
-0.63048
 30
0.0
 10
1.0364600000000002
 20
-0.6711200000000001
 30
0.0
 10
1.14568
 20
-0.6381
 30
0.0
  0
SPLINE
  5
2F
100
AcDbEntity
  8
Ebene 1
 62
     7
100
AcDbSpline
210
0.0
220
0.0
230
1.0
 70
     1
 71
     3
 72
    12
 73
     8
 74
     0
 42
0.0000000001
 43
0.0000000001
 40
0.0
 40
0.0
 40
0.0
 40
0.0
 40
0.5
 40
0.5
 40
0.5
 40
0.5
 40
1.0
 40
1.0
 40
1.0
 40
1.0
 10
0.5056000000000001
 20
-2.0122400000000003
 30
0.0
 10
1.0034400000000001
 20
-2.0478000000000001
 30
0.0
 10
0.6859400000000001
 20
-2.6726400000000003
 30
0.0
 10
0.66054
 20
-2.9850600000000003
 30
0.0
 10
0.66054
 20
-2.9850600000000003
 30
0.0
 10
0.5462400000000001
 20
-2.6929600000000002
 30
0.0
 10
0.3786000000000001
 20
-2.3424400000000003
 30
0.0
 10
0.5056000000000001
 20
-2.0122400000000003
 30
0.0
  0
SPLINE
  5
30
100
AcDbEntity
  8
Ebene 1
 62
     7
100
AcDbSpline
210
0.0
220
0.0
230
1.0
 70
     1
 71
     3
 72
    16
 73
    12
 74
     0
 42
0.0000000001
 43
0.0000000001
 40
0.0
 40
0.0
 40
0.0
 40
0.0
 40
0.3333333333333333
 40
0.3333333333333333
 40
0.3333333333333333
 40
0.3333333333333333
 40
0.6666666666666666
 40
0.6666666666666666
 40
0.6666666666666666
 40
0.6666666666666666
 40
1.0
 40
1.0
 40
1.0
 40
1.0
 10
1.0821800000000001
 20
-2.2865600000000001
 30
0.0
 10
1.1685400000000001
 20
-2.2814800000000002
 30
0.0
 10
1.2396600000000002
 20
-2.35514
 30
0.0
 10
1.27268
 20
-2.4288000000000003
 30
0.0
 10
1.27268
 20
-2.4288000000000003
 30
0.0
 10
1.27268
 20
-2.4288000000000003
 30
0.0
 10
1.11012
 20
-2.7463000000000002
 30
0.0
 10
1.11012
 20
-2.7463000000000002
 30
0.0
 10
1.11012
 20
-2.7463000000000002
 30
0.0
 10
1.0517000000000001
 20
-2.6193000000000004
 30
0.0
 10
0.9831200000000001
 20
-2.4161000000000001
 30
0.0
 10
1.0821800000000001
 20
-2.2865600000000001
 30
0.0
  0
SPLINE
  5
31
100
AcDbEntity
  8
Ebene 1
 62
     7
100
AcDbSpline
210
0.0
220
0.0
230
1.0
 70
     1
 71
     3
 72
    16
 73
    12
 74
     0
 42
0.0000000001
 43
0.0000000001
 40
0.0
 40
0.0
 40
0.0
 40
0.0
 40
0.3333333333333333
 40
0.3333333333333333
 40
0.3333333333333333
 40
0.3333333333333333
 40
0.6666666666666666
 40
0.6666666666666666
 40
0.6666666666666666
 40
0.6666666666666666
 40
1.0
 40
1.0
 40
1.0
 40
1.0
 10
2.1210400000000003
 20
-3.1501600000000001
 30
0.0
 10
2.1972400000000003
 20
-3.1501600000000001
 30
0.0
 10
2.24804
 20
-3.2162000000000002
 30
0.0
 10
2.3090000000000002
 20
-3.2492200000000002
 30
0.0
 10
2.3090000000000002
 20
-3.2492200000000002
 30
0.0
 10
2.3090000000000002
 20
-3.2492200000000002
 30
0.0
 10
2.3090000000000002
 20
-4.05694
 30
0.0
 10
2.3090000000000002
 20
-4.05694
 30
0.0
 10
2.3090000000000002
 20
-4.05694
 30
0.0
 10
2.1845400000000001
 20
-3.7826200000000001
 30
0.0
 10
2.1058000000000003
 20
-3.4727400000000004
 30
0.0
 10
2.1210400000000003
 20
-3.1501600000000001
 30
0.0
  0
SPLINE
  5
32
100
AcDbEntity
  8
Ebene 1
 62
     7
100
AcDbSpline
210
0.0
220
0.0
230
1.0
 70
     1
 71
     3
 72
    12
 73
     8
 74
     0
 42
0.0000000001
 43
0.0000000001
 40
0.0
 40
0.0
 40
0.0
 40
0.0
 40
0.5
 40
0.5
 40
0.5
 40
0.5
 40
1.0
 40
1.0
 40
1.0
 40
1.0
 10
1.9940400000000003
 20
-3.1831800000000001
 30
0.0
 10
2.0880200000000002
 20
-3.1755600000000004
 30
0.0
 10
2.0169000000000001
 20
-3.3203400000000003
 30
0.0
 10
2.0550000000000002
 20
-3.3686000000000003
 30
0.0
 10
2.0550000000000002
 20
-3.3686000000000003
 30
0.0
 10
1.9762600000000001
 20
-3.3355800000000002
 30
0.0
 10
2.00928
 20
-3.2543000000000002
 30
0.0
 10
1.9940400000000003
 20
-3.1831800000000001
 30
0.0
  0
SPLINE
  5
33
100
AcDbEntity
  8
Ebene 1
 62
     7
100
AcDbSpline
210
0.0
220
0.0
230
1.0
 70
     1
 71
     3
 72
    16
 73
    12
 74
     0
 42
0.0000000001
 43
0.0000000001
 40
0.0
 40
0.0
 40
0.0
 40
0.0
 40
0.3333333333333333
 40
0.3333333333333333
 40
0.3333333333333333
 40
0.3333333333333333
 40
0.6666666666666666
 40
0.6666666666666666
 40
0.6666666666666666
 40
0.6666666666666666
 40
1.0
 40
1.0
 40
1.0
 40
1.0
 10
2.8906600000000005
 20
-3.8537400000000002
 30
0.0
 10
2.8906600000000005
 20
-3.8537400000000002
 30
0.0
 10
3.0151200000000005
 20
-3.9223200000000005
 30
0.0
 10
3.0151200000000005
 20
-3.9223200000000005
 30
0.0
 10
3.0151200000000005
 20
-3.9223200000000005
 30
0.0
 10
3.0151200000000005
 20
-3.9223200000000005
 30
0.0
 10
3.0633800000000004
 20
-4.6335200000000007
 30
0.0
 10
3.0633800000000004
 20
-4.6335200000000007
 30
0.0
 10
3.0633800000000004
 20
-4.6335200000000007
 30
0.0
 10
2.9795600000000002
 20
-4.3947600000000007
 30
0.0
 10
2.7916000000000003
 20
-4.1255200000000007
 30
0.0
 10
2.8906600000000005
 20
-3.8537400000000002
 30
0.0
  0
SPLINE
  5
34
100
AcDbEntity
  8
Ebene 1
 62
     7
100
AcDbSpline
210
0.0
220
0.0
230
1.0
 70
     1
 71
     3
 72
    16
 73
    12
 74
     0
 42
0.0000000001
 43
0.0000000001
 40
0.0
 40
0.0
 40
0.0
 40
0.0
 40
0.3333333333333333
 40
0.3333333333333333
 40
0.3333333333333333
 40
0.3333333333333333
 40
0.6666666666666666
 40
0.6666666666666666
 40
0.6666666666666666
 40
0.6666666666666666
 40
1.0
 40
1.0
 40
1.0
 40
1.0
 10
3.4342200000000003
 20
-4.4455600000000004
 30
0.0
 10
3.7542600000000004
 20
-4.5979600000000005
 30
0.0
 10
3.5459800000000001
 20
-5.0196000000000005
 30
0.0
 10
3.6907600000000005
 20
-5.2786800000000005
 30
0.0
 10
3.6907600000000005
 20
-5.2786800000000005
 30
0.0
 10
3.6907600000000005
 20
-5.2786800000000005
 30
0.0
 10
3.6882200000000003
 20
-5.4031400000000005
 30
0.0
 10
3.6882200000000003
 20
-5.4031400000000005
 30
0.0
 10
3.6882200000000003
 20
-5.4031400000000005
 30
0.0
 10
3.5510600000000001
 20
-5.1135800000000007
 30
0.0
 10
3.3656400000000004
 20
-4.7910000000000004
 30
0.0
 10
3.4342200000000003
 20
-4.4455600000000004
 30
0.0
  0
SPLINE
  5
35
100
AcDbEntity
  8
Ebene 1
 62
     7
100
AcDbSpline
210
0.0
220
0.0
230
1.0
 70
     1
 71
     3
 72
    12
 73
     8
 74
     0
 42
0.0000000001
 43
0.0000000001
 40
0.0
 40
0.0
 40
0.0
 40
0.0
 40
0.5
 40
0.5
 40
0.5
 40
0.5
 40
1.0
 40
1.0
 40
1.0
 40
1.0
 10
4.6839000000000004
 20
-4.4938200000000004
 30
0.0
 10
4.7677200000000006
 20
-4.6487600000000002
 30
0.0
 10
4.67882
 20
-4.8291000000000004
 30
0.0
 10
4.6966000000000001
 20
-5.0018200000000004
 30
0.0
 10
4.6966000000000001
 20
-5.0018200000000004
 30
0.0
 10
4.6432600000000006
 20
-4.8494200000000003
 30
0.0
 10
4.5823
 20
-4.6513
 30
0.0
 10
4.6839000000000004
 20
-4.4938200000000004
 30
0.0
  0
SPLINE
  5
36
100
AcDbEntity
  8
Ebene 1
 62
     7
100
AcDbSpline
210
0.0
220
0.0
230
1.0
 70
     1
 71
     3
 72
    20
 73
    16
 74
     0
 42
0.0000000001
 43
0.0000000001
 40
0.0
 40
0.0
 40
0.0
 40
0.0
 40
0.25
 40
0.25
 40
0.25
 40
0.25
 40
0.5
 40
0.5
 40
0.5
 40
0.5
 40
0.75
 40
0.75
 40
0.75
 40
0.75
 40
1.0
 40
1.0
 40
1.0
 40
1.0
 10
4.3460800000000006
 20
-4.6716200000000008
 30
0.0
 10
4.38164
 20
-4.6640000000000006
 30
0.0
 10
4.4095800000000001
 20
-4.6767000000000003
 30
0.0
 10
4.4400600000000008
 20
-4.6894
 30
0.0
 10
4.4400600000000008
 20
-4.6894
 30
0.0
 10
4.6762800000000002
 20
-4.9713400000000005
 30
0.0
 10
4.6254800000000005
 20
-5.37012
 30
0.0
 10
4.6483400000000001
 20
-5.7231800000000002
 30
0.0
 10
4.6483400000000001
 20
-5.7231800000000002
 30
0.0
 10
4.6483400000000001
 20
-5.7231800000000002
 30
0.0
 10
4.2825800000000003
 20
-4.7681400000000007
 30
0.0
 10
4.2825800000000003
 20
-4.7681400000000007
 30
0.0
 10
4.2825800000000003
 20
-4.7681400000000007
 30
0.0
 10
4.2825800000000003
 20
-4.7681400000000007
 30
0.0
 10
4.3460800000000006
 20
-4.6716200000000008
 30
0.0
 10
4.3460800000000006
 20
-4.6716200000000008
 30
0.0
  0
SPLINE
  5
37
100
AcDbEntity
  8
Ebene 1
 62
     7
100
AcDbSpline
210
0.0
220
0.0
230
1.0
 70
     1
 71
     3
 72
    12
 73
     8
 74
     0
 42
0.0000000001
 43
0.0000000001
 40
0.0
 40
0.0
 40
0.0
 40
0.0
 40
0.5
 40
0.5
 40
0.5
 40
0.5
 40
1.0
 40
1.0
 40
1.0
 40
1.0
 10
4.2521000000000004
 20
-5.9035200000000003
 30
0.0
 10
4.0819200000000002
 20
-5.5199800000000003
 30
0.0
 10
3.9193600000000002
 20
-5.1059600000000005
 30
0.0
 10
3.8406200000000004
 20
-4.6894
 30
0.0
 10
3.8406200000000004
 20
-4.6894
 30
0.0
 10
4.3206800000000003
 20
-4.8418000000000001
 30
0.0
 10
4.1454200000000005
 20
-5.5047400000000009
 30
0.0
 10
4.2521000000000004
 20
-5.9035200000000003
 30
0.0
  0
ENDSEC
  0
SECTION
  2
OBJECTS
  0
DICTIONARY
  5
19
100
AcDbDictionary
280
     0
281
     1
  3
ACAD_GROUP
350
1A
  3
ACAD_MLINESTYLE
350
1B
  3
ACAD_LAYOUT
350
1E
  3
ACAD_PLOTSETTINGS
350
22
  3
ACAD_PLOTSTYLENAME
350
1F
  3
ACAD_WIPEOUT_VARS
350
23
  0
DICTIONARY
  5
1A
102
{ACAD_REACTORS
330
19
102
}
100
AcDbDictionary
280
     0
281
     1
  0
DICTIONARY
  5
1B
102
{ACAD_REACTORS
330
19
102
}
100
AcDbDictionary
280
     0
281
     1
  3
Standard
350
1C
  0
MLINESTYLE
  5
1C
102
{ACAD_REACTORS
330
1B
102
}
100
AcDbMlineStyle
  2
Standard
 70
     0
  3

 62
     0
 51
90.0
 52
90.0
 71
     2
 49
0.5
 62
   256
  6
BYLAYER
 49
-0.5
 62
   256
  6
BYLAYER
  0
ACDBDICTIONARYWDFLT
  5
1F
102
{ACAD_REACTORS
330
19
102
}
100
AcDbDictionary
281
     1
  3
Normal
350
1D
100
AcDbDictionaryWithDefault
340
1D
  0
ACDBPLACEHOLDER
  5
1D
102
{ACAD_REACTORS
330
1F
102
}
  0
LAYOUT
  5
20
102
{ACAD_REACTORS
330
1E
102
}
100
AcDbPlotSettings
  1

  2

  4

  6

 40
0.0
 41
0.0
 42
0.0
 43
0.0
 44
0.0
 45
0.0
 46
0.0
 47
0.0
 48
0.0
 49
0.0
140
0.0
141
0.0
142
1.0
143
1.0
 70
  1024
 72
     0
 73
     0
 74
     0
  7

 75
     0
147
1.0
148
0.0
149
0.0
100
AcDbLayout
  1
Model
 70
     0
 71
     0
 10
0.0
 20
0.0
 11
0.0
 21
0.0
 12
0.0
 22
0.0
 32
0.0
 14
0.0
 24
0.0
 34
0.0
 15
0.0
 25
0.0
 35
0.0
146
0.0
 13
0.0
 23
0.0
 33
0.0
 16
0.0
 26
0.0
 36
0.0
 17
0.0
 27
0.0
 37
0.0
 76
     0
330
A
331
0
345
0
346
0
  0
LAYOUT
  5
21
102
{ACAD_REACTORS
330
1E
102
}
100
AcDbPlotSettings
  1

  2

  4

  6

 40
0.0
 41
0.0
 42
0.0
 43
0.0
 44
0.0
 45
0.0
 46
0.0
 47
0.0
 48
0.0
 49
0.0
140
0.0
141
0.0
142
1.0
143
1.0
 70
     0
 72
     0
 73
     0
 74
     0
  7

 75
     0
147
1.0
148
0.0
149
0.0
100
AcDbLayout
  1
Layout1
 70
     0
 71
     0
 10
0.0
 20
0.0
 11
0.0
 21
0.0
 12
0.0
 22
0.0
 32
0.0
 14
0.0
 24
0.0
 34
0.0
 15
0.0
 25
0.0
 35
0.0
146
0.0
 13
0.0
 23
0.0
 33
0.0
 16
0.0
 26
0.0
 36
0.0
 17
0.0
 27
0.0
 37
0.0
 76
     0
330
B
331
0
345
0
346
0
  0
DICTIONARY
  5
1E
102
{ACAD_REACTORS
330
19
102
}
100
AcDbDictionary
280
     0
281
     1
  3
Layout1
350
21
  3
Model
350
20
  0
DICTIONARY
  5
22
102
{ACAD_REACTORS
330
19
102
}
100
AcDbDictionary
280
     0
281
     1
  0
WIPEOUTVARIABLES
  5
23
100
AcDbWipeoutVariables
 70
     1
  0
ENDSEC
  0
EOF
