  0
SECTION
  2
HEADER
  9
$ACADVER
  1
AC1015
  9
$ACADMAINTVER
 70
     6
  9
$DWGCODEPAGE
  3
DOS850
  9
$INSBASE
 10
0.0
 20
0.0
 30
0.0
  9
$EXTMIN
 10
-5.45063
 20
-4.96892
 30
1.000000E+20
  9
$EXTMAX
 10
5.45681
 20
4.9634
 30
-1.000000E+20
  9
$LIMMIN
 10
0.0
 20
0.0
  9
$LIMMAX
 10
0.0
 20
0.0
  9
$ORTHOMODE
 70
     0
  9
$REGENMODE
 70
     1
  9
$FILLMODE
 70
     1
  9
$QTEXTMODE
 70
     0
  9
$MIRRTEXT
 70
     1
  9
$LTSCALE
 40
1.0
  9
$ATTMODE
 70
     1
  9
$TEXTSIZE
 40
0.2
  9
$TRACEWID
 40
0.05
  9
$TEXTSTYLE
  7
Standard
  9
$CLAYER
  8
0
  9
$CELTYPE
  6
Continuous
  9
$CECOLOR
 62
   256
  9
$CELTSCALE
 40
1.0
  9
$DISPSILH
 70
     0
  9
$DIMSCALE
 40
1.0
  9
$DIMASZ
 40
0.18
  9
$DIMEXO
 40
0.0625
  9
$DIMDLI
 40
0.38
  9
$DIMRND
 40
0.0
  9
$DIMDLE
 40
0.0
  9
$DIMEXE
 40
0.18
  9
$DIMTP
 40
0.0
  9
$DIMTM
 40
0.0
  9
$DIMTXT
 40
0.18
  9
$DIMCEN
 40
0.09
  9
$DIMTSZ
 40
0.0
  9
$DIMTOL
 70
     0
  9
$DIMLIM
 70
     0
  9
$DIMTIH
 70
     1
  9
$DIMTOH
 70
     1
  9
$DIMSE1
 70
     0
  9
$DIMSE2
 70
     0
  9
$DIMTAD
 70
     0
  9
$DIMZIN
 70
     0
  9
$DIMBLK
  1

  9
$DIMASO
 70
     1
  9
$DIMSHO
 70
     1
  9
$DIMPOST
  1

  9
$DIMAPOST
  1

  9
$DIMALT
 70
     0
  9
$DIMALTD
 70
     2
  9
$DIMALTF
 40
25.4
  9
$DIMLFAC
 40
1.0
  9
$DIMTOFL
 70
     0
  9
$DIMTVP
 40
0.0
  9
$DIMTIX
 70
     0
  9
$DIMSOXD
 70
     0
  9
$DIMSAH
 70
     0
  9
$DIMBLK1
  1

  9
$DIMBLK2
  1

  9
$DIMSTYLE
  2
Standard
  9
$DIMCLRD
 70
     0
  9
$DIMCLRE
 70
     0
  9
$DIMCLRT
 70
     0
  9
$DIMTFAC
 40
1.0
  9
$DIMGAP
 40
0.09
  9
$DIMJUST
 70
     0
  9
$DIMSD1
 70
     0
  9
$DIMSD2
 70
     0
  9
$DIMTOLJ
 70
     1
  9
$DIMTZIN
 70
     0
  9
$DIMALTZ
 70
     0
  9
$DIMALTTZ
 70
     0
  9
$DIMUPT
 70
     0
  9
$DIMDEC
 70
     4
  9
$DIMTDEC
 70
     4
  9
$DIMALTU
 70
     2
  9
$DIMALTTD
 70
     2
  9
$DIMTXSTY
  7
Standard
  9
$DIMAUNIT
 70
     0
  9
$DIMADEC
 70
     0
  9
$DIMALTRND
 40
0.0
  9
$DIMAZIN
 70
     0
  9
$DIMDSEP
 70
     0
  9
$DIMATFIT
 70
     3
  9
$DIMFRAC
 70
     0
  9
$DIMLDRBLK
  1

  9
$DIMLUNIT
 70
     2
  9
$DIMLWD
 70
     0
  9
$DIMLWE
 70
     0
  9
$DIMTMOVE
 70
     0
  9
$LUNITS
 70
     2
  9
$LUPREC
 70
     4
  9
$SKETCHINC
 40
0.1
  9
$FILLETRAD
 40
0.0
  9
$AUNITS
 70
     0
  9
$AUPREC
 70
     0
  9
$MENU
  1
acad
  9
$ELEVATION
 40
0.0
  9
$PELEVATION
 40
0.0
  9
$THICKNESS
 40
0.0
  9
$LIMCHECK
 70
     0
  9
$CHAMFERA
 40
0.0
  9
$CHAMFERB
 40
0.0
  9
$CHAMFERC
 40
0.0
  9
$CHAMFERD
 40
0.0
  9
$SKPOLY
 70
     0
  9
$TDCREATE
 40
0.000000000
  9
$TDUCREATE
 40
0.000000000
  9
$TDUPDATE
 40
0.000000000
  9
$TDUUPDATE
 40
0.000000000
  9
$TDINDWG
 40
0.0000000000
  9
$TDUSRTIMER
 40
0.0000000000
  9
$USRTIMER
 70
     1
  9
$ANGBASE
 50
0.0
  9
$ANGDIR
 70
     0
  9
$PDMODE
 70
     0
  9
$PDSIZE
 40
0.0
  9
$PLINEWID
 40
0.0
  9
$SPLFRAME
 70
     0
  9
$SPLINETYPE
 70
     6
  9
$SPLINESEGS
 70
     8
  9
$HANDSEED
  5
2F
  9
$SURFTAB1
 70
     6
  9
$SURFTAB2
 70
     6
  9
$SURFTYPE
 70
     6
  9
$SURFU
 70
     6
  9
$SURFV
 70
     6
  9
$UCSBASE
  2

  9
$UCSNAME
  2

  9
$UCSORG
 10
0.0
 20
0.0
 30
0.0
  9
$UCSXDIR
 10
1.0
 20
0.0
 30
0.0
  9
$UCSYDIR
 10
0.0
 20
1.0
 30
0.0
  9
$UCSORTHOREF
  2

  9
$UCSORTHOVIEW
 70
     0
  9
$UCSORGTOP
 10
0.0
 20
0.0
 30
0.0
  9
$UCSORGBOTTOM
 10
0.0
 20
0.0
 30
0.0
  9
$UCSORGLEFT
 10
0.0
 20
0.0
 30
0.0
  9
$UCSORGRIGHT
 10
0.0
 20
0.0
 30
0.0
  9
$UCSORGFRONT
 10
0.0
 20
0.0
 30
0.0
  9
$UCSORGBACK
 10
0.0
 20
0.0
 30
0.0
  9
$PUCSBASE
  2

  9
$PUCSNAME
  2

  9
$PUCSORG
 10
0.0
 20
0.0
 30
0.0
  9
$PUCSXDIR
 10
1.0
 20
0.0
 30
0.0
  9
$PUCSYDIR
 10
0.0
 20
1.0
 30
0.0
  9
$PUCSORTHOREF
  2

  9
$PUCSORTHOVIEW
 70
     0
  9
$PUCSORGTOP
 10
0.0
 20
0.0
 30
0.0
  9
$PUCSORGBOTTOM
 10
0.0
 20
0.0
 30
0.0
  9
$PUCSORGLEFT
 10
0.0
 20
0.0
 30
0.0
  9
$PUCSORGRIGHT
 10
0.0
 20
0.0
 30
0.0
  9
$PUCSORGFRONT
 10
0.0
 20
0.0
 30
0.0
  9
$PUCSORGBACK
 10
0.0
 20
0.0
 30
0.0
  9
$USERI1
 70
     0
  9
$USERI2
 70
     0
  9
$USERI3
 70
     0
  9
$USERI4
 70
     0
  9
$USERI5
 70
     0
  9
$USERR1
 40
0.0
  9
$USERR2
 40
0.0
  9
$USERR3
 40
0.0
  9
$USERR4
 40
0.0
  9
$USERR5
 40
0.0
  9
$WORLDVIEW
 70
     1
  9
$SHADEDGE
 70
     3
  9
$SHADEDIF
 70
    70
  9
$TILEMODE
 70
     1
  9
$MAXACTVP
 70
    16
  9
$PINSBASE
 10
0.0
 20
0.0
 30
0.0
  9
$PLIMCHECK
 70
     0
  9
$PEXTMIN
 10
1.000000E+20
 20
1.000000E+20
 30
1.000000E+20
  9
$PEXTMAX
 10
-1.000000E+20
 20
-1.000000E+20
 30
-1.000000E+20
  9
$PLIMMIN
 10
0.0
 20
0.0
  9
$PLIMMAX
 10
12.0
 20
9.0
  9
$UNITMODE
 70
     0
  9
$VISRETAIN
 70
     0
  9
$PLINEGEN
 70
     1
  9
$PSLTSCALE
 70
     0
  9
$TREEDEPTH
 70
  3020
  9
$CMLSTYLE
  2
Standard
  9
$CMLJUST
 70
     0
  9
$CMLSCALE
 40
1.0
  9
$PROXYGRAPHICS
 70
     0
  9
$MEASUREMENT
 70
     0
  9
$CELWEIGHT
370
     0
  9
$ENDCAPS
280
     0
  9
$JOINSTYLE
280
     0
  9
$LWDISPLAY
290
     0
  9
$INSUNITS
 70
     5
  9
$HYPERLINKBASE
  1

  9
$XEDIT
290
     1
  9
$CEPSNTYPE
380
     0
  9
$PSTYLEMODE
290
     1
  9
$FINGERPRINTGUID
  2

  9
$VERSIONGUID
  2

  9
$EXTNAMES
290
     1
  9
$PSVPSCALE
 40
0.0
  0
ENDSEC
  0
SECTION
  2
CLASSES
  0
CLASS
  1
LWPOLYLINE
  2
AcDbPolyline
  3
AutoCAD 2000
 90
    32768
280
     0
281
     1
  0
CLASS
  1
IMAGE
  2
AcDbRasterImage
  3
ISM
 90
    32895
280
     0
281
     1
  0
CLASS
  1
OLE2FRAME
  2
AcDbOle2Frame
  3
AutoCAD 2000
 90
    32768
280
     0
281
     1
  0
CLASS
  1
HATCH
  2
AcDbHatch
  3
AutoCAD 2000
 90
    32768
280
     0
281
     1
  0
CLASS
  1
DICTIONARYVAR
  2
AcDbDictionaryVar
  3
AutoCAD 2000
 90
    32768
280
     0
281
     0
  0
CLASS
  1
RASTERVARIABLES
  2
AcDbRasterVariables
  3
ISM
 90
    32768
280
     0
281
     0
  0
CLASS
  1
IMAGEDEF
  2
AcDbRasterImageDef
  3
ISM
 90
    32768
280
     0
281
     0
  0
CLASS
  1
IMAGEDEF_REACTOR
  2
AcDbRasterImageDefReactor
  3
ISM
 90
    32769
280
     0
281
     0
  0
CLASS
  1
IDBUFFER
  2
AcDbIdBuffer
  3
AutoCAD 2000
 90
    32768
280
     0
281
     0
  0
CLASS
  1
SPATIAL_FILTER
  2
AcDbSpatialFilter
  3
AutoCAD 2000
 90
    32768
280
     0
281
     0
  0
CLASS
  1
XRECORD
  2
AcDbXrecord
  3
AutoCAD 2000
 90
    32768
280
     0
281
     0
  0
CLASS
  1
SORTENTSTABLE
  2
AcDbSortentsTable
  3
AutoCAD 2000
 90
    32768
280
     0
281
     0
  0
CLASS
  1
LAYER_INDEX
  2
AcDbLayerIndex
  3
AutoCAD 2000
 90
    32768
280
     0
281
     0
  0
CLASS
  1
SPATIAL_INDEX
  2
AcDbSpatialIndex
  3
AutoCAD 2000
 90
    32768
280
     0
281
     0
  0
CLASS
  1
OBJECT_PTR
  2
CAseDLPNTableRecord
  3
"ASE-LPNTableRecord"
 90
    32769
280
     0
281
     0
  0
CLASS
  1
LAYOUT
  2
AcDbLayout
  3
AutoCAD 2000
 90
        0
280
     0
281
     0
  0
CLASS
  1
PLOTSETTINGS
  2
AcDbPlotSettings
  3
AutoCAD 2000
 90
    32768
280
     0
281
     0
  0
CLASS
  1
ACDBDICTIONARYWDFLT
  2
AcDbDictionaryWithDefault
  3
AutoCAD 2000
 90
        0
280
     0
281
     0
  0
CLASS
  1
ACDBPLACEHOLDER
  2
AcDbPlaceHolder
  3
AutoCAD 2000
 90
        0
280
     0
281
     0
  0
CLASS
  1
VBA_PROJECT
  2
AcDbVbaProject
  3
acadvba
 90
    32768
280
     0
281
     0
  0
CLASS
  1
WIPEOUT
  2
AcDbWipeout
  3
WipeOut|AutoCAD Express Tool|expresstools@autodesk.com
 90
    32895
280
     0
281
     1
  0
CLASS
  1
WIPEOUTVARIABLES
  2
AcDbWipeoutVariables
  3
WipeOut|AutoCAD Express Tool|expresstools@autodesk.com
 90
        0
280
     0
281
     0
  0
CLASS
  1
RTEXT
  2
RText
  3
RText|AutoCAD Express Tool|expresstools@autodesk.com
 90
    32768
280
     0
281
     1
  0
CLASS
  1
ARCALIGNEDTEXT
  2
AcDbArcAlignedText
  3
ATEXT|AutoCAD Express Tool|expresstools@autodesk.com
 90
    32768
280
     0
281
     1
  0
ENDSEC
  0
SECTION
  2
TABLES
  0
TABLE
  2
VPORT
  5
7
100
AcDbSymbolTable
 70
     1
  0
VPORT
  5
15
100
AcDbSymbolTableRecord
100
AcDbViewportTableRecord
  2
*ACTIVE
 70
     0
 10
0.0
 20
0.0
 11
1.0
 21
1.0
 12
6.591288
 22
4.579184
 13
0.0
 23
0.0
 14
1.0
 24
1.0
 15
0.0
 25
0.0
 16
0.0
 26
0.0
 36
1.0
 17
0.0
 27
0.0
 37
0.0
 40
9.158369
 41
0.688564
 42
50.0
 43
0.0
 44
0.0
 50
0.0
 51
0.0
 71
     0
 72
   100
 73
     1
 74
     1
 75
     0
 76
     0
 77
     0
 78
     0
281
     0
 65
     0
110
0.0
120
0.0
130
0.0
111
1.0
121
0.0
131
0.0
112
0.0
122
1.0
132
0.0
345
0
346
0
 79
     0
146
0.0
  0
ENDTAB
  0
TABLE
  2
LTYPE
  5
4
100
AcDbSymbolTable
 70
     3
  0
LTYPE
  5
11
100
AcDbSymbolTableRecord
100
AcDbLinetypeTableRecord
  2
ByBlock
 70
    64
  3

 72
    65
 73
     0
 40
0.0
  0
LTYPE
  5
12
100
AcDbSymbolTableRecord
100
AcDbLinetypeTableRecord
  2
ByLayer
 70
    64
  3

 72
    65
 73
     0
 40
0.0
  0
LTYPE
  5
13
100
AcDbSymbolTableRecord
100
AcDbLinetypeTableRecord
  2
Continuous
 70
    64
  3
Solid line
 72
    65
 73
     0
 40
0.0
  0
ENDTAB
  0
TABLE
  2
LAYER
  5
2
100
AcDbSymbolTable
 70
     2
  0
LAYER
  5
14
100
AcDbSymbolTableRecord
100
AcDbLayerTableRecord
  2
0
 70
     0
 62
     7
  6
Continuous
290
     1
370
    -3
390
1D
  0
LAYER
  5
24
100
AcDbSymbolTableRecord
100
AcDbLayerTableRecord
  2
Ebene 1
 70
     0
 62
     7
  6
Continuous
290
     1
370
    -3
390
1F
  0
ENDTAB
  0
TABLE
  2
STYLE
  5
3
100
AcDbSymbolTable
 70
     1
  0
STYLE
  5
17
100
AcDbSymbolTableRecord
100
AcDbTextStyleTableRecord
  2
Standard
 70
     0
 40
0.0
 41
1.0
 50
0.0
 71
     0
 42
0.0
  3
txt
  4

  0
ENDTAB
  0
TABLE
  2
VIEW
  5
5
100
AcDbSymbolTable
 70
     0
  0
ENDTAB
  0
TABLE
  2
UCS
  5
6
100
AcDbSymbolTable
 70
     0
  0
ENDTAB
  0
TABLE
  2
APPID
  5
8
100
AcDbSymbolTable
 70
     1
  0
APPID
  5
16
100
AcDbSymbolTableRecord
100
AcDbRegAppTableRecord
  2
ACAD
 70
     0
  0
ENDTAB
  0
TABLE
  2
DIMSTYLE
  5
9
100
AcDbSymbolTable
 70
     1
100
AcDbDimStyleTable
 71
     0
  0
DIMSTYLE
105
18
100
AcDbSymbolTableRecord
100
AcDbDimStyleTableRecord
  2
Standard
 70
     0
  3

  4

 40
1.0
 41
0.18
 42
0.0625
 43
0.38
 44
0.18
 45
0.0
 46
0.0
 47
0.0
 48
0.0
 71
     0
 72
     0
 73
     1
 74
     1
 75
     0
 76
     0
 77
     0
 78
     0
 79
     0
140
0.18
141
0.09
142
0.0
143
25.4
144
1.0
145
0.0
146
1.0
147
0.09
148
0.0
170
     0
171
     2
172
     0
173
     0
174
     0
175
     0
176
     0
177
     0
178
     0
179
     0
271
     4
272
     4
273
     2
274
     2
275
     0
276
     0
277
     2
278
    46
279
     0
280
     0
281
     0
282
     0
283
     1
284
     0
285
     0
286
     0
288
     0
340
17
341
0
342
0
343
0
344
0
371
    -2
372
    -2
  0
ENDTAB
  0
TABLE
  2
BLOCK_RECORD
  5
1
100
AcDbSymbolTable
 70
     0
  0
BLOCK_RECORD
  5
A
100
AcDbSymbolTableRecord
100
AcDbBlockTableRecord
  2
*MODEL_SPACE
340
20
  0
BLOCK_RECORD
  5
B
100
AcDbSymbolTableRecord
100
AcDbBlockTableRecord
  2
*PAPER_SPACE
340
21
  0
ENDTAB
  0
ENDSEC
  0
SECTION
  2
BLOCKS
  0
BLOCK
  5
D
100
AcDbEntity
  8
0
100
AcDbBlockBegin
  2
*MODEL_SPACE
 70
     0
 10
0.0
 20
0.0
 30
0.0
  3
*MODEL_SPACE
  1

  0
ENDBLK
  5
E
100
AcDbEntity
  8
0
100
AcDbBlockEnd
  0
BLOCK
  5
F
100
AcDbEntity
 67
     1
  8
0
100
AcDbBlockBegin
  2
*PAPER_SPACE
 70
     0
 10
0.0
 20
0.0
 30
0.0
  3
*PAPER_SPACE
  1

  0
ENDBLK
  5
10
100
AcDbEntity
 67
     1
  8
0
100
AcDbBlockEnd
  0
ENDSEC
  0
SECTION
  2
ENTITIES
  0
SPLINE
  5
25
100
AcDbEntity
  8
Ebene 1
100
AcDbSpline
210
0.0
220
0.0
230
1.0
 70
     1
 71
     3
 72
    76
 73
    72
 74
     0
 42
0.0000000001
 43
0.0000000001
 40
0.0
 40
0.0
 40
0.0
 40
0.0
 40
0.0555555555555556
 40
0.0555555555555556
 40
0.0555555555555556
 40
0.0555555555555556
 40
0.1111111111111111
 40
0.1111111111111111
 40
0.1111111111111111
 40
0.1111111111111111
 40
0.1666666666666667
 40
0.1666666666666667
 40
0.1666666666666667
 40
0.1666666666666667
 40
0.2222222222222222
 40
0.2222222222222222
 40
0.2222222222222222
 40
0.2222222222222222
 40
0.2777777777777778
 40
0.2777777777777778
 40
0.2777777777777778
 40
0.2777777777777778
 40
0.3333333333333334
 40
0.3333333333333334
 40
0.3333333333333334
 40
0.3333333333333334
 40
0.388888888888889
 40
0.388888888888889
 40
0.388888888888889
 40
0.388888888888889
 40
0.4444444444444445
 40
0.4444444444444445
 40
0.4444444444444445
 40
0.4444444444444445
 40
0.5000000000000001
 40
0.5000000000000001
 40
0.5000000000000001
 40
0.5000000000000001
 40
0.5555555555555557
 40
0.5555555555555557
 40
0.5555555555555557
 40
0.5555555555555557
 40
0.6111111111111113
 40
0.6111111111111113
 40
0.6111111111111113
 40
0.6111111111111113
 40
0.6666666666666669
 40
0.6666666666666669
 40
0.6666666666666669
 40
0.6666666666666669
 40
0.7222222222222224
 40
0.7222222222222224
 40
0.7222222222222224
 40
0.7222222222222224
 40
0.777777777777778
 40
0.777777777777778
 40
0.777777777777778
 40
0.777777777777778
 40
0.8333333333333336
 40
0.8333333333333336
 40
0.8333333333333336
 40
0.8333333333333336
 40
0.8888888888888892
 40
0.8888888888888892
 40
0.8888888888888892
 40
0.8888888888888892
 40
0.9444444444444448
 40
0.9444444444444448
 40
0.9444444444444448
 40
0.9444444444444448
 40
1.0
 40
1.0
 40
1.0
 40
1.0
 10
-2.8065500000000001
 20
4.9625900000000005
 30
0.0
 10
-2.2833100000000002
 20
4.97783
 30
0.0
 10
-1.8235700000000001
 20
4.7797100000000006
 30
0.0
 10
-1.37907
 20
4.5511100000000004
 30
0.0
 10
-1.37907
 20
4.5511100000000004
 30
0.0
 10
-0.63993
 20
4.92957
 30
0.0
 10
0.00014
 20
4.4368100000000004
 30
0.0
 10
0.49036
 20
3.8957900000000003
 30
0.0
 10
0.49036
 20
3.8957900000000003
 30
0.0
 10
1.4073000000000002
 20
4.3047300000000002
 30
0.0
 10
2.3928200000000004
 20
4.07613
 30
0.0
 10
3.0659200000000002
 20
3.3217500000000002
 30
0.0
 10
3.0659200000000002
 20
3.3217500000000002
 30
0.0
 10
3.5256600000000002
 20
3.2049100000000004
 30
0.0
 10
4.4603800000000007
 20
3.2379300000000004
 30
0.0
 10
4.3283000000000005
 20
2.5495900000000002
 30
0.0
 10
4.3283000000000005
 20
2.5495900000000002
 30
0.0
 10
4.9353600000000002
 20
2.33623
 30
0.0
 10
5.6414800000000005
 20
1.8612500000000001
 30
0.0
 10
5.4128800000000004
 20
1.10687
 30
0.0
 10
5.4128800000000004
 20
1.10687
 30
0.0
 10
5.3290600000000001
 20
0.5480700000000001
 30
0.0
 10
4.8540800000000006
 20
0.00705
 30
0.0
 10
4.29528
 20
-0.05644
 30
0.0
 10
4.29528
 20
-0.05644
 30
0.0
 10
3.8685600000000004
 20
-0.69652
 30
0.0
 10
3.0659200000000002
 20
-0.69652
 30
0.0
 10
2.5731600000000001
 20
-1.20452
 30
0.0
 10
2.5731600000000001
 20
-1.20452
 30
0.0
 10
2.0956400000000004
 20
-1.2223000000000002
 30
0.0
 10
1.6384400000000001
 20
-1.3035800000000002
 30
0.0
 10
1.2117200000000001
 20
-1.5321800000000001
 30
0.0
 10
1.2117200000000001
 20
-1.5321800000000001
 30
0.0
 10
0.5056000000000001
 20
-2.2891000000000004
 30
0.0
 10
-0.27925
 20
-3.1400000000000001
 30
0.0
 10
-0.50785
 20
-4.1102800000000004
 30
0.0
 10
-0.50785
 20
-4.1102800000000004
 30
0.0
 10
-0.50785
 20
-4.1102800000000004
 30
0.0
 10
-1.1504700000000001
 20
-4.6335200000000007
 30
0.0
 10
-1.1504700000000001
 20
-4.6335200000000007
 30
0.0
 10
-1.1504700000000001
 20
-4.6335200000000007
 30
0.0
 10
-1.5924300000000002
 20
-4.8468800000000005
 30
0.0
 10
-2.0953500000000003
 20
-5.0932600000000008
 30
0.0
 10
-2.5881100000000004
 20
-4.8976800000000003
 30
0.0
 10
-2.5881100000000004
 20
-4.8976800000000003
 30
0.0
 10
-2.6846300000000003
 20
-4.8468800000000005
 30
0.0
 10
-2.6135100000000002
 20
-4.7656000000000001
 30
0.0
 10
-2.5703300000000002
 20
-4.69956
 30
0.0
 10
-2.5703300000000002
 20
-4.69956
 30
0.0
 10
-1.21397
 20
-3.3863800000000004
 30
0.0
 10
-2.5982700000000003
 20
-1.2705600000000001
 30
0.0
 10
-1.3460500000000002
 20
0.08833
 30
0.0
 10
-1.3460500000000002
 20
0.08833
 30
0.0
 10
-1.5594100000000002
 20
0.13913
 30
0.0
 10
-1.6406900000000002
 20
0.33471
 30
0.0
 10
-1.8261100000000001
 20
0.43377
 30
0.0
 10
-1.8261100000000001
 20
0.43377
 30
0.0
 10
-2.6846300000000003
 20
0.8427100000000001
 30
0.0
 10
-3.0707100000000001
 20
1.9095100000000003
 30
0.0
 10
-3.9063700000000003
 20
2.25495
 30
0.0
 10
-3.9063700000000003
 20
2.25495
 30
0.0
 10
-4.5083500000000001
 20
2.2701900000000004
 30
0.0
 10
-4.4727900000000007
 20
1.40151
 30
0.0
 10
-4.7039300000000006
 20
1.1221100000000002
 30
0.0
 10
-4.7039300000000006
 20
1.1221100000000002
 30
0.0
 10
-6.1415700000000006
 20
2.1889100000000004
 30
0.0
 10
-5.3617900000000001
 20
4.6831900000000006
 30
0.0
 10
-3.5939500000000004
 20
4.8152700000000008
 30
0.0
 10
-3.5939500000000004
 20
4.8152700000000008
 30
0.0
 10
-3.5939500000000004
 20
4.8152700000000008
 30
0.0
 10
-2.8065500000000001
 20
4.9625900000000005
 30
0.0
 10
-2.8065500000000001
 20
4.9625900000000005
 30
0.0
  0
SPLINE
  5
26
100
AcDbEntity
  8
Ebene 1
100
AcDbSpline
210
0.0
220
0.0
230
1.0
 70
     1
 71
     3
 72
    20
 73
    16
 74
     0
 42
0.0000000001
 43
0.0000000001
 40
0.0
 40
0.0
 40
0.0
 40
0.0
 40
0.25
 40
0.25
 40
0.25
 40
0.25
 40
0.5
 40
0.5
 40
0.5
 40
0.5
 40
0.75
 40
0.75
 40
0.75
 40
0.75
 40
1.0
 40
1.0
 40
1.0
 40
1.0
 10
-2.5601700000000003
 20
2.71469
 30
0.0
 10
-2.5601700000000003
 20
2.71469
 30
0.0
 10
-2.6566900000000002
 20
2.5978500000000002
 30
0.0
 10
-2.6566900000000002
 20
2.5978500000000002
 30
0.0
 10
-2.6566900000000002
 20
2.5978500000000002
 30
0.0
 10
-2.5906500000000001
 20
1.9755500000000001
 30
0.0
 10
-1.6406900000000002
 20
1.5158100000000001
 30
0.0
 10
-1.2317500000000001
 20
2.1228700000000003
 30
0.0
 10
-1.2317500000000001
 20
2.1228700000000003
 30
0.0
 10
-1.2317500000000001
 20
2.1228700000000003
 30
0.0
 10
-1.2317500000000001
 20
2.20669
 30
0.0
 10
-1.2317500000000001
 20
2.20669
 30
0.0
 10
-1.2317500000000001
 20
2.20669
 30
0.0
 10
-1.5746500000000001
 20
2.5978500000000002
 30
0.0
 10
-2.0496300000000001
 20
2.7477100000000001
 30
0.0
 10
-2.5601700000000003
 20
2.71469
 30
0.0
  0
SPLINE
  5
27
100
AcDbEntity
  8
Ebene 1
100
AcDbSpline
210
0.0
220
0.0
230
1.0
 70
     1
 71
     3
 72
    36
 73
    32
 74
     0
 42
0.0000000001
 43
0.0000000001
 40
0.0
 40
0.0
 40
0.0
 40
0.0
 40
0.125
 40
0.125
 40
0.125
 40
0.125
 40
0.25
 40
0.25
 40
0.25
 40
0.25
 40
0.375
 40
0.375
 40
0.375
 40
0.375
 40
0.5
 40
0.5
 40
0.5
 40
0.5
 40
0.625
 40
0.625
 40
0.625
 40
0.625
 40
0.75
 40
0.75
 40
0.75
 40
0.75
 40
0.875
 40
0.875
 40
0.875
 40
0.875
 40
1.0
 40
1.0
 40
1.0
 40
1.0
 10
0.5894200000000001
 20
0.43377
 30
0.0
 10
0.3913
 20
0.41599
 30
0.0
 10
0.17794
 20
0.38297
 30
0.0
 10
-0.01763
 20
0.30169
 30
0.0
 10
-0.01763
 20
0.30169
 30
0.0
 10
-0.32751
 20
-0.17074
 30
0.0
 10
-0.7720100000000001
 20
-0.5492
 30
0.0
 10
-0.9193300000000001
 20
-1.1080000000000001
 30
0.0
 10
-0.9193300000000001
 20
-1.1080000000000001
 30
0.0
 10
-1.0666500000000001
 20
-1.5652000000000001
 30
0.0
 10
-1.2317500000000001
 20
-2.02494
 30
0.0
 10
-1.21397
 20
-2.5177
 30
0.0
 10
-1.21397
 20
-2.5177
 30
0.0
 10
-1.1987300000000001
 20
-2.7310600000000003
 30
0.0
 10
-1.3282700000000001
 20
-3.0434800000000002
 30
0.0
 10
-1.1504700000000001
 20
-3.2085800000000004
 30
0.0
 10
-1.1504700000000001
 20
-3.2085800000000004
 30
0.0
 10
-0.73899
 20
-2.5507200000000001
 30
0.0
 10
-0.6069100000000001
 20
-1.6972800000000001
 30
0.0
 10
-0.21321
 20
-0.99116
 30
0.0
 10
-0.21321
 20
-0.99116
 30
0.0
 10
0.30748
 20
-0.35108
 30
0.0
 10
1.0796400000000002
 20
-0.02342
 30
0.0
 10
1.8518000000000001
 20
0.10611
 30
0.0
 10
1.8518000000000001
 20
0.10611
 30
0.0
 10
1.6054200000000001
 20
0.23565
 30
0.0
 10
1.3412600000000001
 20
0.38297
 30
0.0
 10
1.0313800000000002
 20
0.38297
 30
0.0
 10
1.0313800000000002
 20
0.38297
 30
0.0
 10
1.0313800000000002
 20
0.38297
 30
0.0
 10
0.5894200000000001
 20
0.43377
 30
0.0
 10
0.5894200000000001
 20
0.43377
 30
0.0
  0
SPLINE
  5
28
100
AcDbEntity
  8
Ebene 1
 62
     7
100
AcDbSpline
210
0.0
220
0.0
230
1.0
 70
     1
 71
     3
 72
   120
 73
   116
 74
     0
 42
0.0000000001
 43
0.0000000001
 40
0.0
 40
0.0
 40
0.0
 40
0.0
 40
0.0344827586206897
 40
0.0344827586206897
 40
0.0344827586206897
 40
0.0344827586206897
 40
0.0689655172413793
 40
0.0689655172413793
 40
0.0689655172413793
 40
0.0689655172413793
 40
0.103448275862069
 40
0.103448275862069
 40
0.103448275862069
 40
0.103448275862069
 40
0.1379310344827586
 40
0.1379310344827586
 40
0.1379310344827586
 40
0.1379310344827586
 40
0.1724137931034483
 40
0.1724137931034483
 40
0.1724137931034483
 40
0.1724137931034483
 40
0.206896551724138
 40
0.206896551724138
 40
0.206896551724138
 40
0.206896551724138
 40
0.2413793103448276
 40
0.2413793103448276
 40
0.2413793103448276
 40
0.2413793103448276
 40
0.2758620689655173
 40
0.2758620689655173
 40
0.2758620689655173
 40
0.2758620689655173
 40
0.310344827586207
 40
0.310344827586207
 40
0.310344827586207
 40
0.310344827586207
 40
0.3448275862068966
 40
0.3448275862068966
 40
0.3448275862068966
 40
0.3448275862068966
 40
0.3793103448275863
 40
0.3793103448275863
 40
0.3793103448275863
 40
0.3793103448275863
 40
0.413793103448276
 40
0.413793103448276
 40
0.413793103448276
 40
0.413793103448276
 40
0.4482758620689656
 40
0.4482758620689656
 40
0.4482758620689656
 40
0.4482758620689656
 40
0.4827586206896553
 40
0.4827586206896553
 40
0.4827586206896553
 40
0.4827586206896553
 40
0.517241379310345
 40
0.517241379310345
 40
0.517241379310345
 40
0.517241379310345
 40
0.5517241379310346
 40
0.5517241379310346
 40
0.5517241379310346
 40
0.5517241379310346
 40
0.5862068965517242
 40
0.5862068965517242
 40
0.5862068965517242
 40
0.5862068965517242
 40
0.6206896551724138
 40
0.6206896551724138
 40
0.6206896551724138
 40
0.6206896551724138
 40
0.6551724137931034
 40
0.6551724137931034
 40
0.6551724137931034
 40
0.6551724137931034
 40
0.689655172413793
 40
0.689655172413793
 40
0.689655172413793
 40
0.689655172413793
 40
0.7241379310344827
 40
0.7241379310344827
 40
0.7241379310344827
 40
0.7241379310344827
 40
0.7586206896551723
 40
0.7586206896551723
 40
0.7586206896551723
 40
0.7586206896551723
 40
0.7931034482758619
 40
0.7931034482758619
 40
0.7931034482758619
 40
0.7931034482758619
 40
0.8275862068965515
 40
0.8275862068965515
 40
0.8275862068965515
 40
0.8275862068965515
 40
0.8620689655172411
 40
0.8620689655172411
 40
0.8620689655172411
 40
0.8620689655172411
 40
0.8965517241379307
 40
0.8965517241379307
 40
0.8965517241379307
 40
0.8965517241379307
 40
0.9310344827586203
 40
0.9310344827586203
 40
0.9310344827586203
 40
0.9310344827586203
 40
0.9655172413793099
 40
0.9655172413793099
 40
0.9655172413793099
 40
0.9655172413793099
 40
1.0
 40
1.0
 40
1.0
 40
1.0
 10
-2.8421100000000004
 20
4.8990900000000002
 30
0.0
 10
-2.1791700000000001
 20
4.9143300000000005
 30
0.0
 10
-1.4552700000000001
 20
4.6095300000000003
 30
0.0
 10
-1.2241300000000002
 20
3.9846900000000005
 30
0.0
 10
-1.2241300000000002
 20
3.9846900000000005
 30
0.0
 10
-1.13015
 20
3.7281500000000003
 30
0.0
 10
-1.0260100000000001
 20
3.6494100000000005
 30
0.0
 10
-1.04125
 20
3.8602300000000005
 30
0.0
 10
-1.04125
 20
3.8602300000000005
 30
0.0
 10
-1.33843
 20
5.35121
 30
0.0
 10
0.33288
 20
4.1091500000000005
 30
0.0
 10
0.6097400000000001
 20
3.3700100000000002
 30
0.0
 10
0.6097400000000001
 20
3.3700100000000002
 30
0.0
 10
0.6910200000000001
 20
3.4512900000000002
 30
0.0
 10
0.5386200000000001
 20
3.5833700000000004
 30
0.0
 10
0.57164
 20
3.6976700000000005
 30
0.0
 10
0.57164
 20
3.6976700000000005
 30
0.0
 10
1.6714600000000002
 20
4.5688900000000006
 30
0.0
 10
2.6874600000000002
 20
3.4360500000000003
 30
0.0
 10
3.5561400000000001
 20
2.8772500000000001
 30
0.0
 10
3.5561400000000001
 20
2.8772500000000001
 30
0.0
 10
3.5409000000000002
 20
2.9610700000000003
 30
0.0
 10
3.4418400000000005
 20
3.0245700000000002
 30
0.0
 10
3.3935800000000005
 20
3.0753700000000004
 30
0.0
 10
3.3935800000000005
 20
3.0753700000000004
 30
0.0
 10
3.2945200000000003
 20
3.1083900000000004
 30
0.0
 10
3.3605600000000004
 20
3.1718900000000003
 30
0.0
 10
3.4266000000000001
 20
3.1236300000000004
 30
0.0
 10
3.4266000000000001
 20
3.1236300000000004
 30
0.0
 10
4.2800400000000005
 20
3.2074500000000001
 30
0.0
 10
4.3791000000000002
 20
2.5978500000000002
 30
0.0
 10
4.0006400000000006
 20
2.0085700000000002
 30
0.0
 10
4.0006400000000006
 20
2.0085700000000002
 30
0.0
 10
4.29528
 20
2.17367
 30
0.0
 10
5.0318800000000001
 20
2.3387700000000002
 30
0.0
 10
5.2935000000000008
 20
1.7926700000000002
 30
0.0
 10
5.2935000000000008
 20
1.7926700000000002
 30
0.0
 10
5.5398800000000001
 20
1.2211700000000001
 30
0.0
 10
5.1436400000000004
 20
0.6318900000000001
 30
0.0
 10
4.5264200000000008
 20
0.4007500000000001
 30
0.0
 10
4.5264200000000008
 20
0.4007500000000001
 30
0.0
 10
4.4273600000000002
 20
1.2541900000000001
 30
0.0
 10
3.6221800000000002
 20
0.16961
 30
0.0
 10
3.1649800000000003
 20
0.33471
 30
0.0
 10
3.1649800000000003
 20
0.33471
 30
0.0
 10
3.3453200000000001
 20
0.53283
 30
0.0
 10
3.6221800000000002
 20
0.6953900000000001
 30
0.0
 10
3.6069400000000003
 20
0.9900300000000001
 30
0.0
 10
3.6069400000000003
 20
0.9900300000000001
 30
0.0
 10
3.6399600000000003
 20
1.2033900000000002
 30
0.0
 10
3.3935800000000005
 20
1.2033900000000002
 30
0.0
 10
3.2462600000000004
 20
1.2211700000000001
 30
0.0
 10
3.2462600000000004
 20
1.2211700000000001
 30
0.0
 10
2.7535000000000003
 20
1.2211700000000001
 30
0.0
 10
2.4741000000000004
 20
0.68015
 30
0.0
 10
2.0981800000000002
 20
0.48203
 30
0.0
 10
2.0981800000000002
 20
0.48203
 30
0.0
 10
1.8670400000000003
 20
0.74619
 30
0.0
 10
2.3598000000000003
 20
1.0890900000000001
 30
0.0
 10
2.3750400000000003
 20
1.2033900000000002
 30
0.0
 10
2.3750400000000003
 20
1.2033900000000002
 30
0.0
 10
2.3750400000000003
 20
1.2033900000000002
 30
0.0
 10
2.0321400000000001
 20
0.9417700000000001
 30
0.0
 10
2.0321400000000001
 20
0.9417700000000001
 30
0.0
 10
2.0321400000000001
 20
0.9417700000000001
 30
0.0
 10
1.5393800000000002
 20
-0.07422
 30
0.0
 10
0.5056000000000001
 20
0.9087500000000001
 30
0.0
 10
-0.03287
 20
1.3837300000000001
 30
0.0
 10
-0.03287
 20
1.3837300000000001
 30
0.0
 10
-0.03287
 20
1.4980300000000002
 30
0.0
 10
0.04586
 20
1.5996300000000001
 30
0.0
 10
0.12968
 20
1.6809100000000001
 30
0.0
 10
0.12968
 20
1.6809100000000001
 30
0.0
 10
0.15762
 20
1.8993500000000001
 30
0.0
 10
-0.01509
 20
1.6529700000000001
 30
0.0
 10
-0.06081
 20
1.6377300000000001
 30
0.0
 10
-0.06081
 20
1.6377300000000001
 30
0.0
 10
-0.59675
 20
1.4751700000000001
 30
0.0
 10
-1.0234700000000001
 20
2.2320900000000004
 30
0.0
 10
-1.46035
 20
2.5495900000000002
 30
0.0
 10
-1.46035
 20
2.5495900000000002
 30
0.0
 10
-1.46035
 20
2.5495900000000002
 30
0.0
 10
-1.00061
 20
2.5165700000000002
 30
0.0
 10
-1.00061
 20
2.5165700000000002
 30
0.0
 10
-1.00061
 20
2.5165700000000002
 30
0.0
 10
-1.3282700000000001
 20
2.6664300000000001
 30
0.0
 10
-1.67371
 20
2.68167
 30
0.0
 10
-2.0140700000000002
 20
2.7477100000000001
 30
0.0
 10
-2.0140700000000002
 20
2.7477100000000001
 30
0.0
 10
-1.9302500000000002
 20
2.9280500000000003
 30
0.0
 10
-1.67371
 20
3.0245700000000002
 30
0.0
 10
-1.5924300000000002
 20
3.2074500000000001
 30
0.0
 10
-1.5924300000000002
 20
3.2074500000000001
 30
0.0
 10
-2.3442700000000003
 20
2.4683100000000002
 30
0.0
 10
-3.5660100000000003
 20
3.2226900000000001
 30
0.0
 10
-4.2772100000000002
 20
2.25495
 30
0.0
 10
-4.2772100000000002
 20
2.25495
 30
0.0
 10
-4.3838900000000001
 20
2.8289900000000001
 30
0.0
 10
-4.0028900000000007
 20
3.3369900000000001
 30
0.0
 10
-3.7107900000000003
 20
3.7637100000000001
 30
0.0
 10
-3.7107900000000003
 20
3.7637100000000001
 30
0.0
 10
-4.4169100000000006
 20
3.2404700000000002
 30
0.0
 10
-4.5083500000000001
 20
2.2879700000000001
 30
0.0
 10
-4.6963100000000004
 20
1.4980300000000002
 30
0.0
 10
-4.6963100000000004
 20
1.4980300000000002
 30
0.0
 10
-5.6767500000000002
 20
2.1558900000000003
 30
0.0
 10
-5.4608500000000006
 20
4.1421700000000001
 30
0.0
 10
-4.1705300000000003
 20
4.46983
 30
0.0
 10
-4.1705300000000003
 20
4.46983
 30
0.0
 10
-4.2264100000000004
 20
4.3555300000000008
 30
0.0
 10
-4.4626300000000008
 20
4.17265
 30
0.0
 10
-4.3508700000000005
 20
4.0913700000000004
 30
0.0
 10
-4.3508700000000005
 20
4.0913700000000004
 30
0.0
 10
-4.0079700000000003
 20
4.58413
 30
0.0
 10
-3.3958300000000001
 20
4.8178100000000006
 30
0.0
 10
-2.8421100000000004
 20
4.8990900000000002
 30
0.0
  0
SPLINE
  5
29
100
AcDbEntity
  8
Ebene 1
100
AcDbSpline
210
0.0
220
0.0
230
1.0
 70
     1
 71
     3
 72
    40
 73
    36
 74
     0
 42
0.0000000001
 43
0.0000000001
 40
0.0
 40
0.0
 40
0.0
 40
0.0
 40
0.1111111111111111
 40
0.1111111111111111
 40
0.1111111111111111
 40
0.1111111111111111
 40
0.2222222222222222
 40
0.2222222222222222
 40
0.2222222222222222
 40
0.2222222222222222
 40
0.3333333333333333
 40
0.3333333333333333
 40
0.3333333333333333
 40
0.3333333333333333
 40
0.4444444444444444
 40
0.4444444444444444
 40
0.4444444444444444
 40
0.4444444444444444
 40
0.5555555555555556
 40
0.5555555555555556
 40
0.5555555555555556
 40
0.5555555555555556
 40
0.6666666666666667
 40
0.6666666666666667
 40
0.6666666666666667
 40
0.6666666666666667
 40
0.7777777777777779
 40
0.7777777777777779
 40
0.7777777777777779
 40
0.7777777777777779
 40
0.8888888888888891
 40
0.8888888888888891
 40
0.8888888888888891
 40
0.8888888888888891
 40
1.0
 40
1.0
 40
1.0
 40
1.0
 10
-0.7059700000000001
 20
4.2234500000000006
 30
0.0
 10
-0.16495
 20
4.2386900000000001
 30
0.0
 10
-0.08367
 20
3.6646500000000004
 30
0.0
 10
0.21096
 20
3.3547700000000003
 30
0.0
 10
0.21096
 20
3.3547700000000003
 30
0.0
 10
0.04586
 20
3.3039700000000001
 30
0.0
 10
-0.14717
 20
3.2887300000000002
 30
0.0
 10
-0.32751
 20
3.3700100000000002
 30
0.0
 10
-0.32751
 20
3.3700100000000002
 30
0.0
 10
-0.32751
 20
3.3700100000000002
 30
0.0
 10
-0.36053
 20
3.4182700000000001
 30
0.0
 10
-0.36053
 20
3.4182700000000001
 30
0.0
 10
-0.36053
 20
3.4182700000000001
 30
0.0
 10
-0.21321
 20
3.3877900000000003
 30
0.0
 10
-0.05065
 20
3.3700100000000002
 30
0.0
 10
0.07888
 20
3.4182700000000001
 30
0.0
 10
0.07888
 20
3.4182700000000001
 30
0.0
 10
-0.08621
 20
3.5986100000000003
 30
0.0
 10
-0.36307
 20
3.4970100000000004
 30
0.0
 10
-0.56881
 20
3.5782900000000004
 30
0.0
 10
-0.56881
 20
3.5782900000000004
 30
0.0
 10
-0.6272300000000001
 20
3.6011500000000001
 30
0.0
 10
-0.8101100000000001
 20
3.9465900000000005
 30
0.0
 10
-0.72375
 20
3.6976700000000005
 30
0.0
 10
-0.72375
 20
3.6976700000000005
 30
0.0
 10
-0.72375
 20
3.6976700000000005
 30
0.0
 10
-0.59167
 20
3.4690700000000003
 30
0.0
 10
-0.59167
 20
3.4690700000000003
 30
0.0
 10
-0.59167
 20
3.4690700000000003
 30
0.0
 10
-0.8202700000000001
 20
3.5020900000000004
 30
0.0
 10
-0.9345700000000001
 20
3.8297500000000002
 30
0.0
 10
-0.9015500000000001
 20
4.0253300000000003
 30
0.0
 10
-0.9015500000000001
 20
4.0253300000000003
 30
0.0
 10
-0.8710700000000001
 20
4.12439
 30
0.0
 10
-0.80503
 20
4.2056700000000005
 30
0.0
 10
-0.7059700000000001
 20
4.2234500000000006
 30
0.0
  0
SPLINE
  5
2A
100
AcDbEntity
  8
Ebene 1
100
AcDbSpline
210
0.0
220
0.0
230
1.0
 70
     1
 71
     3
 72
    28
 73
    24
 74
     0
 42
0.0000000001
 43
0.0000000001
 40
0.0
 40
0.0
 40
0.0
 40
0.0
 40
0.1666666666666667
 40
0.1666666666666667
 40
0.1666666666666667
 40
0.1666666666666667
 40
0.3333333333333333
 40
0.3333333333333333
 40
0.3333333333333333
 40
0.3333333333333333
 40
0.5
 40
0.5
 40
0.5
 40
0.5
 40
0.6666666666666666
 40
0.6666666666666666
 40
0.6666666666666666
 40
0.6666666666666666
 40
0.8333333333333333
 40
0.8333333333333333
 40
0.8333333333333333
 40
0.8333333333333333
 40
1.0
 40
1.0
 40
1.0
 40
1.0
 10
0.93232
 20
3.6824300000000001
 30
0.0
 10
0.93232
 20
3.6824300000000001
 30
0.0
 10
0.9805800000000001
 20
3.6824300000000001
 30
0.0
 10
0.9805800000000001
 20
3.6824300000000001
 30
0.0
 10
0.9805800000000001
 20
3.6824300000000001
 30
0.0
 10
0.9475600000000001
 20
3.4360500000000003
 30
0.0
 10
1.2117200000000001
 20
3.3547700000000003
 30
0.0
 10
1.3742800000000002
 20
3.2709500000000005
 30
0.0
 10
1.3742800000000002
 20
3.2709500000000005
 30
0.0
 10
1.2117200000000001
 20
3.1896700000000004
 30
0.0
 10
1.0136000000000001
 20
3.1896700000000004
 30
0.0
 10
0.8332600000000001
 20
3.1566500000000004
 30
0.0
 10
0.8332600000000001
 20
3.1566500000000004
 30
0.0
 10
0.8332600000000001
 20
3.1566500000000004
 30
0.0
 10
0.85104
 20
3.2404700000000002
 30
0.0
 10
0.85104
 20
3.2404700000000002
 30
0.0
 10
0.85104
 20
3.2404700000000002
 30
0.0
 10
0.85104
 20
3.2404700000000002
 30
0.0
 10
0.9983600000000001
 20
3.3369900000000001
 30
0.0
 10
0.9983600000000001
 20
3.3369900000000001
 30
0.0
 10
0.9983600000000001
 20
3.3369900000000001
 30
0.0
 10
0.91454
 20
3.4360500000000003
 30
0.0
 10
0.8180200000000001
 20
3.5655900000000003
 30
0.0
 10
0.93232
 20
3.6824300000000001
 30
0.0
  0
SPLINE
  5
2B
100
AcDbEntity
  8
Ebene 1
100
AcDbSpline
210
0.0
220
0.0
230
1.0
 70
     1
 71
     3
 72
    52
 73
    48
 74
     0
 42
0.0000000001
 43
0.0000000001
 40
0.0
 40
0.0
 40
0.0
 40
0.0
 40
0.0833333333333333
 40
0.0833333333333333
 40
0.0833333333333333
 40
0.0833333333333333
 40
0.1666666666666667
 40
0.1666666666666667
 40
0.1666666666666667
 40
0.1666666666666667
 40
0.25
 40
0.25
 40
0.25
 40
0.25
 40
0.3333333333333333
 40
0.3333333333333333
 40
0.3333333333333333
 40
0.3333333333333333
 40
0.4166666666666666
 40
0.4166666666666666
 40
0.4166666666666666
 40
0.4166666666666666
 40
0.4999999999999999
 40
0.4999999999999999
 40
0.4999999999999999
 40
0.4999999999999999
 40
0.5833333333333333
 40
0.5833333333333333
 40
0.5833333333333333
 40
0.5833333333333333
 40
0.6666666666666666
 40
0.6666666666666666
 40
0.6666666666666666
 40
0.6666666666666666
 40
0.75
 40
0.75
 40
0.75
 40
0.75
 40
0.8333333333333334
 40
0.8333333333333334
 40
0.8333333333333334
 40
0.8333333333333334
 40
0.9166666666666667
 40
0.9166666666666667
 40
0.9166666666666667
 40
0.9166666666666667
 40
1.0
 40
1.0
 40
1.0
 40
1.0
 10
1.2269600000000001
 20
3.0753700000000004
 30
0.0
 10
1.3260200000000002
 20
3.0753700000000004
 30
0.0
 10
1.27776
 20
2.9280500000000003
 30
0.0
 10
1.4073000000000002
 20
2.9102700000000001
 30
0.0
 10
1.4073000000000002
 20
2.9102700000000001
 30
0.0
 10
2.0981800000000002
 20
2.9432900000000002
 30
0.0
 10
3.0659200000000002
 20
3.2887300000000002
 30
0.0
 10
3.5739200000000002
 20
2.6664300000000001
 30
0.0
 10
3.5739200000000002
 20
2.6664300000000001
 30
0.0
 10
3.5739200000000002
 20
2.6664300000000001
 30
0.0
 10
3.3453200000000001
 20
2.5495900000000002
 30
0.0
 10
3.3453200000000001
 20
2.5495900000000002
 30
0.0
 10
3.3453200000000001
 20
2.5495900000000002
 30
0.0
 10
3.2792800000000004
 20
2.5165700000000002
 30
0.0
 10
3.1802200000000003
 20
2.4352900000000002
 30
0.0
 10
3.0989400000000002
 20
2.4835500000000001
 30
0.0
 10
3.0989400000000002
 20
2.4835500000000001
 30
0.0
 10
3.0989400000000002
 20
2.4835500000000001
 30
0.0
 10
3.3427800000000003
 20
2.6156300000000003
 30
0.0
 10
3.3427800000000003
 20
2.6156300000000003
 30
0.0
 10
3.3427800000000003
 20
2.6156300000000003
 30
0.0
 10
3.3427800000000003
 20
2.6156300000000003
 30
0.0
 10
3.3935800000000005
 20
2.6969100000000004
 30
0.0
 10
3.3935800000000005
 20
2.6969100000000004
 30
0.0
 10
3.3935800000000005
 20
2.6969100000000004
 30
0.0
 10
3.3935800000000005
 20
2.6969100000000004
 30
0.0
 10
2.88558
 20
2.5013300000000003
 30
0.0
 10
2.88558
 20
2.5013300000000003
 30
0.0
 10
2.88558
 20
2.5013300000000003
 30
0.0
 10
2.8347800000000003
 20
2.4352900000000002
 30
0.0
 10
2.6569800000000003
 20
2.5165700000000002
 30
0.0
 10
2.8043
 20
2.5318100000000001
 30
0.0
 10
2.8043
 20
2.5318100000000001
 30
0.0
 10
2.9998800000000001
 20
2.5648300000000002
 30
0.0
 10
3.2132400000000003
 20
2.6486500000000004
 30
0.0
 10
3.3453200000000001
 20
2.8137500000000002
 30
0.0
 10
3.3453200000000001
 20
2.8137500000000002
 30
0.0
 10
3.0329000000000002
 20
2.8950300000000002
 30
0.0
 10
2.7382600000000004
 20
2.5978500000000002
 30
0.0
 10
2.4410800000000004
 20
2.4835500000000001
 30
0.0
 10
2.4410800000000004
 20
2.4835500000000001
 30
0.0
 10
2.1642200000000003
 20
2.5013300000000003
 30
0.0
 10
1.9483200000000001
 20
2.68167
 30
0.0
 10
1.7044800000000002
 20
2.7959700000000001
 30
0.0
 10
1.7044800000000002
 20
2.7959700000000001
 30
0.0
 10
1.5063600000000001
 20
2.71469
 30
0.0
 10
1.1304400000000001
 20
2.8137500000000002
 30
0.0
 10
1.2269600000000001
 20
3.0753700000000004
 30
0.0
  0
SPLINE
  5
2C
100
AcDbEntity
  8
Ebene 1
100
AcDbSpline
210
0.0
220
0.0
230
1.0
 70
     1
 71
     3
 72
    20
 73
    16
 74
     0
 42
0.0000000001
 43
0.0000000001
 40
0.0
 40
0.0
 40
0.0
 40
0.0
 40
0.25
 40
0.25
 40
0.25
 40
0.25
 40
0.5
 40
0.5
 40
0.5
 40
0.5
 40
0.75
 40
0.75
 40
0.75
 40
0.75
 40
1.0
 40
1.0
 40
1.0
 40
1.0
 10
0.71896
 20
2.84423
 30
0.0
 10
1.1634600000000002
 20
2.8137500000000002
 30
0.0
 10
1.5393800000000002
 20
2.5165700000000002
 30
0.0
 10
1.8187800000000001
 20
2.1889100000000004
 30
0.0
 10
1.8187800000000001
 20
2.1889100000000004
 30
0.0
 10
1.9813400000000001
 20
1.8104500000000001
 30
0.0
 10
1.5571600000000001
 20
1.61487
 30
0.0
 10
1.27776
 20
1.53105
 30
0.0
 10
1.27776
 20
1.53105
 30
0.0
 10
0.8993000000000001
 20
1.5158100000000001
 30
0.0
 10
0.5564
 20
1.7469500000000002
 30
0.0
 10
0.30748
 20
2.0238100000000001
 30
0.0
 10
0.30748
 20
2.0238100000000001
 30
0.0
 10
0.1119
 20
2.3692500000000001
 30
0.0
 10
0.277
 20
2.8772500000000001
 30
0.0
 10
0.71896
 20
2.84423
 30
0.0
  0
SPLINE
  5
2D
100
AcDbEntity
  8
Ebene 1
 62
     7
100
AcDbSpline
210
0.0
220
0.0
230
1.0
 70
     1
 71
     3
 72
   120
 73
   116
 74
     0
 42
0.0000000001
 43
0.0000000001
 40
0.0
 40
0.0
 40
0.0
 40
0.0
 40
0.0344827586206897
 40
0.0344827586206897
 40
0.0344827586206897
 40
0.0344827586206897
 40
0.0689655172413793
 40
0.0689655172413793
 40
0.0689655172413793
 40
0.0689655172413793
 40
0.103448275862069
 40
0.103448275862069
 40
0.103448275862069
 40
0.103448275862069
 40
0.1379310344827586
 40
0.1379310344827586
 40
0.1379310344827586
 40
0.1379310344827586
 40
0.1724137931034483
 40
0.1724137931034483
 40
0.1724137931034483
 40
0.1724137931034483
 40
0.206896551724138
 40
0.206896551724138
 40
0.206896551724138
 40
0.206896551724138
 40
0.2413793103448276
 40
0.2413793103448276
 40
0.2413793103448276
 40
0.2413793103448276
 40
0.2758620689655173
 40
0.2758620689655173
 40
0.2758620689655173
 40
0.2758620689655173
 40
0.310344827586207
 40
0.310344827586207
 40
0.310344827586207
 40
0.310344827586207
 40
0.3448275862068966
 40
0.3448275862068966
 40
0.3448275862068966
 40
0.3448275862068966
 40
0.3793103448275863
 40
0.3793103448275863
 40
0.3793103448275863
 40
0.3793103448275863
 40
0.413793103448276
 40
0.413793103448276
 40
0.413793103448276
 40
0.413793103448276
 40
0.4482758620689656
 40
0.4482758620689656
 40
0.4482758620689656
 40
0.4482758620689656
 40
0.4827586206896553
 40
0.4827586206896553
 40
0.4827586206896553
 40
0.4827586206896553
 40
0.517241379310345
 40
0.517241379310345
 40
0.517241379310345
 40
0.517241379310345
 40
0.5517241379310346
 40
0.5517241379310346
 40
0.5517241379310346
 40
0.5517241379310346
 40
0.5862068965517242
 40
0.5862068965517242
 40
0.5862068965517242
 40
0.5862068965517242
 40
0.6206896551724138
 40
0.6206896551724138
 40
0.6206896551724138
 40
0.6206896551724138
 40
0.6551724137931034
 40
0.6551724137931034
 40
0.6551724137931034
 40
0.6551724137931034
 40
0.689655172413793
 40
0.689655172413793
 40
0.689655172413793
 40
0.689655172413793
 40
0.7241379310344827
 40
0.7241379310344827
 40
0.7241379310344827
 40
0.7241379310344827
 40
0.7586206896551723
 40
0.7586206896551723
 40
0.7586206896551723
 40
0.7586206896551723
 40
0.7931034482758619
 40
0.7931034482758619
 40
0.7931034482758619
 40
0.7931034482758619
 40
0.8275862068965515
 40
0.8275862068965515
 40
0.8275862068965515
 40
0.8275862068965515
 40
0.8620689655172411
 40
0.8620689655172411
 40
0.8620689655172411
 40
0.8620689655172411
 40
0.8965517241379307
 40
0.8965517241379307
 40
0.8965517241379307
 40
0.8965517241379307
 40
0.9310344827586203
 40
0.9310344827586203
 40
0.9310344827586203
 40
0.9310344827586203
 40
0.9655172413793099
 40
0.9655172413793099
 40
0.9655172413793099
 40
0.9655172413793099
 40
1.0
 40
1.0
 40
1.0
 40
1.0
 10
3.1980000000000004
 20
1.1398900000000001
 30
0.0
 10
4.3460800000000006
 20
1.0078100000000001
 30
0.0
 10
2.0143600000000004
 20
0.00705
 30
0.0
 10
3.0151200000000005
 20
-0.20376
 30
0.0
 10
3.0151200000000005
 20
-0.20376
 30
0.0
 10
3.0329000000000002
 20
-0.23678
 30
0.0
 10
2.9821000000000004
 20
-0.30282
 30
0.0
 10
2.9668600000000001
 20
-0.33584
 30
0.0
 10
2.9668600000000001
 20
-0.33584
 30
0.0
 10
2.9668600000000001
 20
-0.33584
 30
0.0
 10
2.8678000000000003
 20
-0.5822200000000001
 30
0.0
 10
2.8678000000000003
 20
-0.5822200000000001
 30
0.0
 10
2.8678000000000003
 20
-0.5822200000000001
 30
0.0
 10
3.0989400000000002
 20
-0.2698
 30
0.0
 10
3.4418400000000005
 20
-0.08946
 30
0.0
 10
3.7720400000000005
 20
0.08833
 30
0.0
 10
3.7720400000000005
 20
0.08833
 30
0.0
 10
3.6729800000000004
 20
0.07309
 30
0.0
 10
3.5739200000000002
 20
0.04007
 30
0.0
 10
3.4748600000000005
 20
-0.00818
 30
0.0
 10
3.4748600000000005
 20
-0.00818
 30
0.0
 10
3.2945200000000003
 20
-0.12248
 30
0.0
 10
2.9338400000000004
 20
-0.20376
 30
0.0
 10
2.8525600000000004
 20
0.02229
 30
0.0
 10
2.8525600000000004
 20
0.02229
 30
0.0
 10
3.2132400000000003
 20
-0.0412
 30
0.0
 10
3.5739200000000002
 20
0.16961
 30
0.0
 10
3.8050600000000001
 20
0.43377
 30
0.0
 10
3.8050600000000001
 20
0.43377
 30
0.0
 10
3.9523800000000002
 20
0.5658500000000001
 30
0.0
 10
4.24702
 20
0.7766700000000001
 30
0.0
 10
4.4121200000000007
 20
0.58109
 30
0.0
 10
4.4121200000000007
 20
0.58109
 30
0.0
 10
4.4756200000000002
 20
0.15437
 30
0.0
 10
4.1149400000000007
 20
-0.10724
 30
0.0
 10
3.8533200000000005
 20
-0.36886
 30
0.0
 10
3.8533200000000005
 20
-0.36886
 30
0.0
 10
3.6729800000000004
 20
-0.5161800000000001
 30
0.0
 10
3.4418400000000005
 20
-0.5492
 30
0.0
 10
3.2132400000000003
 20
-0.61524
 30
0.0
 10
3.2132400000000003
 20
-0.61524
 30
0.0
 10
3.2132400000000003
 20
-0.48316
 30
0.0
 10
3.6069400000000003
 20
-0.33584
 30
0.0
 10
3.4266000000000001
 20
-0.30282
 30
0.0
 10
3.4266000000000001
 20
-0.30282
 30
0.0
 10
3.0151200000000005
 20
-0.43236
 30
0.0
 10
2.8043
 20
-0.8768600000000001
 30
0.0
 10
2.4410800000000004
 20
-1.0902200000000002
 30
0.0
 10
2.4410800000000004
 20
-1.0902200000000002
 30
0.0
 10
1.5063600000000001
 20
-1.12324
 30
0.0
 10
0.5894200000000001
 20
-1.5652000000000001
 30
0.0
 10
0.09666
 20
-2.4034
 30
0.0
 10
0.09666
 20
-2.4034
 30
0.0
 10
0.21096
 20
-2.3221200000000004
 30
0.0
 10
0.5233800000000001
 20
-1.9436600000000002
 30
0.0
 10
0.57164
 20
-2.0427200000000001
 30
0.0
 10
0.57164
 20
-2.0427200000000001
 30
0.0
 10
0.57164
 20
-2.0427200000000001
 30
0.0
 10
0.5056000000000001
 20
-2.1900400000000002
 30
0.0
 10
0.5056000000000001
 20
-2.1900400000000002
 30
0.0
 10
0.5056000000000001
 20
-2.1900400000000002
 30
0.0
 10
0.23128
 20
-2.4643600000000001
 30
0.0
 10
0.07634
 20
-2.8656800000000002
 30
0.0
 10
-0.23099
 20
-3.1501600000000001
 30
0.0
 10
-0.23099
 20
-3.1501600000000001
 30
0.0
 10
-0.6475500000000001
 20
-3.5337000000000005
 30
0.0
 10
-0.8202700000000001
 20
-3.8766000000000003
 30
0.0
 10
-1.1504700000000001
 20
-4.3388800000000005
 30
0.0
 10
-1.1504700000000001
 20
-4.3388800000000005
 30
0.0
 10
-0.9193300000000001
 20
-4.2245800000000004
 30
0.0
 10
-0.37831
 20
-3.5032200000000002
 30
0.0
 10
-0.6907300000000001
 20
-4.1737800000000007
 30
0.0
 10
-0.6907300000000001
 20
-4.1737800000000007
 30
0.0
 10
-0.8532900000000001
 20
-4.3566600000000006
 30
0.0
 10
-1.3460500000000002
 20
-4.7656000000000001
 30
0.0
 10
-1.3612900000000001
 20
-4.5039800000000003
 30
0.0
 10
-1.3612900000000001
 20
-4.5039800000000003
 30
0.0
 10
-1.6076700000000002
 20
-4.6513
 30
0.0
 10
-1.9150100000000001
 20
-4.9307000000000007
 30
0.0
 10
-2.2147300000000003
 20
-4.7808400000000004
 30
0.0
 10
-2.2147300000000003
 20
-4.7808400000000004
 30
0.0
 10
-1.67371
 20
-4.6005000000000003
 30
0.0
 10
-1.3943100000000002
 20
-4.0772600000000008
 30
0.0
 10
-1.1809500000000002
 20
-3.5845000000000002
 30
0.0
 10
-1.1809500000000002
 20
-3.5845000000000002
 30
0.0
 10
-1.1809500000000002
 20
-3.5845000000000002
 30
0.0
 10
-1.0996700000000001
 20
-3.3863800000000004
 30
0.0
 10
-1.0996700000000001
 20
-3.3863800000000004
 30
0.0
 10
-1.0996700000000001
 20
-3.3863800000000004
 30
0.0
 10
-0.9015500000000001
 20
-3.1069800000000001
 30
0.0
 10
-0.9244100000000001
 20
-2.7234400000000001
 30
0.0
 10
-0.69581
 20
-2.4948400000000004
 30
0.0
 10
-0.69581
 20
-2.4948400000000004
 30
0.0
 10
-0.69581
 20
-2.4948400000000004
 30
0.0
 10
-0.71867
 20
-2.7336
 30
0.0
 10
-0.71867
 20
-2.7336
 30
0.0
 10
-0.71867
 20
-2.7336
 30
0.0
 10
-0.71867
 20
-2.7336
 30
0.0
 10
-0.7872500000000001
 20
-3.2898600000000005
 30
0.0
 10
-0.7872500000000001
 20
-3.2898600000000005
 30
0.0
 10
-0.7872500000000001
 20
-3.2898600000000005
 30
0.0
 10
-0.7059700000000001
 20
-3.1908000000000003
 30
0.0
 10
-0.6729500000000001
 20
-3.0257000000000001
 30
0.0
 10
-0.6246900000000001
 20
-2.8961600000000001
 30
0.0
 10
-0.6246900000000001
 20
-2.8961600000000001
 30
0.0
 10
-0.65771
 20
-1.5829800000000001
 30
0.0
 10
0.19318
 20
-0.1555
 30
0.0
 10
1.65368
 20
-0.1555
 30
0.0
 10
1.65368
 20
-0.1555
 30
0.0
 10
1.6384400000000001
 20
-0.2698
 30
0.0
 10
1.5063600000000001
 20
-0.43236
 30
0.0
 10
1.5901800000000001
 20
-0.5161800000000001
 30
0.0
 10
1.5901800000000001
 20
-0.5161800000000001
 30
0.0
 10
2.1312000000000002
 20
0.00705
 30
0.0
 10
2.4080600000000003
 20
0.9239900000000001
 30
0.0
 10
3.1980000000000004
 20
1.1398900000000001
 30
0.0
  0
SPLINE
  5
2E
100
AcDbEntity
  8
Ebene 1
 62
     7
100
AcDbSpline
210
0.0
220
0.0
230
1.0
 70
     1
 71
     3
 72
    16
 73
    12
 74
     0
 42
0.0000000001
 43
0.0000000001
 40
0.0
 40
0.0
 40
0.0
 40
0.0
 40
0.3333333333333333
 40
0.3333333333333333
 40
0.3333333333333333
 40
0.3333333333333333
 40
0.6666666666666666
 40
0.6666666666666666
 40
0.6666666666666666
 40
0.6666666666666666
 40
1.0
 40
1.0
 40
1.0
 40
1.0
 10
-1.7880100000000001
 20
-2.9291800000000001
 30
0.0
 10
-1.7880100000000001
 20
-2.9291800000000001
 30
0.0
 10
-1.7067300000000001
 20
-3.6327600000000002
 30
0.0
 10
-1.7067300000000001
 20
-3.6327600000000002
 30
0.0
 10
-1.7067300000000001
 20
-3.6327600000000002
 30
0.0
 10
-1.8540500000000002
 20
-3.8639000000000001
 30
0.0
 10
-1.8769100000000001
 20
-4.19156
 30
0.0
 10
-2.0953500000000003
 20
-4.3719000000000001
 30
0.0
 10
-2.0953500000000003
 20
-4.3719000000000001
 30
0.0
 10
-1.9048500000000002
 20
-3.9121600000000005
 30
0.0
 10
-1.8388100000000001
 20
-3.4041600000000001
 30
0.0
 10
-1.7880100000000001
 20
-2.9291800000000001
 30
0.0
  0
ENDSEC
  0
SECTION
  2
OBJECTS
  0
DICTIONARY
  5
19
100
AcDbDictionary
280
     0
281
     1
  3
ACAD_GROUP
350
1A
  3
ACAD_MLINESTYLE
350
1B
  3
ACAD_LAYOUT
350
1E
  3
ACAD_PLOTSETTINGS
350
22
  3
ACAD_PLOTSTYLENAME
350
1F
  3
ACAD_WIPEOUT_VARS
350
23
  0
DICTIONARY
  5
1A
102
{ACAD_REACTORS
330
19
102
}
100
AcDbDictionary
280
     0
281
     1
  0
DICTIONARY
  5
1B
102
{ACAD_REACTORS
330
19
102
}
100
AcDbDictionary
280
     0
281
     1
  3
Standard
350
1C
  0
MLINESTYLE
  5
1C
102
{ACAD_REACTORS
330
1B
102
}
100
AcDbMlineStyle
  2
Standard
 70
     0
  3

 62
     0
 51
90.0
 52
90.0
 71
     2
 49
0.5
 62
   256
  6
BYLAYER
 49
-0.5
 62
   256
  6
BYLAYER
  0
ACDBDICTIONARYWDFLT
  5
1F
102
{ACAD_REACTORS
330
19
102
}
100
AcDbDictionary
281
     1
  3
Normal
350
1D
100
AcDbDictionaryWithDefault
340
1D
  0
ACDBPLACEHOLDER
  5
1D
102
{ACAD_REACTORS
330
1F
102
}
  0
LAYOUT
  5
20
102
{ACAD_REACTORS
330
1E
102
}
100
AcDbPlotSettings
  1

  2

  4

  6

 40
0.0
 41
0.0
 42
0.0
 43
0.0
 44
0.0
 45
0.0
 46
0.0
 47
0.0
 48
0.0
 49
0.0
140
0.0
141
0.0
142
1.0
143
1.0
 70
  1024
 72
     0
 73
     0
 74
     0
  7

 75
     0
147
1.0
148
0.0
149
0.0
100
AcDbLayout
  1
Model
 70
     0
 71
     0
 10
0.0
 20
0.0
 11
0.0
 21
0.0
 12
0.0
 22
0.0
 32
0.0
 14
0.0
 24
0.0
 34
0.0
 15
0.0
 25
0.0
 35
0.0
146
0.0
 13
0.0
 23
0.0
 33
0.0
 16
0.0
 26
0.0
 36
0.0
 17
0.0
 27
0.0
 37
0.0
 76
     0
330
A
331
0
345
0
346
0
  0
LAYOUT
  5
21
102
{ACAD_REACTORS
330
1E
102
}
100
AcDbPlotSettings
  1

  2

  4

  6

 40
0.0
 41
0.0
 42
0.0
 43
0.0
 44
0.0
 45
0.0
 46
0.0
 47
0.0
 48
0.0
 49
0.0
140
0.0
141
0.0
142
1.0
143
1.0
 70
     0
 72
     0
 73
     0
 74
     0
  7

 75
     0
147
1.0
148
0.0
149
0.0
100
AcDbLayout
  1
Layout1
 70
     0
 71
     0
 10
0.0
 20
0.0
 11
0.0
 21
0.0
 12
0.0
 22
0.0
 32
0.0
 14
0.0
 24
0.0
 34
0.0
 15
0.0
 25
0.0
 35
0.0
146
0.0
 13
0.0
 23
0.0
 33
0.0
 16
0.0
 26
0.0
 36
0.0
 17
0.0
 27
0.0
 37
0.0
 76
     0
330
B
331
0
345
0
346
0
  0
DICTIONARY
  5
1E
102
{ACAD_REACTORS
330
19
102
}
100
AcDbDictionary
280
     0
281
     1
  3
Layout1
350
21
  3
Model
350
20
  0
DICTIONARY
  5
22
102
{ACAD_REACTORS
330
19
102
}
100
AcDbDictionary
280
     0
281
     1
  0
WIPEOUTVARIABLES
  5
23
100
AcDbWipeoutVariables
 70
     1
  0
ENDSEC
  0
EOF
