  0
SECTION
  2
HEADER
  9
$ACADVER
  1
AC1015
  9
$ACADMAINTVER
 70
     6
  9
$DWGCODEPAGE
  3
DOS850
  9
$INSBASE
 10
0.0
 20
0.0
 30
0.0
  9
$EXTMIN
 10
-5.07223
 20
-4.49822
 30
1.000000E+20
  9
$EXTMAX
 10
5.07907
 20
4.49311
 30
-1.000000E+20
  9
$LIMMIN
 10
0.0
 20
0.0
  9
$LIMMAX
 10
0.0
 20
0.0
  9
$ORTHOMODE
 70
     0
  9
$REGENMODE
 70
     1
  9
$FILLMODE
 70
     1
  9
$QTEXTMODE
 70
     0
  9
$MIRRTEXT
 70
     1
  9
$LTSCALE
 40
1.0
  9
$ATTMODE
 70
     1
  9
$TEXTSIZE
 40
0.2
  9
$TRACEWID
 40
0.05
  9
$TEXTSTYLE
  7
Standard
  9
$CLAYER
  8
0
  9
$CELTYPE
  6
Continuous
  9
$CECOLOR
 62
   256
  9
$CELTSCALE
 40
1.0
  9
$DISPSILH
 70
     0
  9
$DIMSCALE
 40
1.0
  9
$DIMASZ
 40
0.18
  9
$DIMEXO
 40
0.0625
  9
$DIMDLI
 40
0.38
  9
$DIMRND
 40
0.0
  9
$DIMDLE
 40
0.0
  9
$DIMEXE
 40
0.18
  9
$DIMTP
 40
0.0
  9
$DIMTM
 40
0.0
  9
$DIMTXT
 40
0.18
  9
$DIMCEN
 40
0.09
  9
$DIMTSZ
 40
0.0
  9
$DIMTOL
 70
     0
  9
$DIMLIM
 70
     0
  9
$DIMTIH
 70
     1
  9
$DIMTOH
 70
     1
  9
$DIMSE1
 70
     0
  9
$DIMSE2
 70
     0
  9
$DIMTAD
 70
     0
  9
$DIMZIN
 70
     0
  9
$DIMBLK
  1

  9
$DIMASO
 70
     1
  9
$DIMSHO
 70
     1
  9
$DIMPOST
  1

  9
$DIMAPOST
  1

  9
$DIMALT
 70
     0
  9
$DIMALTD
 70
     2
  9
$DIMALTF
 40
25.4
  9
$DIMLFAC
 40
1.0
  9
$DIMTOFL
 70
     0
  9
$DIMTVP
 40
0.0
  9
$DIMTIX
 70
     0
  9
$DIMSOXD
 70
     0
  9
$DIMSAH
 70
     0
  9
$DIMBLK1
  1

  9
$DIMBLK2
  1

  9
$DIMSTYLE
  2
Standard
  9
$DIMCLRD
 70
     0
  9
$DIMCLRE
 70
     0
  9
$DIMCLRT
 70
     0
  9
$DIMTFAC
 40
1.0
  9
$DIMGAP
 40
0.09
  9
$DIMJUST
 70
     0
  9
$DIMSD1
 70
     0
  9
$DIMSD2
 70
     0
  9
$DIMTOLJ
 70
     1
  9
$DIMTZIN
 70
     0
  9
$DIMALTZ
 70
     0
  9
$DIMALTTZ
 70
     0
  9
$DIMUPT
 70
     0
  9
$DIMDEC
 70
     4
  9
$DIMTDEC
 70
     4
  9
$DIMALTU
 70
     2
  9
$DIMALTTD
 70
     2
  9
$DIMTXSTY
  7
Standard
  9
$DIMAUNIT
 70
     0
  9
$DIMADEC
 70
     0
  9
$DIMALTRND
 40
0.0
  9
$DIMAZIN
 70
     0
  9
$DIMDSEP
 70
     0
  9
$DIMATFIT
 70
     3
  9
$DIMFRAC
 70
     0
  9
$DIMLDRBLK
  1

  9
$DIMLUNIT
 70
     2
  9
$DIMLWD
 70
     0
  9
$DIMLWE
 70
     0
  9
$DIMTMOVE
 70
     0
  9
$LUNITS
 70
     2
  9
$LUPREC
 70
     4
  9
$SKETCHINC
 40
0.1
  9
$FILLETRAD
 40
0.0
  9
$AUNITS
 70
     0
  9
$AUPREC
 70
     0
  9
$MENU
  1
acad
  9
$ELEVATION
 40
0.0
  9
$PELEVATION
 40
0.0
  9
$THICKNESS
 40
0.0
  9
$LIMCHECK
 70
     0
  9
$CHAMFERA
 40
0.0
  9
$CHAMFERB
 40
0.0
  9
$CHAMFERC
 40
0.0
  9
$CHAMFERD
 40
0.0
  9
$SKPOLY
 70
     0
  9
$TDCREATE
 40
0.000000000
  9
$TDUCREATE
 40
0.000000000
  9
$TDUPDATE
 40
0.000000000
  9
$TDUUPDATE
 40
0.000000000
  9
$TDINDWG
 40
0.0000000000
  9
$TDUSRTIMER
 40
0.0000000000
  9
$USRTIMER
 70
     1
  9
$ANGBASE
 50
0.0
  9
$ANGDIR
 70
     0
  9
$PDMODE
 70
     0
  9
$PDSIZE
 40
0.0
  9
$PLINEWID
 40
0.0
  9
$SPLFRAME
 70
     0
  9
$SPLINETYPE
 70
     6
  9
$SPLINESEGS
 70
     8
  9
$HANDSEED
  5
43
  9
$SURFTAB1
 70
     6
  9
$SURFTAB2
 70
     6
  9
$SURFTYPE
 70
     6
  9
$SURFU
 70
     6
  9
$SURFV
 70
     6
  9
$UCSBASE
  2

  9
$UCSNAME
  2

  9
$UCSORG
 10
0.0
 20
0.0
 30
0.0
  9
$UCSXDIR
 10
1.0
 20
0.0
 30
0.0
  9
$UCSYDIR
 10
0.0
 20
1.0
 30
0.0
  9
$UCSORTHOREF
  2

  9
$UCSORTHOVIEW
 70
     0
  9
$UCSORGTOP
 10
0.0
 20
0.0
 30
0.0
  9
$UCSORGBOTTOM
 10
0.0
 20
0.0
 30
0.0
  9
$UCSORGLEFT
 10
0.0
 20
0.0
 30
0.0
  9
$UCSORGRIGHT
 10
0.0
 20
0.0
 30
0.0
  9
$UCSORGFRONT
 10
0.0
 20
0.0
 30
0.0
  9
$UCSORGBACK
 10
0.0
 20
0.0
 30
0.0
  9
$PUCSBASE
  2

  9
$PUCSNAME
  2

  9
$PUCSORG
 10
0.0
 20
0.0
 30
0.0
  9
$PUCSXDIR
 10
1.0
 20
0.0
 30
0.0
  9
$PUCSYDIR
 10
0.0
 20
1.0
 30
0.0
  9
$PUCSORTHOREF
  2

  9
$PUCSORTHOVIEW
 70
     0
  9
$PUCSORGTOP
 10
0.0
 20
0.0
 30
0.0
  9
$PUCSORGBOTTOM
 10
0.0
 20
0.0
 30
0.0
  9
$PUCSORGLEFT
 10
0.0
 20
0.0
 30
0.0
  9
$PUCSORGRIGHT
 10
0.0
 20
0.0
 30
0.0
  9
$PUCSORGFRONT
 10
0.0
 20
0.0
 30
0.0
  9
$PUCSORGBACK
 10
0.0
 20
0.0
 30
0.0
  9
$USERI1
 70
     0
  9
$USERI2
 70
     0
  9
$USERI3
 70
     0
  9
$USERI4
 70
     0
  9
$USERI5
 70
     0
  9
$USERR1
 40
0.0
  9
$USERR2
 40
0.0
  9
$USERR3
 40
0.0
  9
$USERR4
 40
0.0
  9
$USERR5
 40
0.0
  9
$WORLDVIEW
 70
     1
  9
$SHADEDGE
 70
     3
  9
$SHADEDIF
 70
    70
  9
$TILEMODE
 70
     1
  9
$MAXACTVP
 70
    16
  9
$PINSBASE
 10
0.0
 20
0.0
 30
0.0
  9
$PLIMCHECK
 70
     0
  9
$PEXTMIN
 10
1.000000E+20
 20
1.000000E+20
 30
1.000000E+20
  9
$PEXTMAX
 10
-1.000000E+20
 20
-1.000000E+20
 30
-1.000000E+20
  9
$PLIMMIN
 10
0.0
 20
0.0
  9
$PLIMMAX
 10
12.0
 20
9.0
  9
$UNITMODE
 70
     0
  9
$VISRETAIN
 70
     0
  9
$PLINEGEN
 70
     1
  9
$PSLTSCALE
 70
     0
  9
$TREEDEPTH
 70
  3020
  9
$CMLSTYLE
  2
Standard
  9
$CMLJUST
 70
     0
  9
$CMLSCALE
 40
1.0
  9
$PROXYGRAPHICS
 70
     0
  9
$MEASUREMENT
 70
     0
  9
$CELWEIGHT
370
     0
  9
$ENDCAPS
280
     0
  9
$JOINSTYLE
280
     0
  9
$LWDISPLAY
290
     0
  9
$INSUNITS
 70
     5
  9
$HYPERLINKBASE
  1

  9
$XEDIT
290
     1
  9
$CEPSNTYPE
380
     0
  9
$PSTYLEMODE
290
     1
  9
$FINGERPRINTGUID
  2

  9
$VERSIONGUID
  2

  9
$EXTNAMES
290
     1
  9
$PSVPSCALE
 40
0.0
  0
ENDSEC
  0
SECTION
  2
CLASSES
  0
CLASS
  1
LWPOLYLINE
  2
AcDbPolyline
  3
AutoCAD 2000
 90
    32768
280
     0
281
     1
  0
CLASS
  1
IMAGE
  2
AcDbRasterImage
  3
ISM
 90
    32895
280
     0
281
     1
  0
CLASS
  1
OLE2FRAME
  2
AcDbOle2Frame
  3
AutoCAD 2000
 90
    32768
280
     0
281
     1
  0
CLASS
  1
HATCH
  2
AcDbHatch
  3
AutoCAD 2000
 90
    32768
280
     0
281
     1
  0
CLASS
  1
DICTIONARYVAR
  2
AcDbDictionaryVar
  3
AutoCAD 2000
 90
    32768
280
     0
281
     0
  0
CLASS
  1
RASTERVARIABLES
  2
AcDbRasterVariables
  3
ISM
 90
    32768
280
     0
281
     0
  0
CLASS
  1
IMAGEDEF
  2
AcDbRasterImageDef
  3
ISM
 90
    32768
280
     0
281
     0
  0
CLASS
  1
IMAGEDEF_REACTOR
  2
AcDbRasterImageDefReactor
  3
ISM
 90
    32769
280
     0
281
     0
  0
CLASS
  1
IDBUFFER
  2
AcDbIdBuffer
  3
AutoCAD 2000
 90
    32768
280
     0
281
     0
  0
CLASS
  1
SPATIAL_FILTER
  2
AcDbSpatialFilter
  3
AutoCAD 2000
 90
    32768
280
     0
281
     0
  0
CLASS
  1
XRECORD
  2
AcDbXrecord
  3
AutoCAD 2000
 90
    32768
280
     0
281
     0
  0
CLASS
  1
SORTENTSTABLE
  2
AcDbSortentsTable
  3
AutoCAD 2000
 90
    32768
280
     0
281
     0
  0
CLASS
  1
LAYER_INDEX
  2
AcDbLayerIndex
  3
AutoCAD 2000
 90
    32768
280
     0
281
     0
  0
CLASS
  1
SPATIAL_INDEX
  2
AcDbSpatialIndex
  3
AutoCAD 2000
 90
    32768
280
     0
281
     0
  0
CLASS
  1
OBJECT_PTR
  2
CAseDLPNTableRecord
  3
"ASE-LPNTableRecord"
 90
    32769
280
     0
281
     0
  0
CLASS
  1
LAYOUT
  2
AcDbLayout
  3
AutoCAD 2000
 90
        0
280
     0
281
     0
  0
CLASS
  1
PLOTSETTINGS
  2
AcDbPlotSettings
  3
AutoCAD 2000
 90
    32768
280
     0
281
     0
  0
CLASS
  1
ACDBDICTIONARYWDFLT
  2
AcDbDictionaryWithDefault
  3
AutoCAD 2000
 90
        0
280
     0
281
     0
  0
CLASS
  1
ACDBPLACEHOLDER
  2
AcDbPlaceHolder
  3
AutoCAD 2000
 90
        0
280
     0
281
     0
  0
CLASS
  1
VBA_PROJECT
  2
AcDbVbaProject
  3
acadvba
 90
    32768
280
     0
281
     0
  0
CLASS
  1
WIPEOUT
  2
AcDbWipeout
  3
WipeOut|AutoCAD Express Tool|expresstools@autodesk.com
 90
    32895
280
     0
281
     1
  0
CLASS
  1
WIPEOUTVARIABLES
  2
AcDbWipeoutVariables
  3
WipeOut|AutoCAD Express Tool|expresstools@autodesk.com
 90
        0
280
     0
281
     0
  0
CLASS
  1
RTEXT
  2
RText
  3
RText|AutoCAD Express Tool|expresstools@autodesk.com
 90
    32768
280
     0
281
     1
  0
CLASS
  1
ARCALIGNEDTEXT
  2
AcDbArcAlignedText
  3
ATEXT|AutoCAD Express Tool|expresstools@autodesk.com
 90
    32768
280
     0
281
     1
  0
ENDSEC
  0
SECTION
  2
TABLES
  0
TABLE
  2
VPORT
  5
7
100
AcDbSymbolTable
 70
     1
  0
VPORT
  5
15
100
AcDbSymbolTableRecord
100
AcDbViewportTableRecord
  2
*ACTIVE
 70
     0
 10
0.0
 20
0.0
 11
1.0
 21
1.0
 12
6.591288
 22
4.579184
 13
0.0
 23
0.0
 14
1.0
 24
1.0
 15
0.0
 25
0.0
 16
0.0
 26
0.0
 36
1.0
 17
0.0
 27
0.0
 37
0.0
 40
9.158369
 41
0.688564
 42
50.0
 43
0.0
 44
0.0
 50
0.0
 51
0.0
 71
     0
 72
   100
 73
     1
 74
     1
 75
     0
 76
     0
 77
     0
 78
     0
281
     0
 65
     0
110
0.0
120
0.0
130
0.0
111
1.0
121
0.0
131
0.0
112
0.0
122
1.0
132
0.0
345
0
346
0
 79
     0
146
0.0
  0
ENDTAB
  0
TABLE
  2
LTYPE
  5
4
100
AcDbSymbolTable
 70
     3
  0
LTYPE
  5
11
100
AcDbSymbolTableRecord
100
AcDbLinetypeTableRecord
  2
ByBlock
 70
    64
  3

 72
    65
 73
     0
 40
0.0
  0
LTYPE
  5
12
100
AcDbSymbolTableRecord
100
AcDbLinetypeTableRecord
  2
ByLayer
 70
    64
  3

 72
    65
 73
     0
 40
0.0
  0
LTYPE
  5
13
100
AcDbSymbolTableRecord
100
AcDbLinetypeTableRecord
  2
Continuous
 70
    64
  3
Solid line
 72
    65
 73
     0
 40
0.0
  0
ENDTAB
  0
TABLE
  2
LAYER
  5
2
100
AcDbSymbolTable
 70
     2
  0
LAYER
  5
14
100
AcDbSymbolTableRecord
100
AcDbLayerTableRecord
  2
0
 70
     0
 62
     7
  6
Continuous
290
     1
370
    -3
390
1D
  0
LAYER
  5
24
100
AcDbSymbolTableRecord
100
AcDbLayerTableRecord
  2
Ebene 1
 70
     0
 62
     7
  6
Continuous
290
     1
370
    -3
390
1F
  0
ENDTAB
  0
TABLE
  2
STYLE
  5
3
100
AcDbSymbolTable
 70
     1
  0
STYLE
  5
17
100
AcDbSymbolTableRecord
100
AcDbTextStyleTableRecord
  2
Standard
 70
     0
 40
0.0
 41
1.0
 50
0.0
 71
     0
 42
0.0
  3
txt
  4

  0
ENDTAB
  0
TABLE
  2
VIEW
  5
5
100
AcDbSymbolTable
 70
     0
  0
ENDTAB
  0
TABLE
  2
UCS
  5
6
100
AcDbSymbolTable
 70
     0
  0
ENDTAB
  0
TABLE
  2
APPID
  5
8
100
AcDbSymbolTable
 70
     1
  0
APPID
  5
16
100
AcDbSymbolTableRecord
100
AcDbRegAppTableRecord
  2
ACAD
 70
     0
  0
ENDTAB
  0
TABLE
  2
DIMSTYLE
  5
9
100
AcDbSymbolTable
 70
     1
100
AcDbDimStyleTable
 71
     0
  0
DIMSTYLE
105
18
100
AcDbSymbolTableRecord
100
AcDbDimStyleTableRecord
  2
Standard
 70
     0
  3

  4

 40
1.0
 41
0.18
 42
0.0625
 43
0.38
 44
0.18
 45
0.0
 46
0.0
 47
0.0
 48
0.0
 71
     0
 72
     0
 73
     1
 74
     1
 75
     0
 76
     0
 77
     0
 78
     0
 79
     0
140
0.18
141
0.09
142
0.0
143
25.4
144
1.0
145
0.0
146
1.0
147
0.09
148
0.0
170
     0
171
     2
172
     0
173
     0
174
     0
175
     0
176
     0
177
     0
178
     0
179
     0
271
     4
272
     4
273
     2
274
     2
275
     0
276
     0
277
     2
278
    46
279
     0
280
     0
281
     0
282
     0
283
     1
284
     0
285
     0
286
     0
288
     0
340
17
341
0
342
0
343
0
344
0
371
    -2
372
    -2
  0
ENDTAB
  0
TABLE
  2
BLOCK_RECORD
  5
1
100
AcDbSymbolTable
 70
     0
  0
BLOCK_RECORD
  5
A
100
AcDbSymbolTableRecord
100
AcDbBlockTableRecord
  2
*MODEL_SPACE
340
20
  0
BLOCK_RECORD
  5
B
100
AcDbSymbolTableRecord
100
AcDbBlockTableRecord
  2
*PAPER_SPACE
340
21
  0
ENDTAB
  0
ENDSEC
  0
SECTION
  2
BLOCKS
  0
BLOCK
  5
D
100
AcDbEntity
  8
0
100
AcDbBlockBegin
  2
*MODEL_SPACE
 70
     0
 10
0.0
 20
0.0
 30
0.0
  3
*MODEL_SPACE
  1

  0
ENDBLK
  5
E
100
AcDbEntity
  8
0
100
AcDbBlockEnd
  0
BLOCK
  5
F
100
AcDbEntity
 67
     1
  8
0
100
AcDbBlockBegin
  2
*PAPER_SPACE
 70
     0
 10
0.0
 20
0.0
 30
0.0
  3
*PAPER_SPACE
  1

  0
ENDBLK
  5
10
100
AcDbEntity
 67
     1
  8
0
100
AcDbBlockEnd
  0
ENDSEC
  0
SECTION
  2
ENTITIES
  0
SPLINE
  5
25
100
AcDbEntity
  8
Ebene 1
100
AcDbSpline
210
0.0
220
0.0
230
1.0
 70
     1
 71
     3
 72
    52
 73
    48
 74
     0
 42
0.0000000001
 43
0.0000000001
 40
0.0
 40
0.0
 40
0.0
 40
0.0
 40
0.0833333333333333
 40
0.0833333333333333
 40
0.0833333333333333
 40
0.0833333333333333
 40
0.1666666666666667
 40
0.1666666666666667
 40
0.1666666666666667
 40
0.1666666666666667
 40
0.25
 40
0.25
 40
0.25
 40
0.25
 40
0.3333333333333333
 40
0.3333333333333333
 40
0.3333333333333333
 40
0.3333333333333333
 40
0.4166666666666666
 40
0.4166666666666666
 40
0.4166666666666666
 40
0.4166666666666666
 40
0.4999999999999999
 40
0.4999999999999999
 40
0.4999999999999999
 40
0.4999999999999999
 40
0.5833333333333333
 40
0.5833333333333333
 40
0.5833333333333333
 40
0.5833333333333333
 40
0.6666666666666666
 40
0.6666666666666666
 40
0.6666666666666666
 40
0.6666666666666666
 40
0.75
 40
0.75
 40
0.75
 40
0.75
 40
0.8333333333333334
 40
0.8333333333333334
 40
0.8333333333333334
 40
0.8333333333333334
 40
0.9166666666666667
 40
0.9166666666666667
 40
0.9166666666666667
 40
0.9166666666666667
 40
1.0
 40
1.0
 40
1.0
 40
1.0
 10
0.76468
 20
4.4825300000000006
 30
0.0
 10
3.3097600000000003
 20
4.68065
 30
0.0
 10
5.6313200000000005
 20
2.12033
 30
0.0
 10
4.9633000000000003
 20
-0.36886
 30
0.0
 10
4.9633000000000003
 20
-0.36886
 30
0.0
 10
4.6991400000000008
 20
-1.4229600000000002
 30
0.0
 10
3.8914200000000001
 20
-2.2129000000000003
 30
0.0
 10
2.9059000000000004
 20
-2.5812000000000004
 30
0.0
 10
2.9059000000000004
 20
-2.5812000000000004
 30
0.0
 10
2.6950800000000004
 20
-2.7717000000000001
 30
0.0
 10
2.4868000000000001
 20
-2.9825200000000001
 30
0.0
 10
2.2505800000000002
 20
-3.1527000000000003
 30
0.0
 10
2.2505800000000002
 20
-3.1527000000000003
 30
0.0
 10
1.2498200000000002
 20
-4.5878000000000005
 30
0.0
 10
-0.63739
 20
-3.9248600000000002
 30
0.0
 10
-2.1258300000000001
 20
-4.1102800000000004
 30
0.0
 10
-2.1258300000000001
 20
-4.1102800000000004
 30
0.0
 10
-2.8878300000000001
 20
-4.2169600000000003
 30
0.0
 10
-3.6320500000000004
 20
-4.5395400000000006
 30
0.0
 10
-4.4016700000000002
 20
-4.4938200000000004
 30
0.0
 10
-4.4016700000000002
 20
-4.4938200000000004
 30
0.0
 10
-4.48041
 20
-4.4608000000000008
 30
0.0
 10
-4.5210500000000007
 20
-4.3947600000000007
 30
0.0
 10
-4.5693100000000006
 20
-4.3261799999999999
 30
0.0
 10
-4.5693100000000006
 20
-4.3261799999999999
 30
0.0
 10
-4.4702500000000001
 20
-3.7927800000000005
 30
0.0
 10
-4.9325300000000007
 20
-3.4041600000000001
 30
0.0
 10
-5.0722300000000002
 20
-2.9266400000000004
 30
0.0
 10
-5.0722300000000002
 20
-2.9266400000000004
 30
0.0
 10
-4.85379
 20
-2.3018000000000001
 30
0.0
 10
-4.61503
 20
-1.6388600000000002
 30
0.0
 10
-4.2568900000000003
 20
-1.1003800000000001
 30
0.0
 10
-4.2568900000000003
 20
-1.1003800000000001
 30
0.0
 10
-4.0359100000000003
 20
-0.4780800000000001
 30
0.0
 10
-3.9393900000000004
 20
0.21279
 30
0.0
 10
-3.3526500000000001
 20
0.6496700000000001
 30
0.0
 10
-3.3526500000000001
 20
0.6496700000000001
 30
0.0
 10
-3.3526500000000001
 20
0.6496700000000001
 30
0.0
 10
-3.4136100000000003
 20
1.4345300000000001
 30
0.0
 10
-3.4136100000000003
 20
1.4345300000000001
 30
0.0
 10
-3.4136100000000003
 20
1.4345300000000001
 30
0.0
 10
-3.4136100000000003
 20
1.4345300000000001
 30
0.0
 10
-2.6008100000000001
 20
2.1914500000000001
 30
0.0
 10
-2.6008100000000001
 20
2.1914500000000001
 30
0.0
 10
-2.6008100000000001
 20
2.1914500000000001
 30
0.0
 10
-2.0801100000000003
 20
3.5681300000000005
 30
0.0
 10
-0.6246900000000001
 20
4.3860100000000006
 30
0.0
 10
0.76468
 20
4.4825300000000006
 30
0.0
  0
SPLINE
  5
26
100
AcDbEntity
  8
Ebene 1
100
AcDbSpline
210
0.0
220
0.0
230
1.0
 70
     1
 71
     3
 72
    48
 73
    44
 74
     0
 42
0.0000000001
 43
0.0000000001
 40
0.0
 40
0.0
 40
0.0
 40
0.0
 40
0.0909090909090909
 40
0.0909090909090909
 40
0.0909090909090909
 40
0.0909090909090909
 40
0.1818181818181818
 40
0.1818181818181818
 40
0.1818181818181818
 40
0.1818181818181818
 40
0.2727272727272727
 40
0.2727272727272727
 40
0.2727272727272727
 40
0.2727272727272727
 40
0.3636363636363637
 40
0.3636363636363637
 40
0.3636363636363637
 40
0.3636363636363637
 40
0.4545454545454546
 40
0.4545454545454546
 40
0.4545454545454546
 40
0.4545454545454546
 40
0.5454545454545455
 40
0.5454545454545455
 40
0.5454545454545455
 40
0.5454545454545455
 40
0.6363636363636365
 40
0.6363636363636365
 40
0.6363636363636365
 40
0.6363636363636365
 40
0.7272727272727274
 40
0.7272727272727274
 40
0.7272727272727274
 40
0.7272727272727274
 40
0.8181818181818183
 40
0.8181818181818183
 40
0.8181818181818183
 40
0.8181818181818183
 40
0.9090909090909093
 40
0.9090909090909093
 40
0.9090909090909093
 40
0.9090909090909093
 40
1.0
 40
1.0
 40
1.0
 40
1.0
 10
-2.1105900000000002
 20
-1.5499600000000002
 30
0.0
 10
-2.3798300000000001
 20
-1.6744200000000002
 30
0.0
 10
-2.6363700000000003
 20
-1.8700000000000001
 30
0.0
 10
-2.8294100000000002
 20
-2.1087600000000002
 30
0.0
 10
-2.8294100000000002
 20
-2.1087600000000002
 30
0.0
 10
-2.7201900000000001
 20
-2.3907000000000003
 30
0.0
 10
-2.61097
 20
-2.6574000000000004
 30
0.0
 10
-2.4560300000000002
 20
-2.9088600000000002
 30
0.0
 10
-2.4560300000000002
 20
-2.9088600000000002
 30
0.0
 10
-1.9759700000000002
 20
-3.0968200000000001
 30
0.0
 10
-1.2647700000000002
 20
-2.7488400000000004
 30
0.0
 10
-1.4298700000000002
 20
-2.1798800000000003
 30
0.0
 10
-1.4298700000000002
 20
-2.1798800000000003
 30
0.0
 10
-1.24953
 20
-2.09606
 30
0.0
 10
-1.0971300000000002
 20
-2.2459200000000004
 30
0.0
 10
-1.00061
 20
-2.3653000000000004
 30
0.0
 10
-1.00061
 20
-2.3653000000000004
 30
0.0
 10
-0.92949
 20
-2.1519400000000002
 30
0.0
 10
-0.76439
 20
-2.0478000000000001
 30
0.0
 10
-0.68057
 20
-2.31196
 30
0.0
 10
-0.68057
 20
-2.31196
 30
0.0
 10
-0.63739
 20
-2.1900400000000002
 30
0.0
 10
-0.56881
 20
-2.0325600000000001
 30
0.0
 10
-0.4291100000000001
 20
-1.9970000000000001
 30
0.0
 10
-0.4291100000000001
 20
-1.9970000000000001
 30
0.0
 10
-0.36053
 20
-2.1468600000000002
 30
0.0
 10
-0.34529
 20
-2.3043400000000003
 30
0.0
 10
-0.31735
 20
-2.4643600000000001
 30
0.0
 10
-0.31735
 20
-2.4643600000000001
 30
0.0
 10
-0.19289
 20
-2.3322800000000004
 30
0.0
 10
-0.13701
 20
-2.4313400000000001
 30
0.0
 10
-0.04049
 20
-2.4491200000000002
 30
0.0
 10
-0.04049
 20
-2.4491200000000002
 30
0.0
 10
0.15254
 20
-2.3780000000000001
 30
0.0
 10
0.18048
 20
-2.1468600000000002
 30
0.0
 10
0.22112
 20
-1.9690600000000003
 30
0.0
 10
0.22112
 20
-1.9690600000000003
 30
0.0
 10
-0.48499
 20
-1.6464800000000002
 30
0.0
 10
-1.2774700000000001
 20
-2.1519400000000002
 30
0.0
 10
-1.9683500000000003
 20
-1.8801600000000001
 30
0.0
 10
-1.9683500000000003
 20
-1.8801600000000001
 30
0.0
 10
-2.0572500000000002
 20
-1.7887200000000001
 30
0.0
 10
-2.0191500000000002
 20
-1.6185400000000001
 30
0.0
 10
-2.1105900000000002
 20
-1.5499600000000002
 30
0.0
  0
SPLINE
  5
27
100
AcDbEntity
  8
Ebene 1
 62
     7
100
AcDbSpline
210
0.0
220
0.0
230
1.0
 70
     1
 71
     3
 72
   228
 73
   224
 74
     0
 42
0.0000000001
 43
0.0000000001
 40
0.0
 40
0.0
 40
0.0
 40
0.0
 40
0.0178571428571429
 40
0.0178571428571429
 40
0.0178571428571429
 40
0.0178571428571429
 40
0.0357142857142857
 40
0.0357142857142857
 40
0.0357142857142857
 40
0.0357142857142857
 40
0.0535714285714286
 40
0.0535714285714286
 40
0.0535714285714286
 40
0.0535714285714286
 40
0.0714285714285714
 40
0.0714285714285714
 40
0.0714285714285714
 40
0.0714285714285714
 40
0.0892857142857143
 40
0.0892857142857143
 40
0.0892857142857143
 40
0.0892857142857143
 40
0.1071428571428571
 40
0.1071428571428571
 40
0.1071428571428571
 40
0.1071428571428571
 40
0.125
 40
0.125
 40
0.125
 40
0.125
 40
0.1428571428571428
 40
0.1428571428571428
 40
0.1428571428571428
 40
0.1428571428571428
 40
0.1607142857142857
 40
0.1607142857142857
 40
0.1607142857142857
 40
0.1607142857142857
 40
0.1785714285714285
 40
0.1785714285714285
 40
0.1785714285714285
 40
0.1785714285714285
 40
0.1964285714285714
 40
0.1964285714285714
 40
0.1964285714285714
 40
0.1964285714285714
 40
0.2142857142857142
 40
0.2142857142857142
 40
0.2142857142857142
 40
0.2142857142857142
 40
0.2321428571428571
 40
0.2321428571428571
 40
0.2321428571428571
 40
0.2321428571428571
 40
0.2499999999999999
 40
0.2499999999999999
 40
0.2499999999999999
 40
0.2499999999999999
 40
0.2678571428571428
 40
0.2678571428571428
 40
0.2678571428571428
 40
0.2678571428571428
 40
0.2857142857142856
 40
0.2857142857142856
 40
0.2857142857142856
 40
0.2857142857142856
 40
0.3035714285714285
 40
0.3035714285714285
 40
0.3035714285714285
 40
0.3035714285714285
 40
0.3214285714285713
 40
0.3214285714285713
 40
0.3214285714285713
 40
0.3214285714285713
 40
0.3392857142857142
 40
0.3392857142857142
 40
0.3392857142857142
 40
0.3392857142857142
 40
0.357142857142857
 40
0.357142857142857
 40
0.357142857142857
 40
0.357142857142857
 40
0.3749999999999999
 40
0.3749999999999999
 40
0.3749999999999999
 40
0.3749999999999999
 40
0.3928571428571427
 40
0.3928571428571427
 40
0.3928571428571427
 40
0.3928571428571427
 40
0.4107142857142856
 40
0.4107142857142856
 40
0.4107142857142856
 40
0.4107142857142856
 40
0.4285714285714284
 40
0.4285714285714284
 40
0.4285714285714284
 40
0.4285714285714284
 40
0.4464285714285713
 40
0.4464285714285713
 40
0.4464285714285713
 40
0.4464285714285713
 40
0.4642857142857141
 40
0.4642857142857141
 40
0.4642857142857141
 40
0.4642857142857141
 40
0.482142857142857
 40
0.482142857142857
 40
0.482142857142857
 40
0.482142857142857
 40
0.4999999999999998
 40
0.4999999999999998
 40
0.4999999999999998
 40
0.4999999999999998
 40
0.5178571428571427
 40
0.5178571428571427
 40
0.5178571428571427
 40
0.5178571428571427
 40
0.5357142857142856
 40
0.5357142857142856
 40
0.5357142857142856
 40
0.5357142857142856
 40
0.5535714285714285
 40
0.5535714285714285
 40
0.5535714285714285
 40
0.5535714285714285
 40
0.5714285714285714
 40
0.5714285714285714
 40
0.5714285714285714
 40
0.5714285714285714
 40
0.5892857142857143
 40
0.5892857142857143
 40
0.5892857142857143
 40
0.5892857142857143
 40
0.6071428571428572
 40
0.6071428571428572
 40
0.6071428571428572
 40
0.6071428571428572
 40
0.6250000000000001
 40
0.6250000000000001
 40
0.6250000000000001
 40
0.6250000000000001
 40
0.642857142857143
 40
0.642857142857143
 40
0.642857142857143
 40
0.642857142857143
 40
0.6607142857142859
 40
0.6607142857142859
 40
0.6607142857142859
 40
0.6607142857142859
 40
0.6785714285714288
 40
0.6785714285714288
 40
0.6785714285714288
 40
0.6785714285714288
 40
0.6964285714285717
 40
0.6964285714285717
 40
0.6964285714285717
 40
0.6964285714285717
 40
0.7142857142857146
 40
0.7142857142857146
 40
0.7142857142857146
 40
0.7142857142857146
 40
0.7321428571428575
 40
0.7321428571428575
 40
0.7321428571428575
 40
0.7321428571428575
 40
0.7500000000000004
 40
0.7500000000000004
 40
0.7500000000000004
 40
0.7500000000000004
 40
0.7678571428571434
 40
0.7678571428571434
 40
0.7678571428571434
 40
0.7678571428571434
 40
0.7857142857142863
 40
0.7857142857142863
 40
0.7857142857142863
 40
0.7857142857142863
 40
0.8035714285714292
 40
0.8035714285714292
 40
0.8035714285714292
 40
0.8035714285714292
 40
0.8214285714285721
 40
0.8214285714285721
 40
0.8214285714285721
 40
0.8214285714285721
 40
0.839285714285715
 40
0.839285714285715
 40
0.839285714285715
 40
0.839285714285715
 40
0.8571428571428579
 40
0.8571428571428579
 40
0.8571428571428579
 40
0.8571428571428579
 40
0.8750000000000008
 40
0.8750000000000008
 40
0.8750000000000008
 40
0.8750000000000008
 40
0.8928571428571437
 40
0.8928571428571437
 40
0.8928571428571437
 40
0.8928571428571437
 40
0.9107142857142866
 40
0.9107142857142866
 40
0.9107142857142866
 40
0.9107142857142866
 40
0.9285714285714295
 40
0.9285714285714295
 40
0.9285714285714295
 40
0.9285714285714295
 40
0.9464285714285724
 40
0.9464285714285724
 40
0.9464285714285724
 40
0.9464285714285724
 40
0.9642857142857153
 40
0.9642857142857153
 40
0.9642857142857153
 40
0.9642857142857153
 40
0.9821428571428582
 40
0.9821428571428582
 40
0.9821428571428582
 40
0.9821428571428582
 40
1.0
 40
1.0
 40
1.0
 40
1.0
 10
-2.2096500000000003
 20
-1.3696200000000001
 30
0.0
 10
-2.35189
 20
-1.5906000000000002
 30
0.0
 10
-2.5855700000000001
 20
-1.7506200000000001
 30
0.0
 10
-2.81671
 20
-1.8522200000000002
 30
0.0
 10
-2.81671
 20
-1.8522200000000002
 30
0.0
 10
-2.8014700000000001
 20
-1.7023600000000001
 30
0.0
 10
-2.6033500000000003
 20
-1.62616
 30
0.0
 10
-2.57287
 20
-1.4839200000000001
 30
0.0
 10
-2.57287
 20
-1.4839200000000001
 30
0.0
 10
-2.57287
 20
-1.4839200000000001
 30
0.0
 10
-2.6084300000000002
 20
-1.4839200000000001
 30
0.0
 10
-2.6084300000000002
 20
-1.4839200000000001
 30
0.0
 10
-2.6084300000000002
 20
-1.4839200000000001
 30
0.0
 10
-2.7278100000000003
 20
-1.6287
 30
0.0
 10
-2.9360900000000001
 20
-1.67188
 30
0.0
 10
-3.0021300000000002
 20
-1.8573000000000002
 30
0.0
 10
-3.0021300000000002
 20
-1.8573000000000002
 30
0.0
 10
-3.0275300000000001
 20
-2.0706600000000002
 30
0.0
 10
-2.7608300000000003
 20
-2.1494
 30
0.0
 10
-2.8192500000000003
 20
-2.4262600000000001
 30
0.0
 10
-2.8192500000000003
 20
-2.4262600000000001
 30
0.0
 10
-2.9233900000000004
 20
-2.2383000000000002
 30
0.0
 10
-2.9818100000000003
 20
-2.1849600000000002
 30
0.0
 10
-3.0478500000000004
 20
-2.13924
 30
0.0
 10
-3.0478500000000004
 20
-2.13924
 30
0.0
 10
-3.0859500000000004
 20
-2.1138400000000002
 30
0.0
 10
-3.1240500000000004
 20
-2.1189200000000001
 30
0.0
 10
-3.11389
 20
-2.0224000000000002
 30
0.0
 10
-3.11389
 20
-2.0224000000000002
 30
0.0
 10
-3.2408900000000003
 20
-2.0732000000000004
 30
0.0
 10
-3.11389
 20
-2.5253200000000002
 30
0.0
 10
-3.1926300000000003
 20
-2.4211800000000001
 30
0.0
 10
-3.1926300000000003
 20
-2.4211800000000001
 30
0.0
 10
-3.2104100000000004
 20
-2.39324
 30
0.0
 10
-3.2002500000000005
 20
-2.3246600000000002
 30
0.0
 10
-3.2154900000000004
 20
-2.2992600000000003
 30
0.0
 10
-3.2154900000000004
 20
-2.2992600000000003
 30
0.0
 10
-3.3196300000000001
 20
-2.1214600000000003
 30
0.0
 10
-3.3577300000000001
 20
-2.0478000000000001
 30
0.0
 10
-3.3069300000000004
 20
-1.7734800000000002
 30
0.0
 10
-3.3069300000000004
 20
-1.7734800000000002
 30
0.0
 10
-3.4263100000000004
 20
-1.9411200000000002
 30
0.0
 10
-3.3551900000000003
 20
-2.3526000000000002
 30
0.0
 10
-3.4466300000000003
 20
-2.4262600000000001
 30
0.0
 10
-3.4466300000000003
 20
-2.4262600000000001
 30
0.0
 10
-3.4923500000000001
 20
-2.3399000000000001
 30
0.0
 10
-3.4771100000000001
 20
-1.9792200000000002
 30
0.0
 10
-3.6168100000000001
 20
-2.1570200000000002
 30
0.0
 10
-3.6168100000000001
 20
-2.1570200000000002
 30
0.0
 10
-3.6168100000000001
 20
-2.1570200000000002
 30
0.0
 10
-3.6955500000000003
 20
-2.2459200000000004
 30
0.0
 10
-3.6955500000000003
 20
-2.2459200000000004
 30
0.0
 10
-3.6955500000000003
 20
-2.2459200000000004
 30
0.0
 10
-3.6955500000000003
 20
-2.2459200000000004
 30
0.0
 10
-3.6549100000000001
 20
-2.0224000000000002
 30
0.0
 10
-3.6549100000000001
 20
-2.0224000000000002
 30
0.0
 10
-3.6549100000000001
 20
-2.0224000000000002
 30
0.0
 10
-3.6803100000000004
 20
-1.4229600000000002
 30
0.0
 10
-3.8098500000000004
 20
-2.8275800000000002
 30
0.0
 10
-3.8631900000000003
 20
-2.4821400000000002
 30
0.0
 10
-3.8631900000000003
 20
-2.4821400000000002
 30
0.0
 10
-3.8733500000000003
 20
-2.4211800000000001
 30
0.0
 10
-3.8733500000000003
 20
-2.3424400000000003
 30
0.0
 10
-3.9190700000000005
 20
-2.3018000000000001
 30
0.0
 10
-3.9190700000000005
 20
-2.3018000000000001
 30
0.0
 10
-4.1629100000000001
 20
-2.6015200000000003
 30
0.0
 10
-4.04861
 20
-2.2103600000000001
 30
0.0
 10
-4.0054300000000005
 20
-2.0122400000000003
 30
0.0
 10
-4.0054300000000005
 20
-2.0122400000000003
 30
0.0
 10
-4.1400500000000005
 20
-2.10114
 30
0.0
 10
-4.0765500000000001
 20
-2.3399000000000001
 30
0.0
 10
-4.1654500000000008
 20
-2.4643600000000001
 30
0.0
 10
-4.1654500000000008
 20
-2.4643600000000001
 30
0.0
 10
-4.13497
 20
-2.2408400000000004
 30
0.0
 10
-4.2899100000000008
 20
-2.2154400000000001
 30
0.0
 10
-4.4143700000000008
 20
-2.3653000000000004
 30
0.0
 10
-4.4143700000000008
 20
-2.3653000000000004
 30
0.0
 10
-4.39405
 20
-2.2510000000000003
 30
0.0
 10
-4.2568900000000003
 20
-1.8446000000000002
 30
0.0
 10
-4.3381700000000007
 20
-1.9081000000000001
 30
0.0
 10
-4.3381700000000007
 20
-1.9081000000000001
 30
0.0
 10
-4.3381700000000007
 20
-1.9081000000000001
 30
0.0
 10
-4.4473900000000004
 20
-2.2586200000000001
 30
0.0
 10
-4.4473900000000004
 20
-2.2586200000000001
 30
0.0
 10
-4.4473900000000004
 20
-2.2586200000000001
 30
0.0
 10
-4.69123
 20
-2.5862800000000004
 30
0.0
 10
-4.4397700000000002
 20
-0.7905000000000001
 30
0.0
 10
-4.1552899999999999
 20
-1.4813800000000001
 30
0.0
 10
-4.1552899999999999
 20
-1.4813800000000001
 30
0.0
 10
-4.1146500000000001
 20
-1.66934
 30
0.0
 10
-3.9241500000000005
 20
-1.5067800000000002
 30
0.0
 10
-3.8454100000000002
 20
-1.4280400000000002
 30
0.0
 10
-3.8454100000000002
 20
-1.4280400000000002
 30
0.0
 10
-3.5253700000000001
 20
-1.1207
 30
0.0
 10
-3.1977100000000003
 20
-0.6685800000000001
 30
0.0
 10
-3.3653500000000003
 20
-0.219
 30
0.0
 10
-3.3653500000000003
 20
-0.219
 30
0.0
 10
-3.5380700000000003
 20
-0.1047
 30
0.0
 10
-3.8885900000000002
 20
-0.7676400000000001
 30
0.0
 10
-3.8911300000000004
 20
-0.38156
 30
0.0
 10
-3.8911300000000004
 20
-0.38156
 30
0.0
 10
-3.9876500000000004
 20
0.14167
 30
0.0
 10
-2.8446500000000001
 20
1.02051
 30
0.0
 10
-3.1367500000000001
 20
0.13913
 30
0.0
 10
-3.1367500000000001
 20
0.13913
 30
0.0
 10
-3.0656300000000001
 20
0.14167
 30
0.0
 10
-3.0503900000000002
 20
0.14929
 30
0.0
 10
-3.0021300000000002
 20
0.30169
 30
0.0
 10
-3.0021300000000002
 20
0.30169
 30
0.0
 10
-2.90307
 20
0.6090300000000001
 30
0.0
 10
-2.6236700000000002
 20
0.48965
 30
0.0
 10
-2.3290300000000004
 20
0.41345
 30
0.0
 10
-2.3290300000000004
 20
0.41345
 30
0.0
 10
-2.23759
 20
0.38805
 30
0.0
 10
-2.0801100000000003
 20
0.34995
 30
0.0
 10
-2.0877300000000001
 20
0.4109100000000001
 30
0.0
 10
-2.0877300000000001
 20
0.4109100000000001
 30
0.0
 10
-2.5169900000000003
 20
0.53791
 30
0.0
 10
-2.8573500000000003
 20
0.91383
 30
0.0
 10
-2.6846300000000003
 20
1.4192900000000002
 30
0.0
 10
-2.6846300000000003
 20
1.4192900000000002
 30
0.0
 10
-2.7811500000000002
 20
1.2948300000000001
 30
0.0
 10
-2.7811500000000002
 20
1.10179
 30
0.0
 10
-2.7938500000000004
 20
0.93669
 30
0.0
 10
-2.7938500000000004
 20
0.93669
 30
0.0
 10
-3.1723100000000004
 20
0.32201
 30
0.0
 10
-3.4034500000000003
 20
1.1373500000000001
 30
0.0
 10
-3.0783300000000002
 20
1.5488300000000002
 30
0.0
 10
-3.0783300000000002
 20
1.5488300000000002
 30
0.0
 10
-2.9868900000000003
 20
1.6656700000000002
 30
0.0
 10
-2.8497300000000001
 20
1.9222100000000002
 30
0.0
 10
-2.6566900000000002
 20
1.8917300000000001
 30
0.0
 10
-2.6566900000000002
 20
1.8917300000000001
 30
0.0
 10
-2.5957300000000001
 20
1.8155300000000001
 30
0.0
 10
-2.65415
 20
1.69615
 30
0.0
 10
-2.5931900000000003
 20
1.6224900000000002
 30
0.0
 10
-2.5931900000000003
 20
1.6224900000000002
 30
0.0
 10
-2.5931900000000003
 20
1.6224900000000002
 30
0.0
 10
-2.5017500000000004
 20
1.78251
 30
0.0
 10
-2.5017500000000004
 20
1.78251
 30
0.0
 10
-2.5017500000000004
 20
1.78251
 30
0.0
 10
-2.35697
 20
2.5191100000000004
 30
0.0
 10
-1.9023100000000002
 20
3.2455500000000002
 30
0.0
 10
-1.2647700000000002
 20
3.7002100000000002
 30
0.0
 10
-1.2647700000000002
 20
3.7002100000000002
 30
0.0
 10
-1.33335
 20
3.5249500000000005
 30
0.0
 10
-1.6330700000000002
 20
3.2633300000000003
 30
0.0
 10
-1.54417
 20
3.1236300000000004
 30
0.0
 10
-1.54417
 20
3.1236300000000004
 30
0.0
 10
-1.00061
 20
3.9211900000000002
 30
0.0
 10
-0.06843
 20
4.2996500000000006
 30
0.0
 10
0.8459600000000001
 20
4.3529900000000001
 30
0.0
 10
0.8459600000000001
 20
4.3529900000000001
 30
0.0
 10
0.8739000000000001
 20
4.1751900000000006
 30
0.0
 10
0.59704
 20
4.0989900000000006
 30
0.0
 10
0.5818000000000001
 20
3.9821500000000003
 30
0.0
 10
0.5818000000000001
 20
3.9821500000000003
 30
0.0
 10
0.5818000000000001
 20
3.9821500000000003
 30
0.0
 10
1.1685400000000001
 20
4.2996500000000006
 30
0.0
 10
1.1685400000000001
 20
4.2996500000000006
 30
0.0
 10
1.1685400000000001
 20
4.2996500000000006
 30
0.0
 10
3.9193600000000002
 20
4.5485700000000007
 30
0.0
 10
6.1037600000000003
 20
0.61411
 30
0.0
 10
3.9625400000000002
 20
-1.4763000000000002
 30
0.0
 10
3.9625400000000002
 20
-1.4763000000000002
 30
0.0
 10
3.4469200000000004
 20
-1.6668000000000001
 30
0.0
 10
3.0989400000000002
 20
-0.8819400000000001
 30
0.0
 10
2.4741000000000004
 20
-1.2858000000000001
 30
0.0
 10
2.4741000000000004
 20
-1.2858000000000001
 30
0.0
 10
2.1261200000000002
 20
-0.8997200000000001
 30
0.0
 10
3.1268800000000003
 20
-0.0539
 30
0.0
 10
2.20994
 20
0.14421
 30
0.0
 10
2.20994
 20
0.14421
 30
0.0
 10
1.8619600000000001
 20
0.18231
 30
0.0
 10
1.61304
 20
-0.05644
 30
0.0
 10
1.3463400000000001
 20
-0.22916
 30
0.0
 10
1.3463400000000001
 20
-0.22916
 30
0.0
 10
0.9729600000000001
 20
-0.18852
 30
0.0
 10
0.9577200000000001
 20
0.29407
 30
0.0
 10
0.9577200000000001
 20
0.5887100000000001
 30
0.0
 10
0.9577200000000001
 20
0.5887100000000001
 30
0.0
 10
0.9577200000000001
 20
1.06115
 30
0.0
 10
1.3768200000000002
 20
1.5208900000000001
 30
0.0
 10
1.1812400000000001
 20
1.9780900000000001
 30
0.0
 10
1.1812400000000001
 20
1.9780900000000001
 30
0.0
 10
1.0567800000000001
 20
1.4802500000000001
 30
0.0
 10
0.6935600000000001
 20
1.03067
 30
0.0
 10
0.37352
 20
0.60141
 30
0.0
 10
0.37352
 20
0.60141
 30
0.0
 10
0.59704
 20
0.68015
 30
0.0
 10
0.8739000000000001
 20
0.05531
 30
0.0
 10
0.76468
 20
-0.27996
 30
0.0
 10
0.76468
 20
-0.27996
 30
0.0
 10
0.31764
 20
-0.6279400000000001
 30
0.0
 10
-0.20559
 20
-0.9886200000000001
 30
0.0
 10
-0.7059700000000001
 20
-1.1740400000000002
 30
0.0
 10
-0.7059700000000001
 20
-1.1740400000000002
 30
0.0
 10
-0.18019
 20
-1.3035800000000002
 30
0.0
 10
-0.26147
 20
-0.9657600000000001
 30
0.0
 10
0.19318
 20
-0.8286000000000001
 30
0.0
 10
0.19318
 20
-0.8286000000000001
 30
0.0
 10
0.24906
 20
-1.1486400000000001
 30
0.0
 10
0.6529200000000001
 20
-1.3950200000000001
 30
0.0
 10
0.51322
 20
-1.7557
 30
0.0
 10
0.51322
 20
-1.7557
 30
0.0
 10
0.18048
 20
-2.09606
 30
0.0
 10
-0.22083
 20
-1.6947400000000001
 30
0.0
 10
-0.6246900000000001
 20
-1.7277600000000002
 30
0.0
 10
-0.6246900000000001
 20
-1.7277600000000002
 30
0.0
 10
-0.55611
 20
-1.58552
 30
0.0
 10
-0.16495
 20
-1.6820400000000002
 30
0.0
 10
-0.23353
 20
-1.5499600000000002
 30
0.0
 10
-0.23353
 20
-1.5499600000000002
 30
0.0
 10
-0.7770900000000001
 20
-1.5398000000000001
 30
0.0
 10
-1.2774700000000001
 20
-2.06812
 30
0.0
 10
-1.8159500000000002
 20
-1.8242800000000001
 30
0.0
 10
-1.8159500000000002
 20
-1.8242800000000001
 30
0.0
 10
-2.1436100000000002
 20
-1.6236200000000001
 30
0.0
 10
-1.6864100000000002
 20
-1.2273800000000001
 30
0.0
 10
-2.01661
 20
-1.03942
 30
0.0
 10
-2.01661
 20
-1.03942
 30
0.0
 10
-2.3036300000000001
 20
-1.1130800000000001
 30
0.0
 10
-2.77861
 20
-1.5829800000000001
 30
0.0
 10
-2.2096500000000003
 20
-1.3696200000000001
 30
0.0
  0
SPLINE
  5
28
100
AcDbEntity
  8
Ebene 1
100
AcDbSpline
210
0.0
220
0.0
230
1.0
 70
     1
 71
     3
 72
    32
 73
    28
 74
     0
 42
0.0000000001
 43
0.0000000001
 40
0.0
 40
0.0
 40
0.0
 40
0.0
 40
0.1428571428571429
 40
0.1428571428571429
 40
0.1428571428571429
 40
0.1428571428571429
 40
0.2857142857142857
 40
0.2857142857142857
 40
0.2857142857142857
 40
0.2857142857142857
 40
0.4285714285714286
 40
0.4285714285714286
 40
0.4285714285714286
 40
0.4285714285714286
 40
0.5714285714285714
 40
0.5714285714285714
 40
0.5714285714285714
 40
0.5714285714285714
 40
0.7142857142857142
 40
0.7142857142857142
 40
0.7142857142857142
 40
0.7142857142857142
 40
0.857142857142857
 40
0.857142857142857
 40
0.857142857142857
 40
0.857142857142857
 40
1.0
 40
1.0
 40
1.0
 40
1.0
 10
0.9043800000000001
 20
3.3700100000000002
 30
0.0
 10
1.23712
 20
3.4309700000000003
 30
0.0
 10
1.48604
 20
3.2734900000000002
 30
0.0
 10
1.7375
 20
3.0880700000000001
 30
0.0
 10
1.7375
 20
3.0880700000000001
 30
0.0
 10
2.0143600000000004
 20
2.8264500000000004
 30
0.0
 10
2.4334600000000002
 20
2.8391500000000001
 30
0.0
 10
2.7230200000000004
 20
2.6740500000000003
 30
0.0
 10
2.7230200000000004
 20
2.6740500000000003
 30
0.0
 10
2.2378800000000001
 20
2.7299300000000004
 30
0.0
 10
1.7222600000000001
 20
2.8670900000000001
 30
0.0
 10
1.2930000000000001
 20
3.1591900000000002
 30
0.0
 10
1.2930000000000001
 20
3.1591900000000002
 30
0.0
 10
0.9043800000000001
 20
3.2480900000000004
 30
0.0
 10
0.5005200000000001
 20
3.1845900000000005
 30
0.0
 10
0.10936
 20
3.1439500000000002
 30
0.0
 10
0.10936
 20
3.1439500000000002
 30
0.0
 10
0.02808
 20
3.1515700000000004
 30
0.0
 10
-0.10907
 20
3.0194900000000002
 30
0.0
 10
-0.12431
 20
3.1439500000000002
 30
0.0
 10
-0.12431
 20
3.1439500000000002
 30
0.0
 10
-0.02525
 20
3.1490300000000002
 30
0.0
 10
0.05602
 20
3.1642700000000001
 30
0.0
 10
0.1373
 20
3.1998300000000004
 30
0.0
 10
0.1373
 20
3.1998300000000004
 30
0.0
 10
0.3887600000000001
 20
3.2836500000000002
 30
0.0
 10
0.6529200000000001
 20
3.3242900000000004
 30
0.0
 10
0.9043800000000001
 20
3.3700100000000002
 30
0.0
  0
SPLINE
  5
29
100
AcDbEntity
  8
Ebene 1
100
AcDbSpline
210
0.0
220
0.0
230
1.0
 70
     1
 71
     3
 72
    20
 73
    16
 74
     0
 42
0.0000000001
 43
0.0000000001
 40
0.0
 40
0.0
 40
0.0
 40
0.0
 40
0.25
 40
0.25
 40
0.25
 40
0.25
 40
0.5
 40
0.5
 40
0.5
 40
0.5
 40
0.75
 40
0.75
 40
0.75
 40
0.75
 40
1.0
 40
1.0
 40
1.0
 40
1.0
 10
-0.45705
 20
2.7858100000000001
 30
0.0
 10
-0.37323
 20
2.7959700000000001
 30
0.0
 10
-0.4164100000000001
 20
2.71977
 30
0.0
 10
-0.4697500000000001
 20
2.71469
 30
0.0
 10
-0.4697500000000001
 20
2.71469
 30
0.0
 10
-1.1098300000000001
 20
2.6486500000000004
 30
0.0
 10
-1.4857500000000001
 20
1.9298300000000002
 30
0.0
 10
-2.0928100000000001
 20
1.8587100000000001
 30
0.0
 10
-2.0928100000000001
 20
1.8587100000000001
 30
0.0
 10
-1.8642100000000001
 20
2.00095
 30
0.0
 10
-1.5416300000000001
 20
2.1889100000000004
 30
0.0
 10
-1.3612900000000001
 20
2.4632300000000003
 30
0.0
 10
-1.3612900000000001
 20
2.4632300000000003
 30
0.0
 10
-1.08189
 20
2.6308700000000003
 30
0.0
 10
-0.7491500000000001
 20
2.68167
 30
0.0
 10
-0.45705
 20
2.7858100000000001
 30
0.0
  0
SPLINE
  5
2A
100
AcDbEntity
  8
Ebene 1
100
AcDbSpline
210
0.0
220
0.0
230
1.0
 70
     1
 71
     3
 72
    48
 73
    44
 74
     0
 42
0.0000000001
 43
0.0000000001
 40
0.0
 40
0.0
 40
0.0
 40
0.0
 40
0.0909090909090909
 40
0.0909090909090909
 40
0.0909090909090909
 40
0.0909090909090909
 40
0.1818181818181818
 40
0.1818181818181818
 40
0.1818181818181818
 40
0.1818181818181818
 40
0.2727272727272727
 40
0.2727272727272727
 40
0.2727272727272727
 40
0.2727272727272727
 40
0.3636363636363637
 40
0.3636363636363637
 40
0.3636363636363637
 40
0.3636363636363637
 40
0.4545454545454546
 40
0.4545454545454546
 40
0.4545454545454546
 40
0.4545454545454546
 40
0.5454545454545455
 40
0.5454545454545455
 40
0.5454545454545455
 40
0.5454545454545455
 40
0.6363636363636365
 40
0.6363636363636365
 40
0.6363636363636365
 40
0.6363636363636365
 40
0.7272727272727274
 40
0.7272727272727274
 40
0.7272727272727274
 40
0.7272727272727274
 40
0.8181818181818183
 40
0.8181818181818183
 40
0.8181818181818183
 40
0.8181818181818183
 40
0.9090909090909093
 40
0.9090909090909093
 40
0.9090909090909093
 40
0.9090909090909093
 40
1.0
 40
1.0
 40
1.0
 40
1.0
 10
1.02884
 20
2.5775300000000003
 30
0.0
 10
1.0567800000000001
 20
2.5699100000000001
 30
0.0
 10
1.0821800000000001
 20
2.5673700000000004
 30
0.0
 10
1.0974200000000001
 20
2.5495900000000002
 30
0.0
 10
1.0974200000000001
 20
2.5495900000000002
 30
0.0
 10
0.8180200000000001
 20
2.47085
 30
0.0
 10
0.52846
 20
2.3235300000000003
 30
0.0
 10
0.29224
 20
2.1152500000000001
 30
0.0
 10
0.29224
 20
2.1152500000000001
 30
0.0
 10
0.36082
 20
2.0619100000000001
 30
0.0
 10
0.5564
 20
2.21177
 30
0.0
 10
0.6529200000000001
 20
2.1431900000000002
 30
0.0
 10
0.6529200000000001
 20
2.1431900000000002
 30
0.0
 10
0.29224
 20
1.4751700000000001
 30
0.0
 10
-0.30465
 20
0.8985900000000001
 30
0.0
 10
-1.08189
 20
0.85033
 30
0.0
 10
-1.08189
 20
0.85033
 30
0.0
 10
-1.08189
 20
0.85033
 30
0.0
 10
-1.6610100000000001
 20
0.41853
 30
0.0
 10
-1.6610100000000001
 20
0.41853
 30
0.0
 10
-1.6610100000000001
 20
0.41853
 30
0.0
 10
-1.7321300000000002
 20
0.29661
 30
0.0
 10
-1.6229100000000001
 20
0.20009
 30
0.0
 10
-1.5695700000000001
 20
0.11627
 30
0.0
 10
-1.5695700000000001
 20
0.11627
 30
0.0
 10
-1.6076700000000002
 20
0.08071
 30
0.0
 10
-1.6762500000000002
 20
0.11373
 30
0.0
 10
-1.7219700000000002
 20
0.11627
 30
0.0
 10
-1.7219700000000002
 20
0.11627
 30
0.0
 10
-1.7219700000000002
 20
0.11627
 30
0.0
 10
-1.8565900000000002
 20
0.17469
 30
0.0
 10
-1.8565900000000002
 20
0.17469
 30
0.0
 10
-1.8565900000000002
 20
0.17469
 30
0.0
 10
-1.9404100000000002
 20
0.26613
 30
0.0
 10
-1.9277100000000003
 20
0.40329
 30
0.0
 10
-1.8718300000000001
 20
0.5023500000000001
 30
0.0
 10
-1.8718300000000001
 20
0.5023500000000001
 30
0.0
 10
-1.7118100000000001
 20
0.4972700000000001
 30
0.0
 10
-1.5746500000000001
 20
0.61411
 30
0.0
 10
-1.4298700000000002
 20
0.6903100000000001
 30
0.0
 10
-1.4298700000000002
 20
0.6903100000000001
 30
0.0
 10
-0.8329700000000001
 20
1.5462900000000002
 30
0.0
 10
0.02808
 20
2.2651100000000004
 30
0.0
 10
1.02884
 20
2.5775300000000003
 30
0.0
  0
SPLINE
  5
2B
100
AcDbEntity
  8
Ebene 1
100
AcDbSpline
210
0.0
220
0.0
230
1.0
 70
     1
 71
     3
 72
    32
 73
    28
 74
     0
 42
0.0000000001
 43
0.0000000001
 40
0.0
 40
0.0
 40
0.0
 40
0.0
 40
0.1428571428571429
 40
0.1428571428571429
 40
0.1428571428571429
 40
0.1428571428571429
 40
0.2857142857142857
 40
0.2857142857142857
 40
0.2857142857142857
 40
0.2857142857142857
 40
0.4285714285714286
 40
0.4285714285714286
 40
0.4285714285714286
 40
0.4285714285714286
 40
0.5714285714285714
 40
0.5714285714285714
 40
0.5714285714285714
 40
0.5714285714285714
 40
0.7142857142857142
 40
0.7142857142857142
 40
0.7142857142857142
 40
0.7142857142857142
 40
0.857142857142857
 40
0.857142857142857
 40
0.857142857142857
 40
0.857142857142857
 40
1.0
 40
1.0
 40
1.0
 40
1.0
 10
2.2658200000000002
 20
2.5495900000000002
 30
0.0
 10
2.4868000000000001
 20
2.54705
 30
0.0
 10
2.7509600000000001
 20
2.5191100000000004
 30
0.0
 10
2.9592400000000003
 20
2.4149700000000003
 30
0.0
 10
2.9592400000000003
 20
2.4149700000000003
 30
0.0
 10
2.5426800000000003
 20
2.4251300000000002
 30
0.0
 10
2.0575400000000004
 20
2.42767
 30
0.0
 10
1.7095600000000002
 20
2.1431900000000002
 30
0.0
 10
1.7095600000000002
 20
2.1431900000000002
 30
0.0
 10
1.5851000000000002
 20
1.5437500000000002
 30
0.0
 10
1.3057000000000001
 20
0.9798700000000001
 30
0.0
 10
1.2498200000000002
 20
0.37027
 30
0.0
 10
1.2498200000000002
 20
0.37027
 30
0.0
 10
1.1533
 20
0.5480700000000001
 30
0.0
 10
1.2091800000000001
 20
0.7944500000000001
 30
0.0
 10
1.23712
 20
0.9925700000000001
 30
0.0
 10
1.23712
 20
0.9925700000000001
 30
0.0
 10
1.27776
 20
1.27451
 30
0.0
 10
1.40476
 20
1.52851
 30
0.0
 10
1.3895200000000001
 20
1.8256900000000003
 30
0.0
 10
1.3895200000000001
 20
1.8256900000000003
 30
0.0
 10
1.3768200000000002
 20
1.9044300000000001
 30
0.0
 10
1.36158
 20
1.9831700000000001
 30
0.0
 10
1.3184
 20
2.04921
 30
0.0
 10
1.3184
 20
2.04921
 30
0.0
 10
1.5012800000000002
 20
2.3997300000000004
 30
0.0
 10
1.9051400000000001
 20
2.5165700000000002
 30
0.0
 10
2.2658200000000002
 20
2.5495900000000002
 30
0.0
  0
SPLINE
  5
2C
100
AcDbEntity
  8
Ebene 1
 62
     7
100
AcDbSpline
210
0.0
220
0.0
230
1.0
 70
     1
 71
     3
 72
    16
 73
    12
 74
     0
 42
0.0000000001
 43
0.0000000001
 40
0.0
 40
0.0
 40
0.0
 40
0.0
 40
0.3333333333333333
 40
0.3333333333333333
 40
0.3333333333333333
 40
0.3333333333333333
 40
0.6666666666666666
 40
0.6666666666666666
 40
0.6666666666666666
 40
0.6666666666666666
 40
1.0
 40
1.0
 40
1.0
 40
1.0
 10
-0.34529
 20
1.5767700000000002
 30
0.0
 10
-0.34529
 20
1.57423
 30
0.0
 10
-0.31735
 20
1.5793100000000002
 30
0.0
 10
-0.31735
 20
1.5666100000000001
 30
0.0
 10
-0.31735
 20
1.5666100000000001
 30
0.0
 10
-0.48499
 20
1.35833
 30
0.0
 10
-0.6932700000000001
 20
1.14497
 30
0.0
 10
-0.9421900000000001
 20
1.06623
 30
0.0
 10
-0.9421900000000001
 20
1.06623
 30
0.0
 10
-0.80503
 20
1.2948300000000001
 30
0.0
 10
-0.55611
 20
1.4218300000000001
 30
0.0
 10
-0.34529
 20
1.5767700000000002
 30
0.0
  0
SPLINE
  5
2D
100
AcDbEntity
  8
Ebene 1
100
AcDbSpline
210
0.0
220
0.0
230
1.0
 70
     1
 71
     3
 72
    16
 73
    12
 74
     0
 42
0.0000000001
 43
0.0000000001
 40
0.0
 40
0.0
 40
0.0
 40
0.0
 40
0.3333333333333333
 40
0.3333333333333333
 40
0.3333333333333333
 40
0.3333333333333333
 40
0.6666666666666666
 40
0.6666666666666666
 40
0.6666666666666666
 40
0.6666666666666666
 40
1.0
 40
1.0
 40
1.0
 40
1.0
 10
0.18048
 20
0.6445900000000001
 30
0.0
 10
0.19318
 20
0.6496700000000001
 30
0.0
 10
0.22112
 20
0.6344300000000001
 30
0.0
 10
0.22112
 20
0.61665
 30
0.0
 10
0.22112
 20
0.61665
 30
0.0
 10
-0.04049
 20
0.10865
 30
0.0
 10
-0.76439
 20
0.2635900000000001
 30
0.0
 10
-1.20889
 20
0.10103
 30
0.0
 10
-1.20889
 20
0.10103
 30
0.0
 10
-0.80503
 20
0.39313
 30
0.0
 10
-0.22083
 20
0.30169
 30
0.0
 10
0.18048
 20
0.6445900000000001
 30
0.0
  0
SPLINE
  5
2E
100
AcDbEntity
  8
Ebene 1
 62
     7
100
AcDbSpline
210
0.0
220
0.0
230
1.0
 70
     1
 71
     3
 72
   256
 73
   252
 74
     0
 42
0.0000000001
 43
0.0000000001
 40
0.0
 40
0.0
 40
0.0
 40
0.0
 40
0.0158730158730159
 40
0.0158730158730159
 40
0.0158730158730159
 40
0.0158730158730159
 40
0.0317460317460317
 40
0.0317460317460317
 40
0.0317460317460317
 40
0.0317460317460317
 40
0.0476190476190476
 40
0.0476190476190476
 40
0.0476190476190476
 40
0.0476190476190476
 40
0.0634920634920635
 40
0.0634920634920635
 40
0.0634920634920635
 40
0.0634920634920635
 40
0.0793650793650794
 40
0.0793650793650794
 40
0.0793650793650794
 40
0.0793650793650794
 40
0.0952380952380952
 40
0.0952380952380952
 40
0.0952380952380952
 40
0.0952380952380952
 40
0.1111111111111111
 40
0.1111111111111111
 40
0.1111111111111111
 40
0.1111111111111111
 40
0.126984126984127
 40
0.126984126984127
 40
0.126984126984127
 40
0.126984126984127
 40
0.1428571428571429
 40
0.1428571428571429
 40
0.1428571428571429
 40
0.1428571428571429
 40
0.1587301587301587
 40
0.1587301587301587
 40
0.1587301587301587
 40
0.1587301587301587
 40
0.1746031746031746
 40
0.1746031746031746
 40
0.1746031746031746
 40
0.1746031746031746
 40
0.1904761904761905
 40
0.1904761904761905
 40
0.1904761904761905
 40
0.1904761904761905
 40
0.2063492063492063
 40
0.2063492063492063
 40
0.2063492063492063
 40
0.2063492063492063
 40
0.2222222222222222
 40
0.2222222222222222
 40
0.2222222222222222
 40
0.2222222222222222
 40
0.2380952380952381
 40
0.2380952380952381
 40
0.2380952380952381
 40
0.2380952380952381
 40
0.253968253968254
 40
0.253968253968254
 40
0.253968253968254
 40
0.253968253968254
 40
0.2698412698412698
 40
0.2698412698412698
 40
0.2698412698412698
 40
0.2698412698412698
 40
0.2857142857142857
 40
0.2857142857142857
 40
0.2857142857142857
 40
0.2857142857142857
 40
0.3015873015873016
 40
0.3015873015873016
 40
0.3015873015873016
 40
0.3015873015873016
 40
0.3174603174603174
 40
0.3174603174603174
 40
0.3174603174603174
 40
0.3174603174603174
 40
0.3333333333333333
 40
0.3333333333333333
 40
0.3333333333333333
 40
0.3333333333333333
 40
0.3492063492063492
 40
0.3492063492063492
 40
0.3492063492063492
 40
0.3492063492063492
 40
0.3650793650793651
 40
0.3650793650793651
 40
0.3650793650793651
 40
0.3650793650793651
 40
0.3809523809523809
 40
0.3809523809523809
 40
0.3809523809523809
 40
0.3809523809523809
 40
0.3968253968253968
 40
0.3968253968253968
 40
0.3968253968253968
 40
0.3968253968253968
 40
0.4126984126984127
 40
0.4126984126984127
 40
0.4126984126984127
 40
0.4126984126984127
 40
0.4285714285714286
 40
0.4285714285714286
 40
0.4285714285714286
 40
0.4285714285714286
 40
0.4444444444444444
 40
0.4444444444444444
 40
0.4444444444444444
 40
0.4444444444444444
 40
0.4603174603174603
 40
0.4603174603174603
 40
0.4603174603174603
 40
0.4603174603174603
 40
0.4761904761904762
 40
0.4761904761904762
 40
0.4761904761904762
 40
0.4761904761904762
 40
0.492063492063492
 40
0.492063492063492
 40
0.492063492063492
 40
0.492063492063492
 40
0.5079365079365079
 40
0.5079365079365079
 40
0.5079365079365079
 40
0.5079365079365079
 40
0.5238095238095237
 40
0.5238095238095237
 40
0.5238095238095237
 40
0.5238095238095237
 40
0.5396825396825395
 40
0.5396825396825395
 40
0.5396825396825395
 40
0.5396825396825395
 40
0.5555555555555554
 40
0.5555555555555554
 40
0.5555555555555554
 40
0.5555555555555554
 40
0.5714285714285712
 40
0.5714285714285712
 40
0.5714285714285712
 40
0.5714285714285712
 40
0.587301587301587
 40
0.587301587301587
 40
0.587301587301587
 40
0.587301587301587
 40
0.6031746031746028
 40
0.6031746031746028
 40
0.6031746031746028
 40
0.6031746031746028
 40
0.6190476190476186
 40
0.6190476190476186
 40
0.6190476190476186
 40
0.6190476190476186
 40
0.6349206349206344
 40
0.6349206349206344
 40
0.6349206349206344
 40
0.6349206349206344
 40
0.6507936507936503
 40
0.6507936507936503
 40
0.6507936507936503
 40
0.6507936507936503
 40
0.6666666666666661
 40
0.6666666666666661
 40
0.6666666666666661
 40
0.6666666666666661
 40
0.6825396825396819
 40
0.6825396825396819
 40
0.6825396825396819
 40
0.6825396825396819
 40
0.6984126984126977
 40
0.6984126984126977
 40
0.6984126984126977
 40
0.6984126984126977
 40
0.7142857142857135
 40
0.7142857142857135
 40
0.7142857142857135
 40
0.7142857142857135
 40
0.7301587301587293
 40
0.7301587301587293
 40
0.7301587301587293
 40
0.7301587301587293
 40
0.7460317460317452
 40
0.7460317460317452
 40
0.7460317460317452
 40
0.7460317460317452
 40
0.761904761904761
 40
0.761904761904761
 40
0.761904761904761
 40
0.761904761904761
 40
0.7777777777777768
 40
0.7777777777777768
 40
0.7777777777777768
 40
0.7777777777777768
 40
0.7936507936507926
 40
0.7936507936507926
 40
0.7936507936507926
 40
0.7936507936507926
 40
0.8095238095238084
 40
0.8095238095238084
 40
0.8095238095238084
 40
0.8095238095238084
 40
0.8253968253968242
 40
0.8253968253968242
 40
0.8253968253968242
 40
0.8253968253968242
 40
0.8412698412698401
 40
0.8412698412698401
 40
0.8412698412698401
 40
0.8412698412698401
 40
0.8571428571428559
 40
0.8571428571428559
 40
0.8571428571428559
 40
0.8571428571428559
 40
0.8730158730158717
 40
0.8730158730158717
 40
0.8730158730158717
 40
0.8730158730158717
 40
0.8888888888888875
 40
0.8888888888888875
 40
0.8888888888888875
 40
0.8888888888888875
 40
0.9047619047619033
 40
0.9047619047619033
 40
0.9047619047619033
 40
0.9047619047619033
 40
0.9206349206349191
 40
0.9206349206349191
 40
0.9206349206349191
 40
0.9206349206349191
 40
0.936507936507935
 40
0.936507936507935
 40
0.936507936507935
 40
0.936507936507935
 40
0.9523809523809508
 40
0.9523809523809508
 40
0.9523809523809508
 40
0.9523809523809508
 40
0.9682539682539666
 40
0.9682539682539666
 40
0.9682539682539666
 40
0.9682539682539666
 40
0.9841269841269824
 40
0.9841269841269824
 40
0.9841269841269824
 40
0.9841269841269824
 40
1.0
 40
1.0
 40
1.0
 40
1.0
 10
-4.3381700000000007
 20
-3.4295600000000004
 30
0.0
 10
-4.2365700000000004
 20
-3.5184600000000001
 30
0.0
 10
-4.1806900000000002
 20
-3.6429200000000002
 30
0.0
 10
-4.1273500000000007
 20
-3.5108400000000004
 30
0.0
 10
-4.1273500000000007
 20
-3.5108400000000004
 30
0.0
 10
-4.09687
 20
-3.4651200000000002
 30
0.0
 10
-4.09687
 20
-3.4092400000000005
 30
0.0
 10
-4.0867100000000001
 20
-3.3584400000000003
 30
0.0
 10
-4.0867100000000001
 20
-3.3584400000000003
 30
0.0
 10
-4.0867100000000001
 20
-3.3584400000000003
 30
0.0
 10
-4.0689299999999999
 20
-3.2771600000000003
 30
0.0
 10
-4.0689299999999999
 20
-3.2771600000000003
 30
0.0
 10
-4.0689299999999999
 20
-3.2771600000000003
 30
0.0
 10
-4.0689299999999999
 20
-3.2771600000000003
 30
0.0
 10
-3.9978100000000003
 20
-3.8689800000000005
 30
0.0
 10
-3.9978100000000003
 20
-3.8689800000000005
 30
0.0
 10
-3.9978100000000003
 20
-3.8689800000000005
 30
0.0
 10
-3.9774900000000004
 20
-3.8791400000000005
 30
0.0
 10
-3.9546300000000003
 20
-3.8486600000000002
 30
0.0
 10
-3.9470100000000001
 20
-3.8308800000000005
 30
0.0
 10
-3.9470100000000001
 20
-3.8308800000000005
 30
0.0
 10
-3.9038300000000001
 20
-3.6988000000000003
 30
0.0
 10
-4.04861
 20
-3.3609800000000001
 30
0.0
 10
-3.8504900000000002
 20
-3.5235400000000001
 30
0.0
 10
-3.8504900000000002
 20
-3.5235400000000001
 30
0.0
 10
-3.7234900000000004
 20
-3.4829000000000003
 30
0.0
 10
-3.7031700000000005
 20
-3.3025600000000002
 30
0.0
 10
-3.6295100000000002
 20
-3.2085800000000004
 30
0.0
 10
-3.6295100000000002
 20
-3.2085800000000004
 30
0.0
 10
-3.6015700000000002
 20
-3.3838400000000002
 30
0.0
 10
-3.6650700000000005
 20
-3.5997400000000002
 30
0.0
 10
-3.6142700000000003
 20
-3.7470600000000003
 30
0.0
 10
-3.6142700000000003
 20
-3.7470600000000003
 30
0.0
 10
-3.6142700000000003
 20
-3.7470600000000003
 30
0.0
 10
-3.5660100000000003
 20
-3.3457400000000002
 30
0.0
 10
-3.5660100000000003
 20
-3.3457400000000002
 30
0.0
 10
-3.5660100000000003
 20
-3.3457400000000002
 30
0.0
 10
-3.4669500000000002
 20
-3.5997400000000002
 30
0.0
 10
-3.3475700000000002
 20
-3.3533600000000003
 30
0.0
 10
-3.2510500000000002
 20
-3.2187400000000004
 30
0.0
 10
-3.2510500000000002
 20
-3.2187400000000004
 30
0.0
 10
-3.2510500000000002
 20
-3.2187400000000004
 30
0.0
 10
-3.2662900000000001
 20
-3.4549600000000003
 30
0.0
 10
-3.2662900000000001
 20
-3.4549600000000003
 30
0.0
 10
-3.2662900000000001
 20
-3.4549600000000003
 30
0.0
 10
-3.2662900000000001
 20
-3.4549600000000003
 30
0.0
 10
-3.2662900000000001
 20
-3.6226000000000003
 30
0.0
 10
-3.2662900000000001
 20
-3.6226000000000003
 30
0.0
 10
-3.2662900000000001
 20
-3.6226000000000003
 30
0.0
 10
-3.1621500000000005
 20
-3.7038800000000003
 30
0.0
 10
-3.2129500000000002
 20
-2.9723600000000001
 30
0.0
 10
-3.1265900000000002
 20
-3.2187400000000004
 30
0.0
 10
-3.1265900000000002
 20
-3.2187400000000004
 30
0.0
 10
-3.11389
 20
-3.2974800000000002
 30
0.0
 10
-3.0376900000000004
 20
-3.3279600000000005
 30
0.0
 10
-2.9767300000000003
 20
-3.2695400000000001
 30
0.0
 10
-2.9767300000000003
 20
-3.2695400000000001
 30
0.0
 10
-2.9767300000000003
 20
-3.2695400000000001
 30
0.0
 10
-2.86497
 20
-3.1171400000000005
 30
0.0
 10
-2.86497
 20
-3.1171400000000005
 30
0.0
 10
-2.86497
 20
-3.1171400000000005
 30
0.0
 10
-2.8090900000000003
 20
-3.1450800000000001
 30
0.0
 10
-2.9411700000000001
 20
-3.3863800000000004
 30
0.0
 10
-2.8624300000000003
 20
-3.4702000000000002
 30
0.0
 10
-2.8624300000000003
 20
-3.4702000000000002
 30
0.0
 10
-2.8421100000000004
 20
-3.0892000000000004
 30
0.0
 10
-2.6008100000000001
 20
-2.7717000000000001
 30
0.0
 10
-2.6008100000000001
 20
-3.2568400000000004
 30
0.0
 10
-2.6008100000000001
 20
-3.2568400000000004
 30
0.0
 10
-2.4941300000000002
 20
-2.9037800000000002
 30
0.0
 10
-1.75499
 20
-3.0231600000000003
 30
0.0
 10
-1.37399
 20
-3.0384000000000002
 30
0.0
 10
-1.37399
 20
-3.0384000000000002
 30
0.0
 10
-1.1377700000000002
 20
-2.9749000000000003
 30
0.0
 10
-1.8819900000000001
 20
-2.9596600000000004
 30
0.0
 10
-1.41717
 20
-2.7564600000000001
 30
0.0
 10
-1.41717
 20
-2.7564600000000001
 30
0.0
 10
-1.2774700000000001
 20
-2.7056600000000004
 30
0.0
 10
-1.1377700000000002
 20
-2.7412200000000002
 30
0.0
 10
-0.9421900000000001
 20
-2.7336
 30
0.0
 10
-0.9421900000000001
 20
-2.7336
 30
0.0
 10
-0.92949
 20
-2.9698200000000003
 30
0.0
 10
-1.04125
 20
-3.2162000000000002
 30
0.0
 10
-0.9167900000000001
 20
-3.4244800000000004
 30
0.0
 10
-0.9167900000000001
 20
-3.4244800000000004
 30
0.0
 10
-0.88885
 20
-3.3635200000000003
 30
0.0
 10
-0.9701300000000001
 20
-3.2720800000000003
 30
0.0
 10
-0.92949
 20
-3.2060400000000002
 30
0.0
 10
-0.92949
 20
-3.2060400000000002
 30
0.0
 10
-0.92949
 20
-3.2060400000000002
 30
0.0
 10
-0.8609100000000001
 20
-2.8987000000000003
 30
0.0
 10
-0.8609100000000001
 20
-2.8987000000000003
 30
0.0
 10
-0.8609100000000001
 20
-2.8987000000000003
 30
0.0
 10
-0.8609100000000001
 20
-2.8987000000000003
 30
0.0
 10
-0.84567
 20
-2.7056600000000004
 30
0.0
 10
-0.84567
 20
-2.7056600000000004
 30
0.0
 10
-0.84567
 20
-2.7056600000000004
 30
0.0
 10
-0.84567
 20
-2.7056600000000004
 30
0.0
 10
-0.6094500000000001
 20
-2.6777200000000003
 30
0.0
 10
-0.6094500000000001
 20
-2.6777200000000003
 30
0.0
 10
-0.6094500000000001
 20
-2.6777200000000003
 30
0.0
 10
-0.6094500000000001
 20
-2.7539200000000004
 30
0.0
 10
-0.6246900000000001
 20
-2.8326600000000002
 30
0.0
 10
-0.65263
 20
-2.90124
 30
0.0
 10
-0.65263
 20
-2.90124
 30
0.0
 10
-0.6094500000000001
 20
-3.0841200000000004
 30
0.0
 10
-0.37323
 20
-2.2865600000000001
 30
0.0
 10
-0.44181
 20
-2.7488400000000004
 30
0.0
 10
-0.44181
 20
-2.7488400000000004
 30
0.0
 10
-0.5408700000000001
 20
-2.9393400000000001
 30
0.0
 10
-0.4291100000000001
 20
-2.9342600000000001
 30
0.0
 10
-0.37323
 20
-2.7564600000000001
 30
0.0
 10
-0.37323
 20
-2.7564600000000001
 30
0.0
 10
-0.37323
 20
-2.7564600000000001
 30
0.0
 10
-0.31735
 20
-2.6345400000000003
 30
0.0
 10
-0.31735
 20
-2.6345400000000003
 30
0.0
 10
-0.31735
 20
-2.6345400000000003
 30
0.0
 10
-0.28941
 20
-2.5634200000000003
 30
0.0
 10
-0.19289
 20
-2.6497800000000002
 30
0.0
 10
-0.13701
 20
-2.60914
 30
0.0
 10
-0.13701
 20
-2.60914
 30
0.0
 10
-0.48499
 20
-3.2035000000000005
 30
0.0
 10
0.02808
 20
-2.2383000000000002
 30
0.0
 10
0.33288
 20
-2.6726400000000003
 30
0.0
 10
0.33288
 20
-2.6726400000000003
 30
0.0
 10
0.22112
 20
-2.26878
 30
0.0
 10
0.24906
 20
-1.9081000000000001
 30
0.0
 10
0.68086
 20
-1.7404600000000001
 30
0.0
 10
0.68086
 20
-1.7404600000000001
 30
0.0
 10
0.7215
 20
-1.5652000000000001
 30
0.0
 10
0.5691000000000001
 20
-1.41534
 30
0.0
 10
0.5691000000000001
 20
-1.2324600000000001
 30
0.0
 10
0.5691000000000001
 20
-1.2324600000000001
 30
0.0
 10
1.23712
 20
-1.0165600000000001
 30
0.0
 10
1.48604
 20
0.35503
 30
0.0
 10
2.3217000000000003
 20
-0.092
 30
0.0
 10
2.3217000000000003
 20
-0.092
 30
0.0
 10
2.3623400000000001
 20
-0.25456
 30
0.0
 10
2.2378800000000001
 20
-0.3968
 30
0.0
 10
2.1413600000000002
 20
-0.5161800000000001
 30
0.0
 10
2.1413600000000002
 20
-0.5161800000000001
 30
0.0
 10
1.7375
 20
-0.8184400000000001
 30
0.0
 10
2.0702400000000001
 20
-0.74224
 30
0.0
 10
2.2658200000000002
 20
-0.48316
 30
0.0
 10
2.2658200000000002
 20
-0.48316
 30
0.0
 10
2.2658200000000002
 20
-0.48316
 30
0.0
 10
2.4461600000000003
 20
-0.219
 30
0.0
 10
2.4461600000000003
 20
-0.219
 30
0.0
 10
2.4461600000000003
 20
-0.219
 30
0.0
 10
2.5147400000000002
 20
-0.27234
 30
0.0
 10
2.5579200000000002
 20
-0.29266
 30
0.0
 10
2.5426800000000003
 20
-0.4095
 30
0.0
 10
2.5426800000000003
 20
-0.4095
 30
0.0
 10
2.1693000000000002
 20
-1.1740400000000002
 30
0.0
 10
1.0136000000000001
 20
-1.7709400000000002
 30
0.0
 10
1.2498200000000002
 20
-2.7158200000000003
 30
0.0
 10
1.2498200000000002
 20
-2.7158200000000003
 30
0.0
 10
1.3057000000000001
 20
-2.7005800000000004
 30
0.0
 10
1.40476
 20
-2.7717000000000001
 30
0.0
 10
1.4174600000000002
 20
-2.69042
 30
0.0
 10
1.4174600000000002
 20
-2.69042
 30
0.0
 10
1.0567800000000001
 20
-2.4211800000000001
 30
0.0
 10
1.5851000000000002
 20
-1.7633200000000002
 30
0.0
 10
1.8772000000000002
 20
-1.4966200000000001
 30
0.0
 10
1.8772000000000002
 20
-1.4966200000000001
 30
0.0
 10
1.9178400000000002
 20
-1.5626600000000002
 30
0.0
 10
1.9457800000000001
 20
-1.6490200000000002
 30
0.0
 10
2.0143600000000004
 20
-1.6896600000000002
 30
0.0
 10
2.0143600000000004
 20
-1.6896600000000002
 30
0.0
 10
2.0143600000000004
 20
-1.6896600000000002
 30
0.0
 10
2.2226400000000002
 20
-1.6617200000000001
 30
0.0
 10
2.2226400000000002
 20
-1.6617200000000001
 30
0.0
 10
2.2226400000000002
 20
-1.6617200000000001
 30
0.0
 10
2.5985600000000004
 20
-1.49916
 30
0.0
 10
2.9465400000000002
 20
-1.1308600000000002
 30
0.0
 10
3.3631000000000002
 20
-1.4001000000000001
 30
0.0
 10
3.3631000000000002
 20
-1.4001000000000001
 30
0.0
 10
3.9752400000000003
 20
-2.2078200000000003
 30
0.0
 10
2.6823800000000002
 20
-2.5202400000000003
 30
0.0
 10
2.1540600000000003
 20
-2.81488
 30
0.0
 10
2.1540600000000003
 20
-2.81488
 30
0.0
 10
1.9457800000000001
 20
-2.9215600000000004
 30
0.0
 10
1.7375
 20
-3.0155400000000001
 30
0.0
 10
1.52922
 20
-3.1349200000000002
 30
0.0
 10
1.52922
 20
-3.1349200000000002
 30
0.0
 10
1.52922
 20
-3.1349200000000002
 30
0.0
 10
1.3184
 20
-3.2466800000000005
 30
0.0
 10
1.3184
 20
-3.2466800000000005
 30
0.0
 10
1.3184
 20
-3.2466800000000005
 30
0.0
 10
1.1533
 20
-3.3305000000000002
 30
0.0
 10
1.0009000000000001
 20
-3.4879800000000003
 30
0.0
 10
0.9170800000000001
 20
-3.6327600000000002
 30
0.0
 10
0.9170800000000001
 20
-3.6327600000000002
 30
0.0
 10
1.1406000000000001
 20
-3.4702000000000002
 30
0.0
 10
1.3768200000000002
 20
-3.3025600000000002
 30
0.0
 10
1.6409800000000001
 20
-3.2060400000000002
 30
0.0
 10
1.6409800000000001
 20
-3.2060400000000002
 30
0.0
 10
1.8060800000000001
 20
-3.1298400000000002
 30
0.0
 10
1.9864200000000001
 20
-3.0460200000000004
 30
0.0
 10
2.1413600000000002
 20
-3.0104600000000001
 30
0.0
 10
2.1413600000000002
 20
-3.0104600000000001
 30
0.0
 10
1.6816200000000001
 20
-3.9274000000000004
 30
0.0
 10
0.5691000000000001
 20
-4.0975800000000007
 30
0.0
 10
-0.36053
 20
-3.9528000000000003
 30
0.0
 10
-0.36053
 20
-3.9528000000000003
 30
0.0
 10
-0.26147
 20
-3.8435800000000002
 30
0.0
 10
0.19318
 20
-3.8258000000000005
 30
0.0
 10
0.09666
 20
-3.7343600000000001
 30
0.0
 10
0.09666
 20
-3.7343600000000001
 30
0.0
 10
-1.1098300000000001
 20
-4.2245800000000004
 30
0.0
 10
-2.4915900000000004
 20
-3.7800800000000003
 30
0.0
 10
-3.7107900000000003
 20
-4.0670999999999999
 30
0.0
 10
-3.7107900000000003
 20
-4.0670999999999999
 30
0.0
 10
-3.4974300000000005
 20
-4.1001200000000004
 30
0.0
 10
-3.2231100000000001
 20
-4.01884
 30
0.0
 10
-2.9741900000000001
 20
-4.0518600000000005
 30
0.0
 10
-2.9741900000000001
 20
-4.0518600000000005
 30
0.0
 10
-2.9741900000000001
 20
-4.0518600000000005
 30
0.0
 10
-2.7684500000000001
 20
-4.0696400000000006
 30
0.0
 10
-2.7684500000000001
 20
-4.0696400000000006
 30
0.0
 10
-2.7684500000000001
 20
-4.0696400000000006
 30
0.0
 10
-3.0427700000000004
 20
-4.2169600000000003
 30
0.0
 10
-3.3831300000000004
 20
-4.2703000000000007
 30
0.0
 10
-3.6828500000000002
 20
-4.3185600000000006
 30
0.0
 10
-3.6828500000000002
 20
-4.3185600000000006
 30
0.0
 10
-3.9241500000000005
 20
-4.4557200000000003
 30
0.0
 10
-4.7928300000000004
 20
-4.4150800000000006
 30
0.0
 10
-4.2111700000000001
 20
-4.2347400000000004
 30
0.0
 10
-4.2111700000000001
 20
-4.2347400000000004
 30
0.0
 10
-4.1806900000000002
 20
-4.2474400000000001
 30
0.0
 10
-4.0359100000000003
 20
-4.2245800000000004
 30
0.0
 10
-4.1248100000000001
 20
-4.1763200000000005
 30
0.0
 10
-4.1248100000000001
 20
-4.1763200000000005
 30
0.0
 10
-4.5769299999999999
 20
-4.13314
 30
0.0
 10
-4.6607500000000002
 20
-3.6175200000000003
 30
0.0
 10
-4.7496500000000008
 20
-3.2619200000000004
 30
0.0
 10
-4.7496500000000008
 20
-3.2619200000000004
 30
0.0
 10
-4.7496500000000008
 20
-3.2619200000000004
 30
0.0
 10
-4.65313
 20
-3.3813000000000004
 30
0.0
 10
-4.65313
 20
-3.3813000000000004
 30
0.0
 10
-4.65313
 20
-3.3813000000000004
 30
0.0
 10
-4.6074100000000007
 20
-3.4575000000000005
 30
0.0
 10
-4.4626300000000008
 20
-3.6708600000000002
 30
0.0
 10
-4.4067500000000006
 20
-3.5387800000000005
 30
0.0
 10
-4.4067500000000006
 20
-3.5387800000000005
 30
0.0
 10
-4.40421
 20
-3.5286200000000001
 30
0.0
 10
-4.2264100000000004
 20
-3.9528000000000003
 30
0.0
 10
-4.2137100000000007
 20
-3.8969200000000002
 30
0.0
 10
-4.2137100000000007
 20
-3.8969200000000002
 30
0.0
 10
-4.2086300000000003
 20
-3.8689800000000005
 30
0.0
 10
-4.2543500000000005
 20
-3.7369000000000003
 30
0.0
 10
-4.3381700000000007
 20
-3.4295600000000004
 30
0.0
  0
SPLINE
  5
2F
100
AcDbEntity
  8
Ebene 1
100
AcDbSpline
210
0.0
220
0.0
230
1.0
 70
     1
 71
     3
 72
    28
 73
    24
 74
     0
 42
0.0000000001
 43
0.0000000001
 40
0.0
 40
0.0
 40
0.0
 40
0.0
 40
0.1666666666666667
 40
0.1666666666666667
 40
0.1666666666666667
 40
0.1666666666666667
 40
0.3333333333333333
 40
0.3333333333333333
 40
0.3333333333333333
 40
0.3333333333333333
 40
0.5
 40
0.5
 40
0.5
 40
0.5
 40
0.6666666666666666
 40
0.6666666666666666
 40
0.6666666666666666
 40
0.6666666666666666
 40
0.8333333333333333
 40
0.8333333333333333
 40
0.8333333333333333
 40
0.8333333333333333
 40
1.0
 40
1.0
 40
1.0
 40
1.0
 10
-2.8471900000000003
 20
-0.1047
 30
0.0
 10
-2.8344900000000002
 20
-0.09962
 30
0.0
 10
-2.8090900000000003
 20
-0.11232
 30
0.0
 10
-2.8090900000000003
 20
-0.12756
 30
0.0
 10
-2.8090900000000003
 20
-0.12756
 30
0.0
 10
-2.8090900000000003
 20
-0.12756
 30
0.0
 10
-2.9005300000000003
 20
-0.20376
 30
0.0
 10
-2.9005300000000003
 20
-0.20376
 30
0.0
 10
-2.9005300000000003
 20
-0.20376
 30
0.0
 10
-2.9716500000000003
 20
-0.6482600000000001
 30
0.0
 10
-3.3094700000000001
 20
-0.9733800000000001
 30
0.0
 10
-3.4618700000000002
 20
-1.37978
 30
0.0
 10
-3.4618700000000002
 20
-1.37978
 30
0.0
 10
-3.4771100000000001
 20
-1.3899400000000002
 30
0.0
 10
-3.4923500000000001
 20
-1.42042
 30
0.0
 10
-3.5126700000000004
 20
-1.4077200000000001
 30
0.0
 10
-3.5126700000000004
 20
-1.4077200000000001
 30
0.0
 10
-3.4771100000000001
 20
-1.0318000000000001
 30
0.0
 10
-3.0097500000000004
 20
-0.6635000000000001
 30
0.0
 10
-3.1926300000000003
 20
-0.31552
 30
0.0
 10
-3.1926300000000003
 20
-0.31552
 30
0.0
 10
-3.0935700000000002
 20
-0.22154
 30
0.0
 10
-2.9614900000000004
 20
-0.16058
 30
0.0
 10
-2.8471900000000003
 20
-0.1047
 30
0.0
  0
SPLINE
  5
30
100
AcDbEntity
  8
Ebene 1
100
AcDbSpline
210
0.0
220
0.0
230
1.0
 70
     1
 71
     3
 72
    28
 73
    24
 74
     0
 42
0.0000000001
 43
0.0000000001
 40
0.0
 40
0.0
 40
0.0
 40
0.0
 40
0.1666666666666667
 40
0.1666666666666667
 40
0.1666666666666667
 40
0.1666666666666667
 40
0.3333333333333333
 40
0.3333333333333333
 40
0.3333333333333333
 40
0.3333333333333333
 40
0.5
 40
0.5
 40
0.5
 40
0.5
 40
0.6666666666666666
 40
0.6666666666666666
 40
0.6666666666666666
 40
0.6666666666666666
 40
0.8333333333333333
 40
0.8333333333333333
 40
0.8333333333333333
 40
0.8333333333333333
 40
1.0
 40
1.0
 40
1.0
 40
1.0
 10
-2.0826500000000001
 20
-0.21646
 30
0.0
 10
-1.9708900000000003
 20
-0.26472
 30
0.0
 10
-2.1817100000000003
 20
-0.5822200000000001
 30
0.0
 10
-1.9175500000000001
 20
-0.5212600000000001
 30
0.0
 10
-1.9175500000000001
 20
-0.5212600000000001
 30
0.0
 10
-1.8311900000000001
 20
-0.5238
 30
0.0
 10
-1.75753
 20
-0.56952
 30
0.0
 10
-1.6813300000000002
 20
-0.6050800000000001
 30
0.0
 10
-1.6813300000000002
 20
-0.6050800000000001
 30
0.0
 10
-1.6000500000000002
 20
-0.6203200000000001
 30
0.0
 10
-1.5848100000000001
 20
-0.8286000000000001
 30
0.0
 10
-1.6254500000000001
 20
-0.7727200000000001
 30
0.0
 10
-1.6254500000000001
 20
-0.7727200000000001
 30
0.0
 10
-1.9200900000000001
 20
-0.38156
 30
0.0
 10
-2.3595100000000002
 20
-0.8184400000000001
 30
0.0
 10
-2.6363700000000003
 20
-1.0165600000000001
 30
0.0
 10
-2.6363700000000003
 20
-1.0165600000000001
 30
0.0
 10
-2.6389100000000001
 20
-0.8692400000000001
 30
0.0
 10
-2.4585700000000004
 20
-0.7701800000000001
 30
0.0
 10
-2.3849100000000001
 20
-0.63556
 30
0.0
 10
-2.3849100000000001
 20
-0.63556
 30
0.0
 10
-2.3849100000000001
 20
-0.63556
 30
0.0
 10
-2.0826500000000001
 20
-0.21646
 30
0.0
 10
-2.0826500000000001
 20
-0.21646
 30
0.0
  0
SPLINE
  5
31
100
AcDbEntity
  8
Ebene 1
 62
     7
100
AcDbSpline
210
0.0
220
0.0
230
1.0
 70
     1
 71
     3
 72
    12
 73
     8
 74
     0
 42
0.0000000001
 43
0.0000000001
 40
0.0
 40
0.0
 40
0.0
 40
0.0
 40
0.5
 40
0.5
 40
0.5
 40
0.5
 40
1.0
 40
1.0
 40
1.0
 40
1.0
 10
-0.4697500000000001
 20
-2.0935200000000003
 30
0.0
 10
-0.37323
 20
-2.1849600000000002
 30
0.0
 10
-0.37323
 20
-2.4262600000000001
 30
0.0
 10
-0.45705
 20
-2.5380200000000004
 30
0.0
 10
-0.45705
 20
-2.5380200000000004
 30
0.0
 10
-0.63739
 20
-2.4643600000000001
 30
0.0
 10
-0.52563
 20
-2.2230600000000003
 30
0.0
 10
-0.4697500000000001
 20
-2.0935200000000003
 30
0.0
  0
SPLINE
  5
32
100
AcDbEntity
  8
Ebene 1
 62
     7
100
AcDbSpline
210
0.0
220
0.0
230
1.0
 70
     1
 71
     3
 72
    16
 73
    12
 74
     0
 42
0.0000000001
 43
0.0000000001
 40
0.0
 40
0.0
 40
0.0
 40
0.0
 40
0.3333333333333333
 40
0.3333333333333333
 40
0.3333333333333333
 40
0.3333333333333333
 40
0.6666666666666666
 40
0.6666666666666666
 40
0.6666666666666666
 40
0.6666666666666666
 40
1.0
 40
1.0
 40
1.0
 40
1.0
 10
-4.64297
 20
-2.1900400000000002
 30
0.0
 10
-4.4219900000000001
 20
-2.3297400000000001
 30
0.0
 10
-4.64297
 20
-2.6396200000000003
 30
0.0
 10
-4.6582100000000004
 20
-2.8402800000000004
 30
0.0
 10
-4.6582100000000004
 20
-2.8402800000000004
 30
0.0
 10
-4.6582100000000004
 20
-2.8402800000000004
 30
0.0
 10
-4.8614100000000002
 20
-2.8529800000000001
 30
0.0
 10
-4.8614100000000002
 20
-2.8529800000000001
 30
0.0
 10
-4.8614100000000002
 20
-2.8529800000000001
 30
0.0
 10
-4.8614100000000002
 20
-2.8529800000000001
 30
0.0
 10
-4.64297
 20
-2.1900400000000002
 30
0.0
 10
-4.64297
 20
-2.1900400000000002
 30
0.0
  0
SPLINE
  5
33
100
AcDbEntity
  8
Ebene 1
 62
     7
100
AcDbSpline
210
0.0
220
0.0
230
1.0
 70
     1
 71
     3
 72
    24
 73
    20
 74
     0
 42
0.0000000001
 43
0.0000000001
 40
0.0
 40
0.0
 40
0.0
 40
0.0
 40
0.2
 40
0.2
 40
0.2
 40
0.2
 40
0.4
 40
0.4
 40
0.4
 40
0.4
 40
0.6000000000000001
 40
0.6000000000000001
 40
0.6000000000000001
 40
0.6000000000000001
 40
0.8
 40
0.8
 40
0.8
 40
0.8
 40
1.0
 40
1.0
 40
1.0
 40
1.0
 10
-3.0300700000000003
 20
-2.2179800000000003
 30
0.0
 10
-2.9056100000000002
 20
-2.3576800000000002
 30
0.0
 10
-2.8116300000000001
 20
-2.5304000000000002
 30
0.0
 10
-2.7100300000000002
 20
-2.69042
 30
0.0
 10
-2.7100300000000002
 20
-2.69042
 30
0.0
 10
-2.7100300000000002
 20
-2.69042
 30
0.0
 10
-2.7252700000000001
 20
-2.7564600000000001
 30
0.0
 10
-2.7252700000000001
 20
-2.7564600000000001
 30
0.0
 10
-2.7252700000000001
 20
-2.7564600000000001
 30
0.0
 10
-2.7659100000000003
 20
-2.7945600000000002
 30
0.0
 10
-2.8014700000000001
 20
-2.7818600000000004
 30
0.0
 10
-2.8344900000000002
 20
-2.7590000000000003
 30
0.0
 10
-2.8344900000000002
 20
-2.7590000000000003
 30
0.0
 10
-2.8725900000000002
 20
-2.8275800000000002
 30
0.0
 10
-2.9970500000000002
 20
-2.8021800000000003
 30
0.0
 10
-3.0529300000000004
 20
-2.7971000000000004
 30
0.0
 10
-3.0529300000000004
 20
-2.7971000000000004
 30
0.0
 10
-3.0808700000000004
 20
-2.5939000000000001
 30
0.0
 10
-3.0961100000000004
 20
-2.4084800000000004
 30
0.0
 10
-3.0300700000000003
 20
-2.2179800000000003
 30
0.0
  0
SPLINE
  5
34
100
AcDbEntity
  8
Ebene 1
 62
     7
100
AcDbSpline
210
0.0
220
0.0
230
1.0
 70
     1
 71
     3
 72
    20
 73
    16
 74
     0
 42
0.0000000001
 43
0.0000000001
 40
0.0
 40
0.0
 40
0.0
 40
0.0
 40
0.25
 40
0.25
 40
0.25
 40
0.25
 40
0.5
 40
0.5
 40
0.5
 40
0.5
 40
0.75
 40
0.75
 40
0.75
 40
0.75
 40
1.0
 40
1.0
 40
1.0
 40
1.0
 10
-3.5431500000000002
 20
-2.2459200000000004
 30
0.0
 10
-3.4821900000000001
 20
-2.4110200000000002
 30
0.0
 10
-3.4720300000000002
 20
-2.6269200000000001
 30
0.0
 10
-3.5050500000000002
 20
-2.8123400000000003
 30
0.0
 10
-3.5050500000000002
 20
-2.8123400000000003
 30
0.0
 10
-3.5050500000000002
 20
-2.8123400000000003
 30
0.0
 10
-3.7615900000000004
 20
-2.8529800000000001
 30
0.0
 10
-3.7615900000000004
 20
-2.8529800000000001
 30
0.0
 10
-3.7615900000000004
 20
-2.8529800000000001
 30
0.0
 10
-3.7615900000000004
 20
-2.8529800000000001
 30
0.0
 10
-3.7895300000000005
 20
-2.8250400000000004
 30
0.0
 10
-3.7895300000000005
 20
-2.8250400000000004
 30
0.0
 10
-3.7895300000000005
 20
-2.8250400000000004
 30
0.0
 10
-3.7387300000000003
 20
-2.6243800000000004
 30
0.0
 10
-3.6777700000000002
 20
-2.4161000000000001
 30
0.0
 10
-3.5431500000000002
 20
-2.2459200000000004
 30
0.0
  0
SPLINE
  5
35
100
AcDbEntity
  8
Ebene 1
 62
     7
100
AcDbSpline
210
0.0
220
0.0
230
1.0
 70
     1
 71
     3
 72
    16
 73
    12
 74
     0
 42
0.0000000001
 43
0.0000000001
 40
0.0
 40
0.0
 40
0.0
 40
0.0
 40
0.3333333333333333
 40
0.3333333333333333
 40
0.3333333333333333
 40
0.3333333333333333
 40
0.6666666666666666
 40
0.6666666666666666
 40
0.6666666666666666
 40
0.6666666666666666
 40
1.0
 40
1.0
 40
1.0
 40
1.0
 10
-0.80503
 20
-2.2459200000000004
 30
0.0
 10
-0.80503
 20
-2.2459200000000004
 30
0.0
 10
-0.6932700000000001
 20
-2.5507200000000001
 30
0.0
 10
-0.6932700000000001
 20
-2.5507200000000001
 30
0.0
 10
-0.6932700000000001
 20
-2.5507200000000001
 30
0.0
 10
-0.72121
 20
-2.60406
 30
0.0
 10
-0.7923300000000001
 20
-2.65232
 30
0.0
 10
-0.8609100000000001
 20
-2.6294600000000004
 30
0.0
 10
-0.8609100000000001
 20
-2.6294600000000004
 30
0.0
 10
-0.9421900000000001
 20
-2.5075400000000001
 30
0.0
 10
-0.80503
 20
-2.3830800000000001
 30
0.0
 10
-0.80503
 20
-2.2459200000000004
 30
0.0
  0
SPLINE
  5
36
100
AcDbEntity
  8
Ebene 1
 62
     7
100
AcDbSpline
210
0.0
220
0.0
230
1.0
 70
     1
 71
     3
 72
    16
 73
    12
 74
     0
 42
0.0000000001
 43
0.0000000001
 40
0.0
 40
0.0
 40
0.0
 40
0.0
 40
0.3333333333333333
 40
0.3333333333333333
 40
0.3333333333333333
 40
0.3333333333333333
 40
0.6666666666666666
 40
0.6666666666666666
 40
0.6666666666666666
 40
0.6666666666666666
 40
1.0
 40
1.0
 40
1.0
 40
1.0
 10
-1.33335
 20
-2.2586200000000001
 30
0.0
 10
-1.16571
 20
-2.2891000000000004
 30
0.0
 10
-1.0564900000000002
 20
-2.4338800000000003
 30
0.0
 10
-0.9701300000000001
 20
-2.5761200000000004
 30
0.0
 10
-0.9701300000000001
 20
-2.5761200000000004
 30
0.0
 10
-1.0285500000000001
 20
-2.6447000000000003
 30
0.0
 10
-1.1377700000000002
 20
-2.6243800000000004
 30
0.0
 10
-1.2368300000000001
 20
-2.5888200000000001
 30
0.0
 10
-1.2368300000000001
 20
-2.5888200000000001
 30
0.0
 10
-1.2774700000000001
 20
-2.4872200000000002
 30
0.0
 10
-1.3181100000000001
 20
-2.3754600000000003
 30
0.0
 10
-1.33335
 20
-2.2586200000000001
 30
0.0
  0
SPLINE
  5
37
100
AcDbEntity
  8
Ebene 1
 62
     7
100
AcDbSpline
210
0.0
220
0.0
230
1.0
 70
     1
 71
     3
 72
    16
 73
    12
 74
     0
 42
0.0000000001
 43
0.0000000001
 40
0.0
 40
0.0
 40
0.0
 40
0.0
 40
0.3333333333333333
 40
0.3333333333333333
 40
0.3333333333333333
 40
0.3333333333333333
 40
0.6666666666666666
 40
0.6666666666666666
 40
0.6666666666666666
 40
0.6666666666666666
 40
1.0
 40
1.0
 40
1.0
 40
1.0
 10
-3.3069300000000004
 20
-2.27386
 30
0.0
 10
-3.1875500000000003
 20
-2.4059400000000002
 30
0.0
 10
-3.1850100000000001
 20
-2.6370800000000001
 30
0.0
 10
-3.1850100000000001
 20
-2.8250400000000004
 30
0.0
 10
-3.1850100000000001
 20
-2.8250400000000004
 30
0.0
 10
-3.2383500000000001
 20
-2.8352000000000004
 30
0.0
 10
-3.2891500000000002
 20
-2.8555200000000003
 30
0.0
 10
-3.3450300000000004
 20
-2.8402800000000004
 30
0.0
 10
-3.3450300000000004
 20
-2.8402800000000004
 30
0.0
 10
-3.3475700000000002
 20
-2.6497800000000002
 30
0.0
 10
-3.3577300000000001
 20
-2.4491200000000002
 30
0.0
 10
-3.3069300000000004
 20
-2.27386
 30
0.0
  0
SPLINE
  5
38
100
AcDbEntity
  8
Ebene 1
 62
     7
100
AcDbSpline
210
0.0
220
0.0
230
1.0
 70
     1
 71
     3
 72
    24
 73
    20
 74
     0
 42
0.0000000001
 43
0.0000000001
 40
0.0
 40
0.0
 40
0.0
 40
0.0
 40
0.2
 40
0.2
 40
0.2
 40
0.2
 40
0.4
 40
0.4
 40
0.4
 40
0.4
 40
0.6000000000000001
 40
0.6000000000000001
 40
0.6000000000000001
 40
0.6000000000000001
 40
0.8
 40
0.8
 40
0.8
 40
0.8
 40
1.0
 40
1.0
 40
1.0
 40
1.0
 10
-4.2797499999999999
 20
-2.3424400000000003
 30
0.0
 10
-4.1248100000000001
 20
-2.4592800000000001
 30
0.0
 10
-4.23149
 20
-2.7056600000000004
 30
0.0
 10
-4.2568900000000003
 20
-2.8656800000000002
 30
0.0
 10
-4.2568900000000003
 20
-2.8656800000000002
 30
0.0
 10
-4.3280099999999999
 20
-2.8783800000000004
 30
0.0
 10
-4.3965900000000007
 20
-2.8936200000000003
 30
0.0
 10
-4.4702500000000001
 20
-2.8809200000000001
 30
0.0
 10
-4.4702500000000001
 20
-2.8809200000000001
 30
0.0
 10
-4.4702500000000001
 20
-2.8809200000000001
 30
0.0
 10
-4.4778700000000002
 20
-2.81996
 30
0.0
 10
-4.4778700000000002
 20
-2.81996
 30
0.0
 10
-4.4778700000000002
 20
-2.81996
 30
0.0
 10
-4.4778700000000002
 20
-2.81996
 30
0.0
 10
-4.5261300000000002
 20
-2.8250400000000004
 30
0.0
 10
-4.5261300000000002
 20
-2.8250400000000004
 30
0.0
 10
-4.5261300000000002
 20
-2.8250400000000004
 30
0.0
 10
-4.5210500000000007
 20
-2.6396200000000003
 30
0.0
 10
-4.4067500000000006
 20
-2.4796
 30
0.0
 10
-4.2797499999999999
 20
-2.3424400000000003
 30
0.0
  0
SPLINE
  5
39
100
AcDbEntity
  8
Ebene 1
 62
     7
100
AcDbSpline
210
0.0
220
0.0
230
1.0
 70
     1
 71
     3
 72
    16
 73
    12
 74
     0
 42
0.0000000001
 43
0.0000000001
 40
0.0
 40
0.0
 40
0.0
 40
0.0
 40
0.3333333333333333
 40
0.3333333333333333
 40
0.3333333333333333
 40
0.3333333333333333
 40
0.6666666666666666
 40
0.6666666666666666
 40
0.6666666666666666
 40
0.6666666666666666
 40
1.0
 40
1.0
 40
1.0
 40
1.0
 10
-3.9343100000000004
 20
-2.4262600000000001
 30
0.0
 10
-3.8708100000000005
 20
-2.5532600000000003
 30
0.0
 10
-3.8784300000000003
 20
-2.7691600000000003
 30
0.0
 10
-3.9089100000000001
 20
-2.8809200000000001
 30
0.0
 10
-3.9089100000000001
 20
-2.8809200000000001
 30
0.0
 10
-3.9952700000000005
 20
-2.8987000000000003
 30
0.0
 10
-4.0765500000000001
 20
-2.8834600000000004
 30
0.0
 10
-4.1375100000000007
 20
-2.8250400000000004
 30
0.0
 10
-4.1375100000000007
 20
-2.8250400000000004
 30
0.0
 10
-4.1273500000000007
 20
-2.6726400000000003
 30
0.0
 10
-4.02067
 20
-2.5481800000000003
 30
0.0
 10
-3.9343100000000004
 20
-2.4262600000000001
 30
0.0
  0
SPLINE
  5
3A
100
AcDbEntity
  8
Ebene 1
 62
     7
100
AcDbSpline
210
0.0
220
0.0
230
1.0
 70
     1
 71
     3
 72
    16
 73
    12
 74
     0
 42
0.0000000001
 43
0.0000000001
 40
0.0
 40
0.0
 40
0.0
 40
0.0
 40
0.3333333333333333
 40
0.3333333333333333
 40
0.3333333333333333
 40
0.3333333333333333
 40
0.6666666666666666
 40
0.6666666666666666
 40
0.6666666666666666
 40
0.6666666666666666
 40
1.0
 40
1.0
 40
1.0
 40
1.0
 10
-0.19289
 20
-2.4262600000000001
 30
0.0
 10
-0.12431
 20
-2.4110200000000002
 30
0.0
 10
-0.15225
 20
-2.4973800000000002
 30
0.0
 10
-0.15225
 20
-2.5329400000000004
 30
0.0
 10
-0.15225
 20
-2.5329400000000004
 30
0.0
 10
-0.15225
 20
-2.5329400000000004
 30
0.0
 10
-0.31735
 20
-2.56088
 30
0.0
 10
-0.31735
 20
-2.56088
 30
0.0
 10
-0.31735
 20
-2.56088
 30
0.0
 10
-0.31735
 20
-2.56088
 30
0.0
 10
-0.19289
 20
-2.4262600000000001
 30
0.0
 10
-0.19289
 20
-2.4262600000000001
 30
0.0
  0
SPLINE
  5
3B
100
AcDbEntity
  8
Ebene 1
 62
     7
100
AcDbSpline
210
0.0
220
0.0
230
1.0
 70
     1
 71
     3
 72
    12
 73
     8
 74
     0
 42
0.0000000001
 43
0.0000000001
 40
0.0
 40
0.0
 40
0.0
 40
0.0
 40
0.5
 40
0.5
 40
0.5
 40
0.5
 40
1.0
 40
1.0
 40
1.0
 40
1.0
 10
-4.9909500000000007
 20
-2.8301200000000004
 30
0.0
 10
-4.8741100000000008
 20
-2.8352000000000004
 30
0.0
 10
-4.8741100000000008
 20
-2.65232
 30
0.0
 10
-4.8385500000000006
 20
-2.48468
 30
0.0
 10
-4.8385500000000006
 20
-2.48468
 30
0.0
 10
-4.8385500000000006
 20
-2.48468
 30
0.0
 10
-4.9909500000000007
 20
-2.8301200000000004
 30
0.0
 10
-4.9909500000000007
 20
-2.8301200000000004
 30
0.0
  0
SPLINE
  5
3C
100
AcDbEntity
  8
Ebene 1
 62
     7
100
AcDbSpline
210
0.0
220
0.0
230
1.0
 70
     1
 71
     3
 72
    20
 73
    16
 74
     0
 42
0.0000000001
 43
0.0000000001
 40
0.0
 40
0.0
 40
0.0
 40
0.0
 40
0.25
 40
0.25
 40
0.25
 40
0.25
 40
0.5
 40
0.5
 40
0.5
 40
0.5
 40
0.75
 40
0.75
 40
0.75
 40
0.75
 40
1.0
 40
1.0
 40
1.0
 40
1.0
 10
-2.6693900000000004
 20
-2.7742400000000003
 30
0.0
 10
-2.6693900000000004
 20
-2.7742400000000003
 30
0.0
 10
-2.6439900000000001
 20
-2.77678
 30
0.0
 10
-2.6439900000000001
 20
-2.77678
 30
0.0
 10
-2.6439900000000001
 20
-2.77678
 30
0.0
 10
-2.6617700000000002
 20
-2.8656800000000002
 30
0.0
 10
-2.7151100000000001
 20
-2.9545800000000004
 30
0.0
 10
-2.7760700000000003
 20
-3.0206200000000001
 30
0.0
 10
-2.7760700000000003
 20
-3.0206200000000001
 30
0.0
 10
-2.7684500000000001
 20
-2.9495000000000005
 30
0.0
 10
-2.7684500000000001
 20
-2.8123400000000003
 30
0.0
 10
-2.6693900000000004
 20
-2.8123400000000003
 30
0.0
 10
-2.6693900000000004
 20
-2.8123400000000003
 30
0.0
 10
-2.6693900000000004
 20
-2.8123400000000003
 30
0.0
 10
-2.6693900000000004
 20
-2.7742400000000003
 30
0.0
 10
-2.6693900000000004
 20
-2.7742400000000003
 30
0.0
  0
SPLINE
  5
3D
100
AcDbEntity
  8
Ebene 1
 62
     7
100
AcDbSpline
210
0.0
220
0.0
230
1.0
 70
     1
 71
     3
 72
    20
 73
    16
 74
     0
 42
0.0000000001
 43
0.0000000001
 40
0.0
 40
0.0
 40
0.0
 40
0.0
 40
0.25
 40
0.25
 40
0.25
 40
0.25
 40
0.5
 40
0.5
 40
0.5
 40
0.5
 40
0.75
 40
0.75
 40
0.75
 40
0.75
 40
1.0
 40
1.0
 40
1.0
 40
1.0
 10
-2.8776700000000002
 20
-2.8428200000000001
 30
0.0
 10
-2.8675100000000002
 20
-2.8428200000000001
 30
0.0
 10
-2.8446500000000001
 20
-2.8402800000000004
 30
0.0
 10
-2.8471900000000003
 20
-2.85806
 30
0.0
 10
-2.8471900000000003
 20
-2.85806
 30
0.0
 10
-2.9005300000000003
 20
-2.9850600000000003
 30
0.0
 10
-2.94625
 20
-3.1247600000000002
 30
0.0
 10
-3.0300700000000003
 20
-3.2339800000000003
 30
0.0
 10
-3.0300700000000003
 20
-3.2339800000000003
 30
0.0
 10
-3.0681700000000003
 20
-3.1273000000000004
 30
0.0
 10
-3.1189700000000005
 20
-3.0053800000000002
 30
0.0
 10
-3.1215100000000002
 20
-2.8885400000000003
 30
0.0
 10
-3.1215100000000002
 20
-2.8885400000000003
 30
0.0
 10
-3.0605500000000001
 20
-2.81996
 30
0.0
 10
-2.9411700000000001
 20
-2.8860000000000001
 30
0.0
 10
-2.8776700000000002
 20
-2.8428200000000001
 30
0.0
  0
SPLINE
  5
3E
100
AcDbEntity
  8
Ebene 1
 62
     7
100
AcDbSpline
210
0.0
220
0.0
230
1.0
 70
     1
 71
     3
 72
    24
 73
    20
 74
     0
 42
0.0000000001
 43
0.0000000001
 40
0.0
 40
0.0
 40
0.0
 40
0.0
 40
0.2
 40
0.2
 40
0.2
 40
0.2
 40
0.4
 40
0.4
 40
0.4
 40
0.4
 40
0.6000000000000001
 40
0.6000000000000001
 40
0.6000000000000001
 40
0.6000000000000001
 40
0.8
 40
0.8
 40
0.8
 40
0.8
 40
1.0
 40
1.0
 40
1.0
 40
1.0
 10
-3.4466300000000003
 20
-2.8987000000000003
 30
0.0
 10
-3.4085300000000003
 20
-2.8910800000000001
 30
0.0
 10
-3.3755100000000002
 20
-2.90124
 30
0.0
 10
-3.3501100000000004
 20
-2.9266400000000004
 30
0.0
 10
-3.3501100000000004
 20
-2.9266400000000004
 30
0.0
 10
-3.3221700000000003
 20
-2.9190200000000002
 30
0.0
 10
-3.2993100000000002
 20
-2.8885400000000003
 30
0.0
 10
-3.2688300000000003
 20
-2.90124
 30
0.0
 10
-3.2688300000000003
 20
-2.90124
 30
0.0
 10
-3.2535900000000004
 20
-3.0485600000000002
 30
0.0
 10
-3.3450300000000004
 20
-3.2289000000000003
 30
0.0
 10
-3.4466300000000003
 20
-3.3432000000000004
 30
0.0
 10
-3.4466300000000003
 20
-3.3432000000000004
 30
0.0
 10
-3.5228300000000004
 20
-3.2771600000000003
 30
0.0
 10
-3.5304500000000001
 20
-3.1755600000000004
 30
0.0
 10
-3.5431500000000002
 20
-3.0790400000000004
 30
0.0
 10
-3.5431500000000002
 20
-3.0790400000000004
 30
0.0
 10
-3.5634700000000001
 20
-2.9749000000000003
 30
0.0
 10
-3.5710900000000003
 20
-2.8910800000000001
 30
0.0
 10
-3.4466300000000003
 20
-2.8987000000000003
 30
0.0
  0
SPLINE
  5
3F
100
AcDbEntity
  8
Ebene 1
 62
     7
100
AcDbSpline
210
0.0
220
0.0
230
1.0
 70
     1
 71
     3
 72
    16
 73
    12
 74
     0
 42
0.0000000001
 43
0.0000000001
 40
0.0
 40
0.0
 40
0.0
 40
0.0
 40
0.3333333333333333
 40
0.3333333333333333
 40
0.3333333333333333
 40
0.3333333333333333
 40
0.6666666666666666
 40
0.6666666666666666
 40
0.6666666666666666
 40
0.6666666666666666
 40
1.0
 40
1.0
 40
1.0
 40
1.0
 10
-4.9909500000000007
 20
-2.9139400000000002
 30
0.0
 10
-4.8360100000000008
 20
-2.9164800000000004
 30
0.0
 10
-4.8969700000000005
 20
-3.1501600000000001
 30
0.0
 10
-4.8106100000000005
 20
-3.2466800000000005
 30
0.0
 10
-4.8106100000000005
 20
-3.2466800000000005
 30
0.0
 10
-4.8055300000000001
 20
-3.2619200000000004
 30
0.0
 10
-4.81569
 20
-3.2771600000000003
 30
0.0
 10
-4.82585
 20
-3.2847800000000005
 30
0.0
 10
-4.82585
 20
-3.2847800000000005
 30
0.0
 10
-4.8868100000000005
 20
-3.1730200000000002
 30
0.0
 10
-4.9706300000000008
 20
-3.0460200000000004
 30
0.0
 10
-4.9909500000000007
 20
-2.9139400000000002
 30
0.0
  0
SPLINE
  5
40
100
AcDbEntity
  8
Ebene 1
 62
     7
100
AcDbSpline
210
0.0
220
0.0
230
1.0
 70
     1
 71
     3
 72
    20
 73
    16
 74
     0
 42
0.0000000001
 43
0.0000000001
 40
0.0
 40
0.0
 40
0.0
 40
0.0
 40
0.25
 40
0.25
 40
0.25
 40
0.25
 40
0.5
 40
0.5
 40
0.5
 40
0.5
 40
0.75
 40
0.75
 40
0.75
 40
0.75
 40
1.0
 40
1.0
 40
1.0
 40
1.0
 10
-3.8225500000000001
 20
-2.9139400000000002
 30
0.0
 10
-3.8225500000000001
 20
-2.9139400000000002
 30
0.0
 10
-3.6447500000000002
 20
-2.9291800000000001
 30
0.0
 10
-3.6447500000000002
 20
-2.9291800000000001
 30
0.0
 10
-3.6447500000000002
 20
-2.9291800000000001
 30
0.0
 10
-3.6472900000000004
 20
-3.0917400000000002
 30
0.0
 10
-3.7209500000000002
 20
-3.2670000000000003
 30
0.0
 10
-3.8098500000000004
 20
-3.4092400000000005
 30
0.0
 10
-3.8098500000000004
 20
-3.4092400000000005
 30
0.0
 10
-3.9216100000000003
 20
-3.2974800000000002
 30
0.0
 10
-3.9901900000000001
 20
-3.1450800000000001
 30
0.0
 10
-4.0308299999999999
 20
-2.9952200000000002
 30
0.0
 10
-4.0308299999999999
 20
-2.9952200000000002
 30
0.0
 10
-4.0028900000000007
 20
-2.9139400000000002
 30
0.0
 10
-3.8708100000000005
 20
-2.9774400000000001
 30
0.0
 10
-3.8225500000000001
 20
-2.9139400000000002
 30
0.0
  0
SPLINE
  5
41
100
AcDbEntity
  8
Ebene 1
 62
     7
100
AcDbSpline
210
0.0
220
0.0
230
1.0
 70
     1
 71
     3
 72
    16
 73
    12
 74
     0
 42
0.0000000001
 43
0.0000000001
 40
0.0
 40
0.0
 40
0.0
 40
0.0
 40
0.3333333333333333
 40
0.3333333333333333
 40
0.3333333333333333
 40
0.3333333333333333
 40
0.6666666666666666
 40
0.6666666666666666
 40
0.6666666666666666
 40
0.6666666666666666
 40
1.0
 40
1.0
 40
1.0
 40
1.0
 10
-4.8233100000000002
 20
-2.9266400000000004
 30
0.0
 10
-4.7318700000000007
 20
-2.9342600000000001
 30
0.0
 10
-4.6302700000000003
 20
-2.9495000000000005
 30
0.0
 10
-4.5464500000000001
 20
-2.9291800000000001
 30
0.0
 10
-4.5464500000000001
 20
-2.9291800000000001
 30
0.0
 10
-4.5464500000000001
 20
-2.9291800000000001
 30
0.0
 10
-4.4778700000000002
 20
-3.4371800000000001
 30
0.0
 10
-4.4778700000000002
 20
-3.4371800000000001
 30
0.0
 10
-4.4778700000000002
 20
-3.4371800000000001
 30
0.0
 10
-4.6302700000000003
 20
-3.3152600000000003
 30
0.0
 10
-4.7826700000000004
 20
-3.1222200000000004
 30
0.0
 10
-4.8233100000000002
 20
-2.9266400000000004
 30
0.0
  0
SPLINE
  5
42
100
AcDbEntity
  8
Ebene 1
 62
     7
100
AcDbSpline
210
0.0
220
0.0
230
1.0
 70
     1
 71
     3
 72
    24
 73
    20
 74
     0
 42
0.0000000001
 43
0.0000000001
 40
0.0
 40
0.0
 40
0.0
 40
0.0
 40
0.2
 40
0.2
 40
0.2
 40
0.2
 40
0.4
 40
0.4
 40
0.4
 40
0.4
 40
0.6000000000000001
 40
0.6000000000000001
 40
0.6000000000000001
 40
0.6000000000000001
 40
0.8
 40
0.8
 40
0.8
 40
0.8
 40
1.0
 40
1.0
 40
1.0
 40
1.0
 10
-4.1959300000000006
 20
-2.9418800000000003
 30
0.0
 10
-4.0892500000000007
 20
-2.9622000000000002
 30
0.0
 10
-4.1629100000000001
 20
-3.1349200000000002
 30
0.0
 10
-4.1425900000000002
 20
-3.2187400000000004
 30
0.0
 10
-4.1425900000000002
 20
-3.2187400000000004
 30
0.0
 10
-4.1425900000000002
 20
-3.2187400000000004
 30
0.0
 10
-4.1959300000000006
 20
-3.4702000000000002
 30
0.0
 10
-4.1959300000000006
 20
-3.4702000000000002
 30
0.0
 10
-4.1959300000000006
 20
-3.4702000000000002
 30
0.0
 10
-4.3737300000000001
 20
-3.3482800000000004
 30
0.0
 10
-4.3889700000000005
 20
-3.1323800000000004
 30
0.0
 10
-4.4575500000000003
 20
-2.9571200000000002
 30
0.0
 10
-4.4575500000000003
 20
-2.9571200000000002
 30
0.0
 10
-4.4575500000000003
 20
-2.9571200000000002
 30
0.0
 10
-4.3229300000000004
 20
-2.9698200000000003
 30
0.0
 10
-4.3229300000000004
 20
-2.9698200000000003
 30
0.0
 10
-4.3229300000000004
 20
-2.9698200000000003
 30
0.0
 10
-4.2822900000000006
 20
-2.9596600000000004
 30
0.0
 10
-4.2137100000000007
 20
-2.9901400000000002
 30
0.0
 10
-4.1959300000000006
 20
-2.9418800000000003
 30
0.0
  0
ENDSEC
  0
SECTION
  2
OBJECTS
  0
DICTIONARY
  5
19
100
AcDbDictionary
280
     0
281
     1
  3
ACAD_GROUP
350
1A
  3
ACAD_MLINESTYLE
350
1B
  3
ACAD_LAYOUT
350
1E
  3
ACAD_PLOTSETTINGS
350
22
  3
ACAD_PLOTSTYLENAME
350
1F
  3
ACAD_WIPEOUT_VARS
350
23
  0
DICTIONARY
  5
1A
102
{ACAD_REACTORS
330
19
102
}
100
AcDbDictionary
280
     0
281
     1
  0
DICTIONARY
  5
1B
102
{ACAD_REACTORS
330
19
102
}
100
AcDbDictionary
280
     0
281
     1
  3
Standard
350
1C
  0
MLINESTYLE
  5
1C
102
{ACAD_REACTORS
330
1B
102
}
100
AcDbMlineStyle
  2
Standard
 70
     0
  3

 62
     0
 51
90.0
 52
90.0
 71
     2
 49
0.5
 62
   256
  6
BYLAYER
 49
-0.5
 62
   256
  6
BYLAYER
  0
ACDBDICTIONARYWDFLT
  5
1F
102
{ACAD_REACTORS
330
19
102
}
100
AcDbDictionary
281
     1
  3
Normal
350
1D
100
AcDbDictionaryWithDefault
340
1D
  0
ACDBPLACEHOLDER
  5
1D
102
{ACAD_REACTORS
330
1F
102
}
  0
LAYOUT
  5
20
102
{ACAD_REACTORS
330
1E
102
}
100
AcDbPlotSettings
  1

  2

  4

  6

 40
0.0
 41
0.0
 42
0.0
 43
0.0
 44
0.0
 45
0.0
 46
0.0
 47
0.0
 48
0.0
 49
0.0
140
0.0
141
0.0
142
1.0
143
1.0
 70
  1024
 72
     0
 73
     0
 74
     0
  7

 75
     0
147
1.0
148
0.0
149
0.0
100
AcDbLayout
  1
Model
 70
     0
 71
     0
 10
0.0
 20
0.0
 11
0.0
 21
0.0
 12
0.0
 22
0.0
 32
0.0
 14
0.0
 24
0.0
 34
0.0
 15
0.0
 25
0.0
 35
0.0
146
0.0
 13
0.0
 23
0.0
 33
0.0
 16
0.0
 26
0.0
 36
0.0
 17
0.0
 27
0.0
 37
0.0
 76
     0
330
A
331
0
345
0
346
0
  0
LAYOUT
  5
21
102
{ACAD_REACTORS
330
1E
102
}
100
AcDbPlotSettings
  1

  2

  4

  6

 40
0.0
 41
0.0
 42
0.0
 43
0.0
 44
0.0
 45
0.0
 46
0.0
 47
0.0
 48
0.0
 49
0.0
140
0.0
141
0.0
142
1.0
143
1.0
 70
     0
 72
     0
 73
     0
 74
     0
  7

 75
     0
147
1.0
148
0.0
149
0.0
100
AcDbLayout
  1
Layout1
 70
     0
 71
     0
 10
0.0
 20
0.0
 11
0.0
 21
0.0
 12
0.0
 22
0.0
 32
0.0
 14
0.0
 24
0.0
 34
0.0
 15
0.0
 25
0.0
 35
0.0
146
0.0
 13
0.0
 23
0.0
 33
0.0
 16
0.0
 26
0.0
 36
0.0
 17
0.0
 27
0.0
 37
0.0
 76
     0
330
B
331
0
345
0
346
0
  0
DICTIONARY
  5
1E
102
{ACAD_REACTORS
330
19
102
}
100
AcDbDictionary
280
     0
281
     1
  3
Layout1
350
21
  3
Model
350
20
  0
DICTIONARY
  5
22
102
{ACAD_REACTORS
330
19
102
}
100
AcDbDictionary
280
     0
281
     1
  0
WIPEOUTVARIABLES
  5
23
100
AcDbWipeoutVariables
 70
     1
  0
ENDSEC
  0
EOF
