  0
SECTION
  2
HEADER
  9
$ACADVER
  1
AC1015
  9
$ACADMAINTVER
 70
     6
  9
$DWGCODEPAGE
  3
DOS850
  9
$INSBASE
 10
0.0
 20
0.0
 30
0.0
  9
$EXTMIN
 10
-5.01635
 20
-6.14482
 30
1.000000E+20
  9
$EXTMAX
 10
5.02121
 20
6.13861
 30
-1.000000E+20
  9
$LIMMIN
 10
0.0
 20
0.0
  9
$LIMMAX
 10
0.0
 20
0.0
  9
$ORTHOMODE
 70
     0
  9
$REGENMODE
 70
     1
  9
$FILLMODE
 70
     1
  9
$QTEXTMODE
 70
     0
  9
$MIRRTEXT
 70
     1
  9
$LTSCALE
 40
1.0
  9
$ATTMODE
 70
     1
  9
$TEXTSIZE
 40
0.2
  9
$TRACEWID
 40
0.05
  9
$TEXTSTYLE
  7
Standard
  9
$CLAYER
  8
0
  9
$CELTYPE
  6
Continuous
  9
$CECOLOR
 62
   256
  9
$CELTSCALE
 40
1.0
  9
$DISPSILH
 70
     0
  9
$DIMSCALE
 40
1.0
  9
$DIMASZ
 40
0.18
  9
$DIMEXO
 40
0.0625
  9
$DIMDLI
 40
0.38
  9
$DIMRND
 40
0.0
  9
$DIMDLE
 40
0.0
  9
$DIMEXE
 40
0.18
  9
$DIMTP
 40
0.0
  9
$DIMTM
 40
0.0
  9
$DIMTXT
 40
0.18
  9
$DIMCEN
 40
0.09
  9
$DIMTSZ
 40
0.0
  9
$DIMTOL
 70
     0
  9
$DIMLIM
 70
     0
  9
$DIMTIH
 70
     1
  9
$DIMTOH
 70
     1
  9
$DIMSE1
 70
     0
  9
$DIMSE2
 70
     0
  9
$DIMTAD
 70
     0
  9
$DIMZIN
 70
     0
  9
$DIMBLK
  1

  9
$DIMASO
 70
     1
  9
$DIMSHO
 70
     1
  9
$DIMPOST
  1

  9
$DIMAPOST
  1

  9
$DIMALT
 70
     0
  9
$DIMALTD
 70
     2
  9
$DIMALTF
 40
25.4
  9
$DIMLFAC
 40
1.0
  9
$DIMTOFL
 70
     0
  9
$DIMTVP
 40
0.0
  9
$DIMTIX
 70
     0
  9
$DIMSOXD
 70
     0
  9
$DIMSAH
 70
     0
  9
$DIMBLK1
  1

  9
$DIMBLK2
  1

  9
$DIMSTYLE
  2
Standard
  9
$DIMCLRD
 70
     0
  9
$DIMCLRE
 70
     0
  9
$DIMCLRT
 70
     0
  9
$DIMTFAC
 40
1.0
  9
$DIMGAP
 40
0.09
  9
$DIMJUST
 70
     0
  9
$DIMSD1
 70
     0
  9
$DIMSD2
 70
     0
  9
$DIMTOLJ
 70
     1
  9
$DIMTZIN
 70
     0
  9
$DIMALTZ
 70
     0
  9
$DIMALTTZ
 70
     0
  9
$DIMUPT
 70
     0
  9
$DIMDEC
 70
     4
  9
$DIMTDEC
 70
     4
  9
$DIMALTU
 70
     2
  9
$DIMALTTD
 70
     2
  9
$DIMTXSTY
  7
Standard
  9
$DIMAUNIT
 70
     0
  9
$DIMADEC
 70
     0
  9
$DIMALTRND
 40
0.0
  9
$DIMAZIN
 70
     0
  9
$DIMDSEP
 70
     0
  9
$DIMATFIT
 70
     3
  9
$DIMFRAC
 70
     0
  9
$DIMLDRBLK
  1

  9
$DIMLUNIT
 70
     2
  9
$DIMLWD
 70
     0
  9
$DIMLWE
 70
     0
  9
$DIMTMOVE
 70
     0
  9
$LUNITS
 70
     2
  9
$LUPREC
 70
     4
  9
$SKETCHINC
 40
0.1
  9
$FILLETRAD
 40
0.0
  9
$AUNITS
 70
     0
  9
$AUPREC
 70
     0
  9
$MENU
  1
acad
  9
$ELEVATION
 40
0.0
  9
$PELEVATION
 40
0.0
  9
$THICKNESS
 40
0.0
  9
$LIMCHECK
 70
     0
  9
$CHAMFERA
 40
0.0
  9
$CHAMFERB
 40
0.0
  9
$CHAMFERC
 40
0.0
  9
$CHAMFERD
 40
0.0
  9
$SKPOLY
 70
     0
  9
$TDCREATE
 40
0.000000000
  9
$TDUCREATE
 40
0.000000000
  9
$TDUPDATE
 40
0.000000000
  9
$TDUUPDATE
 40
0.000000000
  9
$TDINDWG
 40
0.0000000000
  9
$TDUSRTIMER
 40
0.0000000000
  9
$USRTIMER
 70
     1
  9
$ANGBASE
 50
0.0
  9
$ANGDIR
 70
     0
  9
$PDMODE
 70
     0
  9
$PDSIZE
 40
0.0
  9
$PLINEWID
 40
0.0
  9
$SPLFRAME
 70
     0
  9
$SPLINETYPE
 70
     6
  9
$SPLINESEGS
 70
     8
  9
$HANDSEED
  5
39
  9
$SURFTAB1
 70
     6
  9
$SURFTAB2
 70
     6
  9
$SURFTYPE
 70
     6
  9
$SURFU
 70
     6
  9
$SURFV
 70
     6
  9
$UCSBASE
  2

  9
$UCSNAME
  2

  9
$UCSORG
 10
0.0
 20
0.0
 30
0.0
  9
$UCSXDIR
 10
1.0
 20
0.0
 30
0.0
  9
$UCSYDIR
 10
0.0
 20
1.0
 30
0.0
  9
$UCSORTHOREF
  2

  9
$UCSORTHOVIEW
 70
     0
  9
$UCSORGTOP
 10
0.0
 20
0.0
 30
0.0
  9
$UCSORGBOTTOM
 10
0.0
 20
0.0
 30
0.0
  9
$UCSORGLEFT
 10
0.0
 20
0.0
 30
0.0
  9
$UCSORGRIGHT
 10
0.0
 20
0.0
 30
0.0
  9
$UCSORGFRONT
 10
0.0
 20
0.0
 30
0.0
  9
$UCSORGBACK
 10
0.0
 20
0.0
 30
0.0
  9
$PUCSBASE
  2

  9
$PUCSNAME
  2

  9
$PUCSORG
 10
0.0
 20
0.0
 30
0.0
  9
$PUCSXDIR
 10
1.0
 20
0.0
 30
0.0
  9
$PUCSYDIR
 10
0.0
 20
1.0
 30
0.0
  9
$PUCSORTHOREF
  2

  9
$PUCSORTHOVIEW
 70
     0
  9
$PUCSORGTOP
 10
0.0
 20
0.0
 30
0.0
  9
$PUCSORGBOTTOM
 10
0.0
 20
0.0
 30
0.0
  9
$PUCSORGLEFT
 10
0.0
 20
0.0
 30
0.0
  9
$PUCSORGRIGHT
 10
0.0
 20
0.0
 30
0.0
  9
$PUCSORGFRONT
 10
0.0
 20
0.0
 30
0.0
  9
$PUCSORGBACK
 10
0.0
 20
0.0
 30
0.0
  9
$USERI1
 70
     0
  9
$USERI2
 70
     0
  9
$USERI3
 70
     0
  9
$USERI4
 70
     0
  9
$USERI5
 70
     0
  9
$USERR1
 40
0.0
  9
$USERR2
 40
0.0
  9
$USERR3
 40
0.0
  9
$USERR4
 40
0.0
  9
$USERR5
 40
0.0
  9
$WORLDVIEW
 70
     1
  9
$SHADEDGE
 70
     3
  9
$SHADEDIF
 70
    70
  9
$TILEMODE
 70
     1
  9
$MAXACTVP
 70
    16
  9
$PINSBASE
 10
0.0
 20
0.0
 30
0.0
  9
$PLIMCHECK
 70
     0
  9
$PEXTMIN
 10
1.000000E+20
 20
1.000000E+20
 30
1.000000E+20
  9
$PEXTMAX
 10
-1.000000E+20
 20
-1.000000E+20
 30
-1.000000E+20
  9
$PLIMMIN
 10
0.0
 20
0.0
  9
$PLIMMAX
 10
12.0
 20
9.0
  9
$UNITMODE
 70
     0
  9
$VISRETAIN
 70
     0
  9
$PLINEGEN
 70
     1
  9
$PSLTSCALE
 70
     0
  9
$TREEDEPTH
 70
  3020
  9
$CMLSTYLE
  2
Standard
  9
$CMLJUST
 70
     0
  9
$CMLSCALE
 40
1.0
  9
$PROXYGRAPHICS
 70
     0
  9
$MEASUREMENT
 70
     0
  9
$CELWEIGHT
370
     0
  9
$ENDCAPS
280
     0
  9
$JOINSTYLE
280
     0
  9
$LWDISPLAY
290
     0
  9
$INSUNITS
 70
     5
  9
$HYPERLINKBASE
  1

  9
$XEDIT
290
     1
  9
$CEPSNTYPE
380
     0
  9
$PSTYLEMODE
290
     1
  9
$FINGERPRINTGUID
  2

  9
$VERSIONGUID
  2

  9
$EXTNAMES
290
     1
  9
$PSVPSCALE
 40
0.0
  0
ENDSEC
  0
SECTION
  2
CLASSES
  0
CLASS
  1
LWPOLYLINE
  2
AcDbPolyline
  3
AutoCAD 2000
 90
    32768
280
     0
281
     1
  0
CLASS
  1
IMAGE
  2
AcDbRasterImage
  3
ISM
 90
    32895
280
     0
281
     1
  0
CLASS
  1
OLE2FRAME
  2
AcDbOle2Frame
  3
AutoCAD 2000
 90
    32768
280
     0
281
     1
  0
CLASS
  1
HATCH
  2
AcDbHatch
  3
AutoCAD 2000
 90
    32768
280
     0
281
     1
  0
CLASS
  1
DICTIONARYVAR
  2
AcDbDictionaryVar
  3
AutoCAD 2000
 90
    32768
280
     0
281
     0
  0
CLASS
  1
RASTERVARIABLES
  2
AcDbRasterVariables
  3
ISM
 90
    32768
280
     0
281
     0
  0
CLASS
  1
IMAGEDEF
  2
AcDbRasterImageDef
  3
ISM
 90
    32768
280
     0
281
     0
  0
CLASS
  1
IMAGEDEF_REACTOR
  2
AcDbRasterImageDefReactor
  3
ISM
 90
    32769
280
     0
281
     0
  0
CLASS
  1
IDBUFFER
  2
AcDbIdBuffer
  3
AutoCAD 2000
 90
    32768
280
     0
281
     0
  0
CLASS
  1
SPATIAL_FILTER
  2
AcDbSpatialFilter
  3
AutoCAD 2000
 90
    32768
280
     0
281
     0
  0
CLASS
  1
XRECORD
  2
AcDbXrecord
  3
AutoCAD 2000
 90
    32768
280
     0
281
     0
  0
CLASS
  1
SORTENTSTABLE
  2
AcDbSortentsTable
  3
AutoCAD 2000
 90
    32768
280
     0
281
     0
  0
CLASS
  1
LAYER_INDEX
  2
AcDbLayerIndex
  3
AutoCAD 2000
 90
    32768
280
     0
281
     0
  0
CLASS
  1
SPATIAL_INDEX
  2
AcDbSpatialIndex
  3
AutoCAD 2000
 90
    32768
280
     0
281
     0
  0
CLASS
  1
OBJECT_PTR
  2
CAseDLPNTableRecord
  3
"ASE-LPNTableRecord"
 90
    32769
280
     0
281
     0
  0
CLASS
  1
LAYOUT
  2
AcDbLayout
  3
AutoCAD 2000
 90
        0
280
     0
281
     0
  0
CLASS
  1
PLOTSETTINGS
  2
AcDbPlotSettings
  3
AutoCAD 2000
 90
    32768
280
     0
281
     0
  0
CLASS
  1
ACDBDICTIONARYWDFLT
  2
AcDbDictionaryWithDefault
  3
AutoCAD 2000
 90
        0
280
     0
281
     0
  0
CLASS
  1
ACDBPLACEHOLDER
  2
AcDbPlaceHolder
  3
AutoCAD 2000
 90
        0
280
     0
281
     0
  0
CLASS
  1
VBA_PROJECT
  2
AcDbVbaProject
  3
acadvba
 90
    32768
280
     0
281
     0
  0
CLASS
  1
WIPEOUT
  2
AcDbWipeout
  3
WipeOut|AutoCAD Express Tool|expresstools@autodesk.com
 90
    32895
280
     0
281
     1
  0
CLASS
  1
WIPEOUTVARIABLES
  2
AcDbWipeoutVariables
  3
WipeOut|AutoCAD Express Tool|expresstools@autodesk.com
 90
        0
280
     0
281
     0
  0
CLASS
  1
RTEXT
  2
RText
  3
RText|AutoCAD Express Tool|expresstools@autodesk.com
 90
    32768
280
     0
281
     1
  0
CLASS
  1
ARCALIGNEDTEXT
  2
AcDbArcAlignedText
  3
ATEXT|AutoCAD Express Tool|expresstools@autodesk.com
 90
    32768
280
     0
281
     1
  0
ENDSEC
  0
SECTION
  2
TABLES
  0
TABLE
  2
VPORT
  5
7
100
AcDbSymbolTable
 70
     1
  0
VPORT
  5
15
100
AcDbSymbolTableRecord
100
AcDbViewportTableRecord
  2
*ACTIVE
 70
     0
 10
0.0
 20
0.0
 11
1.0
 21
1.0
 12
6.591288
 22
4.579184
 13
0.0
 23
0.0
 14
1.0
 24
1.0
 15
0.0
 25
0.0
 16
0.0
 26
0.0
 36
1.0
 17
0.0
 27
0.0
 37
0.0
 40
9.158369
 41
0.688564
 42
50.0
 43
0.0
 44
0.0
 50
0.0
 51
0.0
 71
     0
 72
   100
 73
     1
 74
     1
 75
     0
 76
     0
 77
     0
 78
     0
281
     0
 65
     0
110
0.0
120
0.0
130
0.0
111
1.0
121
0.0
131
0.0
112
0.0
122
1.0
132
0.0
345
0
346
0
 79
     0
146
0.0
  0
ENDTAB
  0
TABLE
  2
LTYPE
  5
4
100
AcDbSymbolTable
 70
     3
  0
LTYPE
  5
11
100
AcDbSymbolTableRecord
100
AcDbLinetypeTableRecord
  2
ByBlock
 70
    64
  3

 72
    65
 73
     0
 40
0.0
  0
LTYPE
  5
12
100
AcDbSymbolTableRecord
100
AcDbLinetypeTableRecord
  2
ByLayer
 70
    64
  3

 72
    65
 73
     0
 40
0.0
  0
LTYPE
  5
13
100
AcDbSymbolTableRecord
100
AcDbLinetypeTableRecord
  2
Continuous
 70
    64
  3
Solid line
 72
    65
 73
     0
 40
0.0
  0
ENDTAB
  0
TABLE
  2
LAYER
  5
2
100
AcDbSymbolTable
 70
     2
  0
LAYER
  5
14
100
AcDbSymbolTableRecord
100
AcDbLayerTableRecord
  2
0
 70
     0
 62
     7
  6
Continuous
290
     1
370
    -3
390
1D
  0
LAYER
  5
24
100
AcDbSymbolTableRecord
100
AcDbLayerTableRecord
  2
Ebene 1
 70
     0
 62
     7
  6
Continuous
290
     1
370
    -3
390
1F
  0
ENDTAB
  0
TABLE
  2
STYLE
  5
3
100
AcDbSymbolTable
 70
     1
  0
STYLE
  5
17
100
AcDbSymbolTableRecord
100
AcDbTextStyleTableRecord
  2
Standard
 70
     0
 40
0.0
 41
1.0
 50
0.0
 71
     0
 42
0.0
  3
txt
  4

  0
ENDTAB
  0
TABLE
  2
VIEW
  5
5
100
AcDbSymbolTable
 70
     0
  0
ENDTAB
  0
TABLE
  2
UCS
  5
6
100
AcDbSymbolTable
 70
     0
  0
ENDTAB
  0
TABLE
  2
APPID
  5
8
100
AcDbSymbolTable
 70
     1
  0
APPID
  5
16
100
AcDbSymbolTableRecord
100
AcDbRegAppTableRecord
  2
ACAD
 70
     0
  0
ENDTAB
  0
TABLE
  2
DIMSTYLE
  5
9
100
AcDbSymbolTable
 70
     1
100
AcDbDimStyleTable
 71
     0
  0
DIMSTYLE
105
18
100
AcDbSymbolTableRecord
100
AcDbDimStyleTableRecord
  2
Standard
 70
     0
  3

  4

 40
1.0
 41
0.18
 42
0.0625
 43
0.38
 44
0.18
 45
0.0
 46
0.0
 47
0.0
 48
0.0
 71
     0
 72
     0
 73
     1
 74
     1
 75
     0
 76
     0
 77
     0
 78
     0
 79
     0
140
0.18
141
0.09
142
0.0
143
25.4
144
1.0
145
0.0
146
1.0
147
0.09
148
0.0
170
     0
171
     2
172
     0
173
     0
174
     0
175
     0
176
     0
177
     0
178
     0
179
     0
271
     4
272
     4
273
     2
274
     2
275
     0
276
     0
277
     2
278
    46
279
     0
280
     0
281
     0
282
     0
283
     1
284
     0
285
     0
286
     0
288
     0
340
17
341
0
342
0
343
0
344
0
371
    -2
372
    -2
  0
ENDTAB
  0
TABLE
  2
BLOCK_RECORD
  5
1
100
AcDbSymbolTable
 70
     0
  0
BLOCK_RECORD
  5
A
100
AcDbSymbolTableRecord
100
AcDbBlockTableRecord
  2
*MODEL_SPACE
340
20
  0
BLOCK_RECORD
  5
B
100
AcDbSymbolTableRecord
100
AcDbBlockTableRecord
  2
*PAPER_SPACE
340
21
  0
ENDTAB
  0
ENDSEC
  0
SECTION
  2
BLOCKS
  0
BLOCK
  5
D
100
AcDbEntity
  8
0
100
AcDbBlockBegin
  2
*MODEL_SPACE
 70
     0
 10
0.0
 20
0.0
 30
0.0
  3
*MODEL_SPACE
  1

  0
ENDBLK
  5
E
100
AcDbEntity
  8
0
100
AcDbBlockEnd
  0
BLOCK
  5
F
100
AcDbEntity
 67
     1
  8
0
100
AcDbBlockBegin
  2
*PAPER_SPACE
 70
     0
 10
0.0
 20
0.0
 30
0.0
  3
*PAPER_SPACE
  1

  0
ENDBLK
  5
10
100
AcDbEntity
 67
     1
  8
0
100
AcDbBlockEnd
  0
ENDSEC
  0
SECTION
  2
ENTITIES
  0
SPLINE
  5
25
100
AcDbEntity
  8
Ebene 1
100
AcDbSpline
210
0.0
220
0.0
230
1.0
 70
     1
 71
     3
 72
   108
 73
   104
 74
     0
 42
0.0000000001
 43
0.0000000001
 40
0.0
 40
0.0
 40
0.0
 40
0.0
 40
0.0384615384615385
 40
0.0384615384615385
 40
0.0384615384615385
 40
0.0384615384615385
 40
0.0769230769230769
 40
0.0769230769230769
 40
0.0769230769230769
 40
0.0769230769230769
 40
0.1153846153846154
 40
0.1153846153846154
 40
0.1153846153846154
 40
0.1153846153846154
 40
0.1538461538461539
 40
0.1538461538461539
 40
0.1538461538461539
 40
0.1538461538461539
 40
0.1923076923076923
 40
0.1923076923076923
 40
0.1923076923076923
 40
0.1923076923076923
 40
0.2307692307692308
 40
0.2307692307692308
 40
0.2307692307692308
 40
0.2307692307692308
 40
0.2692307692307693
 40
0.2692307692307693
 40
0.2692307692307693
 40
0.2692307692307693
 40
0.3076923076923077
 40
0.3076923076923077
 40
0.3076923076923077
 40
0.3076923076923077
 40
0.3461538461538462
 40
0.3461538461538462
 40
0.3461538461538462
 40
0.3461538461538462
 40
0.3846153846153846
 40
0.3846153846153846
 40
0.3846153846153846
 40
0.3846153846153846
 40
0.423076923076923
 40
0.423076923076923
 40
0.423076923076923
 40
0.423076923076923
 40
0.4615384615384615
 40
0.4615384615384615
 40
0.4615384615384615
 40
0.4615384615384615
 40
0.4999999999999999
 40
0.4999999999999999
 40
0.4999999999999999
 40
0.4999999999999999
 40
0.5384615384615383
 40
0.5384615384615383
 40
0.5384615384615383
 40
0.5384615384615383
 40
0.5769230769230768
 40
0.5769230769230768
 40
0.5769230769230768
 40
0.5769230769230768
 40
0.6153846153846152
 40
0.6153846153846152
 40
0.6153846153846152
 40
0.6153846153846152
 40
0.6538461538461536
 40
0.6538461538461536
 40
0.6538461538461536
 40
0.6538461538461536
 40
0.6923076923076921
 40
0.6923076923076921
 40
0.6923076923076921
 40
0.6923076923076921
 40
0.7307692307692305
 40
0.7307692307692305
 40
0.7307692307692305
 40
0.7307692307692305
 40
0.7692307692307689
 40
0.7692307692307689
 40
0.7692307692307689
 40
0.7692307692307689
 40
0.8076923076923074
 40
0.8076923076923074
 40
0.8076923076923074
 40
0.8076923076923074
 40
0.8461538461538458
 40
0.8461538461538458
 40
0.8461538461538458
 40
0.8461538461538458
 40
0.8846153846153843
 40
0.8846153846153843
 40
0.8846153846153843
 40
0.8846153846153843
 40
0.9230769230769227
 40
0.9230769230769227
 40
0.9230769230769227
 40
0.9230769230769227
 40
0.9615384615384611
 40
0.9615384615384611
 40
0.9615384615384611
 40
0.9615384615384611
 40
1.0
 40
1.0
 40
1.0
 40
1.0
 10
-4.1629100000000001
 20
6.1386100000000008
 30
0.0
 10
-2.64907
 20
5.7601500000000003
 30
0.0
 10
-1.50099
 20
4.6146100000000008
 30
0.0
 10
-0.08621
 20
4.0431100000000004
 30
0.0
 10
-0.08621
 20
4.0431100000000004
 30
0.0
 10
0.2516000000000001
 20
3.9135700000000004
 30
0.0
 10
0.6300600000000001
 20
3.8221300000000005
 30
0.0
 10
0.9602600000000001
 20
3.9973900000000002
 30
0.0
 10
0.9602600000000001
 20
3.9973900000000002
 30
0.0
 10
1.0059800000000001
 20
4.7289099999999999
 30
0.0
 10
0.6732400000000001
 20
5.38931
 30
0.0
 10
0.4294000000000001
 20
6.0370100000000004
 30
0.0
 10
0.4294000000000001
 20
6.0370100000000004
 30
0.0
 10
1.32094
 20
5.5594900000000003
 30
0.0
 10
1.8645
 20
4.5765100000000007
 30
0.0
 10
2.7154000000000003
 20
4.07613
 30
0.0
 10
2.7154000000000003
 20
4.07613
 30
0.0
 10
3.1954600000000002
 20
3.2506300000000001
 30
0.0
 10
3.3351600000000001
 20
2.2651100000000004
 30
0.0
 10
3.4748600000000005
 20
1.2973700000000001
 30
0.0
 10
3.4748600000000005
 20
1.2973700000000001
 30
0.0
 10
3.7644200000000003
 20
0.76397
 30
0.0
 10
4.1936800000000005
 20
0.27629
 30
0.0
 10
4.3029000000000002
 20
-0.32822
 30
0.0
 10
4.3029000000000002
 20
-0.32822
 30
0.0
 10
4.3765600000000004
 20
-0.5746
 30
0.0
 10
4.1505000000000001
 20
-0.74224
 30
0.0
 10
4.1276400000000004
 20
-0.9606800000000001
 30
0.0
 10
4.1276400000000004
 20
-0.9606800000000001
 30
0.0
 10
4.1860600000000003
 20
-1.1740400000000002
 30
0.0
 10
4.2419400000000005
 20
-1.3874000000000002
 30
0.0
 10
4.3206800000000003
 20
-1.5956800000000002
 30
0.0
 10
4.3206800000000003
 20
-1.5956800000000002
 30
0.0
 10
4.49594
 20
-1.6541000000000001
 30
0.0
 10
4.6661200000000003
 20
-1.7455400000000001
 30
0.0
 10
4.7778800000000006
 20
-1.8979400000000002
 30
0.0
 10
4.7778800000000006
 20
-1.8979400000000002
 30
0.0
 10
5.2325400000000002
 20
-3.3076400000000001
 30
0.0
 10
5.0141
 20
-4.7630600000000003
 30
0.0
 10
4.4222800000000007
 20
-6.1448200000000002
 30
0.0
 10
4.4222800000000007
 20
-6.1448200000000002
 30
0.0
 10
4.0209600000000005
 20
-5.6596800000000007
 30
0.0
 10
3.8126800000000003
 20
-5.0069000000000008
 30
0.0
 10
3.4824800000000002
 20
-4.4735000000000005
 30
0.0
 10
3.4824800000000002
 20
-4.4735000000000005
 30
0.0
 10
3.4570800000000004
 20
-4.6589200000000002
 30
0.0
 10
3.2919800000000001
 20
-4.6741600000000005
 30
0.0
 10
3.1853000000000002
 20
-4.5039800000000003
 30
0.0
 10
3.1853000000000002
 20
-4.5039800000000003
 30
0.0
 10
3.1599000000000004
 20
-5.0145200000000001
 30
0.0
 10
2.6646000000000001
 20
-4.4455600000000004
 30
0.0
 10
2.7077800000000001
 20
-4.1687000000000003
 30
0.0
 10
2.7077800000000001
 20
-4.1687000000000003
 30
0.0
 10
2.3928200000000004
 20
-4.8697400000000002
 30
0.0
 10
2.0169000000000001
 20
-3.9426400000000004
 30
0.0
 10
1.7095600000000002
 20
-3.6276800000000002
 30
0.0
 10
1.7095600000000002
 20
-3.6276800000000002
 30
0.0
 10
1.4123800000000002
 20
-3.7292800000000002
 30
0.0
 10
1.06948
 20
-4.34396
 30
0.0
 10
1.0567800000000001
 20
-3.6353000000000004
 30
0.0
 10
1.0567800000000001
 20
-3.6353000000000004
 30
0.0
 10
0.8104000000000001
 20
-3.9147000000000003
 30
0.0
 10
0.6275200000000001
 20
-3.5870400000000005
 30
0.0
 10
0.7545200000000001
 20
-3.3203400000000003
 30
0.0
 10
0.7545200000000001
 20
-3.3203400000000003
 30
0.0
 10
0.0992
 20
-3.0206200000000001
 30
0.0
 10
1.0644
 20
-2.4008600000000002
 30
0.0
 10
0.59196
 20
-1.9919200000000001
 30
0.0
 10
0.59196
 20
-1.9919200000000001
 30
0.0
 10
-0.05827
 20
-1.8547600000000002
 30
0.0
 10
-0.8837700000000001
 20
-2.3348200000000001
 30
0.0
 10
-1.4146300000000001
 20
-1.71252
 30
0.0
 10
-1.4146300000000001
 20
-1.71252
 30
0.0
 10
-1.5416300000000001
 20
-1.7607800000000002
 30
0.0
 10
-1.6940300000000001
 20
-1.7938000000000001
 30
0.0
 10
-1.8210300000000001
 20
-1.7150600000000003
 30
0.0
 10
-1.8210300000000001
 20
-1.7150600000000003
 30
0.0
 10
-2.5373100000000002
 20
-0.53142
 30
0.0
 10
-3.1443700000000003
 20
0.7715900000000001
 30
0.0
 10
-4.3534100000000002
 20
1.6885300000000001
 30
0.0
 10
-4.3534100000000002
 20
1.6885300000000001
 30
0.0
 10
-3.9089100000000001
 20
1.6428100000000001
 30
0.0
 10
-3.4440900000000001
 20
1.3786500000000002
 30
0.0
 10
-3.0148300000000003
 20
1.1627500000000002
 30
0.0
 10
-3.0148300000000003
 20
1.1627500000000002
 30
0.0
 10
-3.0859500000000004
 20
1.4294500000000001
 30
0.0
 10
-3.0630900000000003
 20
1.7240900000000001
 30
0.0
 10
-3.2535900000000004
 20
1.9577700000000002
 30
0.0
 10
-3.2535900000000004
 20
1.9577700000000002
 30
0.0
 10
-3.7412700000000001
 20
2.6740500000000003
 30
0.0
 10
-4.4677100000000003
 20
3.2404700000000002
 30
0.0
 10
-5.0163500000000001
 20
3.9135700000000004
 30
0.0
 10
-5.0163500000000001
 20
3.9135700000000004
 30
0.0
 10
-4.2441900000000006
 20
3.7713300000000003
 30
0.0
 10
-3.5482300000000002
 20
3.1845900000000005
 30
0.0
 10
-2.8344900000000002
 20
2.8518500000000002
 30
0.0
 10
-2.8344900000000002
 20
2.8518500000000002
 30
0.0
 10
-2.9767300000000003
 20
3.1668100000000003
 30
0.0
 10
-2.9538700000000002
 20
3.4766900000000005
 30
0.0
 10
-2.9208500000000002
 20
3.8068900000000001
 30
0.0
 10
-2.9208500000000002
 20
3.8068900000000001
 30
0.0
 10
-3.1672300000000004
 20
4.6552500000000006
 30
0.0
 10
-3.7641300000000002
 20
5.4147100000000004
 30
0.0
 10
-4.1629100000000001
 20
6.1386100000000008
 30
0.0
  0
SPLINE
  5
26
100
AcDbEntity
  8
Ebene 1
 62
     7
100
AcDbSpline
210
0.0
220
0.0
230
1.0
 70
     1
 71
     3
 72
    60
 73
    56
 74
     0
 42
0.0000000001
 43
0.0000000001
 40
0.0
 40
0.0
 40
0.0
 40
0.0
 40
0.0714285714285714
 40
0.0714285714285714
 40
0.0714285714285714
 40
0.0714285714285714
 40
0.1428571428571429
 40
0.1428571428571429
 40
0.1428571428571429
 40
0.1428571428571429
 40
0.2142857142857143
 40
0.2142857142857143
 40
0.2142857142857143
 40
0.2142857142857143
 40
0.2857142857142857
 40
0.2857142857142857
 40
0.2857142857142857
 40
0.2857142857142857
 40
0.3571428571428571
 40
0.3571428571428571
 40
0.3571428571428571
 40
0.3571428571428571
 40
0.4285714285714285
 40
0.4285714285714285
 40
0.4285714285714285
 40
0.4285714285714285
 40
0.4999999999999999
 40
0.4999999999999999
 40
0.4999999999999999
 40
0.4999999999999999
 40
0.5714285714285713
 40
0.5714285714285713
 40
0.5714285714285713
 40
0.5714285714285713
 40
0.6428571428571427
 40
0.6428571428571427
 40
0.6428571428571427
 40
0.6428571428571427
 40
0.7142857142857141
 40
0.7142857142857141
 40
0.7142857142857141
 40
0.7142857142857141
 40
0.7857142857142855
 40
0.7857142857142855
 40
0.7857142857142855
 40
0.7857142857142855
 40
0.8571428571428569
 40
0.8571428571428569
 40
0.8571428571428569
 40
0.8571428571428569
 40
0.9285714285714283
 40
0.9285714285714283
 40
0.9285714285714283
 40
0.9285714285714283
 40
1.0
 40
1.0
 40
1.0
 40
1.0
 10
-3.4542500000000005
 20
5.2089700000000008
 30
0.0
 10
-3.4542500000000005
 20
5.2089700000000008
 30
0.0
 10
-2.8014700000000001
 20
4.4012500000000001
 30
0.0
 10
-2.8014700000000001
 20
4.4012500000000001
 30
0.0
 10
-2.8014700000000001
 20
4.4012500000000001
 30
0.0
 10
-2.8268700000000004
 20
4.6527100000000008
 30
0.0
 10
-3.1062700000000003
 20
4.84321
 30
0.0
 10
-3.2281900000000001
 20
5.0845100000000008
 30
0.0
 10
-3.2281900000000001
 20
5.0845100000000008
 30
0.0
 10
-3.2281900000000001
 20
5.0845100000000008
 30
0.0
 10
-3.6015700000000002
 20
5.5772700000000004
 30
0.0
 10
-3.6015700000000002
 20
5.5772700000000004
 30
0.0
 10
-3.6015700000000002
 20
5.5772700000000004
 30
0.0
 10
-3.6015700000000002
 20
5.5772700000000004
 30
0.0
 10
-3.8200100000000003
 20
5.8465100000000003
 30
0.0
 10
-3.8200100000000003
 20
5.8465100000000003
 30
0.0
 10
-3.8200100000000003
 20
5.8465100000000003
 30
0.0
 10
-3.1545300000000003
 20
5.7652300000000007
 30
0.0
 10
-2.5779500000000004
 20
5.3486700000000003
 30
0.0
 10
-2.0826500000000001
 20
4.8863900000000005
 30
0.0
 10
-2.0826500000000001
 20
4.8863900000000005
 30
0.0
 10
-2.0826500000000001
 20
4.8863900000000005
 30
0.0
 10
-2.1918700000000002
 20
5.0591100000000004
 30
0.0
 10
-2.1918700000000002
 20
5.0591100000000004
 30
0.0
 10
-2.1918700000000002
 20
5.0591100000000004
 30
0.0
 10
-2.4458700000000002
 20
5.2877100000000006
 30
0.0
 10
-2.2045700000000004
 20
5.1835700000000005
 30
0.0
 10
-2.0521700000000003
 20
5.0337100000000001
 30
0.0
 10
-2.0521700000000003
 20
5.0337100000000001
 30
0.0
 10
-1.9099300000000001
 20
4.9219500000000007
 30
0.0
 10
-1.7626100000000002
 20
4.7898700000000005
 30
0.0
 10
-1.6584700000000001
 20
4.6196900000000003
 30
0.0
 10
-1.6584700000000001
 20
4.6196900000000003
 30
0.0
 10
-1.7194300000000002
 20
4.6120700000000001
 30
0.0
 10
-1.7676900000000002
 20
4.5714300000000003
 30
0.0
 10
-1.8184900000000002
 20
4.6222300000000001
 30
0.0
 10
-1.8184900000000002
 20
4.6222300000000001
 30
0.0
 10
-2.0851900000000003
 20
4.3428300000000002
 30
0.0
 10
-2.2858500000000004
 20
4.79495
 30
0.0
 10
-2.4890500000000002
 20
4.9575100000000001
 30
0.0
 10
-2.4890500000000002
 20
4.9575100000000001
 30
0.0
 10
-2.4890500000000002
 20
4.9575100000000001
 30
0.0
 10
-2.8573500000000003
 20
5.26485
 30
0.0
 10
-2.8573500000000003
 20
5.26485
 30
0.0
 10
-2.8573500000000003
 20
5.26485
 30
0.0
 10
-2.6592300000000004
 20
4.9956100000000001
 30
0.0
 10
-2.4331700000000001
 20
4.7441500000000003
 30
0.0
 10
-2.1918700000000002
 20
4.4952300000000003
 30
0.0
 10
-2.1918700000000002
 20
4.4952300000000003
 30
0.0
 10
-2.1918700000000002
 20
4.4952300000000003
 30
0.0
 10
-2.7913100000000002
 20
3.9643700000000002
 30
0.0
 10
-2.7913100000000002
 20
3.9643700000000002
 30
0.0
 10
-2.7913100000000002
 20
3.9643700000000002
 30
0.0
 10
-2.7913100000000002
 20
3.9643700000000002
 30
0.0
 10
-3.4542500000000005
 20
5.2089700000000008
 30
0.0
 10
-3.4542500000000005
 20
5.2089700000000008
 30
0.0
  0
SPLINE
  5
27
100
AcDbEntity
  8
Ebene 1
 62
     7
100
AcDbSpline
210
0.0
220
0.0
230
1.0
 70
     1
 71
     3
 72
    48
 73
    44
 74
     0
 42
0.0000000001
 43
0.0000000001
 40
0.0
 40
0.0
 40
0.0
 40
0.0
 40
0.0909090909090909
 40
0.0909090909090909
 40
0.0909090909090909
 40
0.0909090909090909
 40
0.1818181818181818
 40
0.1818181818181818
 40
0.1818181818181818
 40
0.1818181818181818
 40
0.2727272727272727
 40
0.2727272727272727
 40
0.2727272727272727
 40
0.2727272727272727
 40
0.3636363636363637
 40
0.3636363636363637
 40
0.3636363636363637
 40
0.3636363636363637
 40
0.4545454545454546
 40
0.4545454545454546
 40
0.4545454545454546
 40
0.4545454545454546
 40
0.5454545454545455
 40
0.5454545454545455
 40
0.5454545454545455
 40
0.5454545454545455
 40
0.6363636363636365
 40
0.6363636363636365
 40
0.6363636363636365
 40
0.6363636363636365
 40
0.7272727272727274
 40
0.7272727272727274
 40
0.7272727272727274
 40
0.7272727272727274
 40
0.8181818181818183
 40
0.8181818181818183
 40
0.8181818181818183
 40
0.8181818181818183
 40
0.9090909090909093
 40
0.9090909090909093
 40
0.9090909090909093
 40
0.9090909090909093
 40
1.0
 40
1.0
 40
1.0
 40
1.0
 10
0.7570600000000001
 20
5.5772700000000004
 30
0.0
 10
1.2447400000000002
 20
5.35121
 30
0.0
 10
1.5647800000000001
 20
4.89147
 30
0.0
 10
1.8416400000000002
 20
4.4647500000000004
 30
0.0
 10
1.8416400000000002
 20
4.4647500000000004
 30
0.0
 10
1.6511400000000001
 20
4.5739700000000001
 30
0.0
 10
1.52668
 20
4.8178100000000006
 30
0.0
 10
1.3438000000000001
 20
4.9448100000000004
 30
0.0
 10
1.3438000000000001
 20
4.9448100000000004
 30
0.0
 10
1.3438000000000001
 20
4.9448100000000004
 30
0.0
 10
1.4581000000000002
 20
4.7543100000000003
 30
0.0
 10
1.4581000000000002
 20
4.7543100000000003
 30
0.0
 10
1.4581000000000002
 20
4.7543100000000003
 30
0.0
 10
1.4581000000000002
 20
4.7543100000000003
 30
0.0
 10
1.7248000000000001
 20
4.3631500000000001
 30
0.0
 10
1.7248000000000001
 20
4.3631500000000001
 30
0.0
 10
1.7248000000000001
 20
4.3631500000000001
 30
0.0
 10
1.65622
 20
4.3580700000000006
 30
0.0
 10
1.5927200000000001
 20
4.2767900000000001
 30
0.0
 10
1.5419200000000002
 20
4.3631500000000001
 30
0.0
 10
1.5419200000000002
 20
4.3631500000000001
 30
0.0
 10
1.44286
 20
3.9542100000000002
 30
0.0
 10
1.1253600000000001
 20
4.9219500000000007
 30
0.0
 10
1.2676000000000001
 20
4.37331
 30
0.0
 10
1.2676000000000001
 20
4.37331
 30
0.0
 10
1.3311000000000002
 20
4.2513900000000007
 30
0.0
 10
1.32094
 20
4.0888300000000006
 30
0.0
 10
1.1583800000000002
 20
4.1091500000000005
 30
0.0
 10
1.1583800000000002
 20
4.1091500000000005
 30
0.0
 10
1.0872600000000001
 20
4.2463100000000003
 30
0.0
 10
1.05932
 20
4.3885500000000004
 30
0.0
 10
1.0390000000000001
 20
4.5333300000000003
 30
0.0
 10
1.0390000000000001
 20
4.5333300000000003
 30
0.0
 10
1.0390000000000001
 20
4.5333300000000003
 30
0.0
 10
1.0313800000000002
 20
4.6247700000000007
 30
0.0
 10
1.0313800000000002
 20
4.6247700000000007
 30
0.0
 10
1.0313800000000002
 20
4.6247700000000007
 30
0.0
 10
1.0542400000000001
 20
4.7339900000000004
 30
0.0
 10
1.1355200000000001
 20
4.4164900000000005
 30
0.0
 10
1.19648
 20
4.3656900000000007
 30
0.0
 10
1.19648
 20
4.3656900000000007
 30
0.0
 10
1.1202800000000002
 20
4.7416100000000005
 30
0.0
 10
0.8358000000000001
 20
5.1480100000000002
 30
0.0
 10
0.7570600000000001
 20
5.5772700000000004
 30
0.0
  0
SPLINE
  5
28
100
AcDbEntity
  8
Ebene 1
 62
     7
100
AcDbSpline
210
0.0
220
0.0
230
1.0
 70
     1
 71
     3
 72
   284
 73
   280
 74
     0
 42
0.0000000001
 43
0.0000000001
 40
0.0
 40
0.0
 40
0.0
 40
0.0
 40
0.0142857142857143
 40
0.0142857142857143
 40
0.0142857142857143
 40
0.0142857142857143
 40
0.0285714285714286
 40
0.0285714285714286
 40
0.0285714285714286
 40
0.0285714285714286
 40
0.0428571428571429
 40
0.0428571428571429
 40
0.0428571428571429
 40
0.0428571428571429
 40
0.0571428571428571
 40
0.0571428571428571
 40
0.0571428571428571
 40
0.0571428571428571
 40
0.0714285714285714
 40
0.0714285714285714
 40
0.0714285714285714
 40
0.0714285714285714
 40
0.0857142857142857
 40
0.0857142857142857
 40
0.0857142857142857
 40
0.0857142857142857
 40
0.1
 40
0.1
 40
0.1
 40
0.1
 40
0.1142857142857143
 40
0.1142857142857143
 40
0.1142857142857143
 40
0.1142857142857143
 40
0.1285714285714286
 40
0.1285714285714286
 40
0.1285714285714286
 40
0.1285714285714286
 40
0.1428571428571429
 40
0.1428571428571429
 40
0.1428571428571429
 40
0.1428571428571429
 40
0.1571428571428572
 40
0.1571428571428572
 40
0.1571428571428572
 40
0.1571428571428572
 40
0.1714285714285715
 40
0.1714285714285715
 40
0.1714285714285715
 40
0.1714285714285715
 40
0.1857142857142858
 40
0.1857142857142858
 40
0.1857142857142858
 40
0.1857142857142858
 40
0.2
 40
0.2
 40
0.2
 40
0.2
 40
0.2142857142857143
 40
0.2142857142857143
 40
0.2142857142857143
 40
0.2142857142857143
 40
0.2285714285714286
 40
0.2285714285714286
 40
0.2285714285714286
 40
0.2285714285714286
 40
0.2428571428571429
 40
0.2428571428571429
 40
0.2428571428571429
 40
0.2428571428571429
 40
0.2571428571428572
 40
0.2571428571428572
 40
0.2571428571428572
 40
0.2571428571428572
 40
0.2714285714285715
 40
0.2714285714285715
 40
0.2714285714285715
 40
0.2714285714285715
 40
0.2857142857142858
 40
0.2857142857142858
 40
0.2857142857142858
 40
0.2857142857142858
 40
0.3
 40
0.3
 40
0.3
 40
0.3
 40
0.3142857142857143
 40
0.3142857142857143
 40
0.3142857142857143
 40
0.3142857142857143
 40
0.3285714285714286
 40
0.3285714285714286
 40
0.3285714285714286
 40
0.3285714285714286
 40
0.3428571428571429
 40
0.3428571428571429
 40
0.3428571428571429
 40
0.3428571428571429
 40
0.3571428571428572
 40
0.3571428571428572
 40
0.3571428571428572
 40
0.3571428571428572
 40
0.3714285714285715
 40
0.3714285714285715
 40
0.3714285714285715
 40
0.3714285714285715
 40
0.3857142857142858
 40
0.3857142857142858
 40
0.3857142857142858
 40
0.3857142857142858
 40
0.4000000000000001
 40
0.4000000000000001
 40
0.4000000000000001
 40
0.4000000000000001
 40
0.4142857142857144
 40
0.4142857142857144
 40
0.4142857142857144
 40
0.4142857142857144
 40
0.4285714285714287
 40
0.4285714285714287
 40
0.4285714285714287
 40
0.4285714285714287
 40
0.442857142857143
 40
0.442857142857143
 40
0.442857142857143
 40
0.442857142857143
 40
0.4571428571428572
 40
0.4571428571428572
 40
0.4571428571428572
 40
0.4571428571428572
 40
0.4714285714285715
 40
0.4714285714285715
 40
0.4714285714285715
 40
0.4714285714285715
 40
0.4857142857142858
 40
0.4857142857142858
 40
0.4857142857142858
 40
0.4857142857142858
 40
0.5000000000000001
 40
0.5000000000000001
 40
0.5000000000000001
 40
0.5000000000000001
 40
0.5142857142857144
 40
0.5142857142857144
 40
0.5142857142857144
 40
0.5142857142857144
 40
0.5285714285714286
 40
0.5285714285714286
 40
0.5285714285714286
 40
0.5285714285714286
 40
0.5428571428571428
 40
0.5428571428571428
 40
0.5428571428571428
 40
0.5428571428571428
 40
0.5571428571428571
 40
0.5571428571428571
 40
0.5571428571428571
 40
0.5571428571428571
 40
0.5714285714285713
 40
0.5714285714285713
 40
0.5714285714285713
 40
0.5714285714285713
 40
0.5857142857142855
 40
0.5857142857142855
 40
0.5857142857142855
 40
0.5857142857142855
 40
0.5999999999999998
 40
0.5999999999999998
 40
0.5999999999999998
 40
0.5999999999999998
 40
0.614285714285714
 40
0.614285714285714
 40
0.614285714285714
 40
0.614285714285714
 40
0.6285714285714282
 40
0.6285714285714282
 40
0.6285714285714282
 40
0.6285714285714282
 40
0.6428571428571425
 40
0.6428571428571425
 40
0.6428571428571425
 40
0.6428571428571425
 40
0.6571428571428567
 40
0.6571428571428567
 40
0.6571428571428567
 40
0.6571428571428567
 40
0.6714285714285709
 40
0.6714285714285709
 40
0.6714285714285709
 40
0.6714285714285709
 40
0.6857142857142852
 40
0.6857142857142852
 40
0.6857142857142852
 40
0.6857142857142852
 40
0.6999999999999994
 40
0.6999999999999994
 40
0.6999999999999994
 40
0.6999999999999994
 40
0.7142857142857136
 40
0.7142857142857136
 40
0.7142857142857136
 40
0.7142857142857136
 40
0.7285714285714279
 40
0.7285714285714279
 40
0.7285714285714279
 40
0.7285714285714279
 40
0.7428571428571421
 40
0.7428571428571421
 40
0.7428571428571421
 40
0.7428571428571421
 40
0.7571428571428563
 40
0.7571428571428563
 40
0.7571428571428563
 40
0.7571428571428563
 40
0.7714285714285706
 40
0.7714285714285706
 40
0.7714285714285706
 40
0.7714285714285706
 40
0.7857142857142848
 40
0.7857142857142848
 40
0.7857142857142848
 40
0.7857142857142848
 40
0.7999999999999991
 40
0.7999999999999991
 40
0.7999999999999991
 40
0.7999999999999991
 40
0.8142857142857133
 40
0.8142857142857133
 40
0.8142857142857133
 40
0.8142857142857133
 40
0.8285714285714275
 40
0.8285714285714275
 40
0.8285714285714275
 40
0.8285714285714275
 40
0.8428571428571418
 40
0.8428571428571418
 40
0.8428571428571418
 40
0.8428571428571418
 40
0.857142857142856
 40
0.857142857142856
 40
0.857142857142856
 40
0.857142857142856
 40
0.8714285714285702
 40
0.8714285714285702
 40
0.8714285714285702
 40
0.8714285714285702
 40
0.8857142857142845
 40
0.8857142857142845
 40
0.8857142857142845
 40
0.8857142857142845
 40
0.8999999999999987
 40
0.8999999999999987
 40
0.8999999999999987
 40
0.8999999999999987
 40
0.9142857142857129
 40
0.9142857142857129
 40
0.9142857142857129
 40
0.9142857142857129
 40
0.9285714285714272
 40
0.9285714285714272
 40
0.9285714285714272
 40
0.9285714285714272
 40
0.9428571428571414
 40
0.9428571428571414
 40
0.9428571428571414
 40
0.9428571428571414
 40
0.9571428571428556
 40
0.9571428571428556
 40
0.9571428571428556
 40
0.9571428571428556
 40
0.9714285714285699
 40
0.9714285714285699
 40
0.9714285714285699
 40
0.9714285714285699
 40
0.9857142857142841
 40
0.9857142857142841
 40
0.9857142857142841
 40
0.9857142857142841
 40
1.0
 40
1.0
 40
1.0
 40
1.0
 10
3.9930200000000005
 20
-5.02468
 30
0.0
 10
4.1505000000000001
 20
-5.0653200000000007
 30
0.0
 10
4.1301800000000002
 20
-5.28376
 30
0.0
 10
4.2495600000000007
 20
-5.2913800000000002
 30
0.0
 10
4.2495600000000007
 20
-5.2913800000000002
 30
0.0
 10
4.0438200000000002
 20
-4.6386000000000003
 30
0.0
 10
3.2208600000000001
 20
-4.4100000000000001
 30
0.0
 10
3.0989400000000002
 20
-3.6937200000000003
 30
0.0
 10
3.0989400000000002
 20
-3.6937200000000003
 30
0.0
 10
3.0786200000000004
 20
-3.5819600000000005
 30
0.0
 10
3.0405200000000003
 20
-3.6429200000000002
 30
0.0
 10
3.0887800000000003
 20
-3.8486600000000002
 30
0.0
 10
3.0887800000000003
 20
-3.8486600000000002
 30
0.0
 10
3.1370400000000003
 20
-4.04678
 30
0.0
 10
2.8170000000000002
 20
-4.0975800000000007
 30
0.0
 10
2.8170000000000002
 20
-3.7572200000000002
 30
0.0
 10
2.8170000000000002
 20
-3.7572200000000002
 30
0.0
 10
2.7535000000000003
 20
-3.6403800000000004
 30
0.0
 10
2.7662000000000004
 20
-3.8131000000000004
 30
0.0
 10
2.7585800000000003
 20
-3.8385000000000002
 30
0.0
 10
2.7585800000000003
 20
-3.8385000000000002
 30
0.0
 10
2.6290400000000003
 20
-4.2525200000000005
 30
0.0
 10
2.4842600000000004
 20
-3.5768800000000005
 30
0.0
 10
2.4029800000000003
 20
-3.3609800000000001
 30
0.0
 10
2.4029800000000003
 20
-3.3609800000000001
 30
0.0
 10
2.4029800000000003
 20
-3.3609800000000001
 30
0.0
 10
2.4106000000000001
 20
-3.5057600000000004
 30
0.0
 10
2.4106000000000001
 20
-3.5057600000000004
 30
0.0
 10
2.4106000000000001
 20
-3.5057600000000004
 30
0.0
 10
2.4106000000000001
 20
-3.5438600000000005
 30
0.0
 10
2.3521800000000002
 20
-3.5311600000000003
 30
0.0
 10
2.3369400000000002
 20
-3.5133800000000002
 30
0.0
 10
2.3369400000000002
 20
-3.5133800000000002
 30
0.0
 10
2.1515200000000001
 20
-3.6022800000000004
 30
0.0
 10
2.2785200000000003
 20
-3.3736800000000002
 30
0.0
 10
2.1870800000000004
 20
-3.3838400000000002
 30
0.0
 10
2.1870800000000004
 20
-3.3838400000000002
 30
0.0
 10
2.1870800000000004
 20
-3.3838400000000002
 30
0.0
 10
2.03722
 20
-3.9070800000000001
 30
0.0
 10
2.03722
 20
-3.9070800000000001
 30
0.0
 10
2.03722
 20
-3.9070800000000001
 30
0.0
 10
1.9102200000000003
 20
-3.8258000000000005
 30
0.0
 10
1.8086200000000001
 20
-3.5108400000000004
 30
0.0
 10
2.00928
 20
-3.6175200000000003
 30
0.0
 10
2.00928
 20
-3.6175200000000003
 30
0.0
 10
2.1007200000000004
 20
-3.4397200000000003
 30
0.0
 10
1.9102200000000003
 20
-3.5006800000000005
 30
0.0
 10
1.9711800000000002
 20
-3.3127200000000001
 30
0.0
 10
1.9711800000000002
 20
-3.3127200000000001
 30
0.0
 10
1.8187800000000001
 20
-3.3076400000000001
 30
0.0
 10
1.8873600000000001
 20
-3.5387800000000005
 30
0.0
 10
1.8086200000000001
 20
-3.5997400000000002
 30
0.0
 10
1.8086200000000001
 20
-3.5997400000000002
 30
0.0
 10
1.4708000000000001
 20
-3.5794200000000003
 30
0.0
 10
1.5978000000000001
 20
-2.7132800000000001
 30
0.0
 10
1.5089000000000001
 20
-3.1933400000000001
 30
0.0
 10
1.5089000000000001
 20
-3.1933400000000001
 30
0.0
 10
1.4962000000000002
 20
-3.2492200000000002
 30
0.0
 10
1.5139800000000001
 20
-3.3381200000000004
 30
0.0
 10
1.4454
 20
-3.2720800000000003
 30
0.0
 10
1.4454
 20
-3.2720800000000003
 30
0.0
 10
1.2599800000000001
 20
-3.2339800000000003
 30
0.0
 10
1.3057000000000001
 20
-3.1577800000000003
 30
0.0
 10
1.39714
 20
-3.0028400000000004
 30
0.0
 10
1.39714
 20
-3.0028400000000004
 30
0.0
 10
1.27268
 20
-2.9622000000000002
 30
0.0
 10
1.23458
 20
-3.3305000000000002
 30
0.0
 10
1.1533
 20
-3.2644600000000001
 30
0.0
 10
1.1533
 20
-3.2644600000000001
 30
0.0
 10
1.1533
 20
-3.2644600000000001
 30
0.0
 10
1.0542400000000001
 20
-3.1273000000000004
 30
0.0
 10
1.0542400000000001
 20
-3.1273000000000004
 30
0.0
 10
1.0542400000000001
 20
-3.1273000000000004
 30
0.0
 10
1.3819000000000001
 20
-2.7513800000000002
 30
0.0
 10
0.76214
 20
-3.4270200000000002
 30
0.0
 10
0.6300600000000001
 20
-3.1146000000000003
 30
0.0
 10
0.6300600000000001
 20
-3.1146000000000003
 30
0.0
 10
0.6122800000000001
 20
-2.8250400000000004
 30
0.0
 10
0.78246
 20
-2.7183600000000001
 30
0.0
 10
0.91454
 20
-2.8860000000000001
 30
0.0
 10
0.91454
 20
-2.8860000000000001
 30
0.0
 10
0.9399400000000001
 20
-2.5583400000000003
 30
0.0
 10
0.93486
 20
-2.1595600000000004
 30
0.0
 10
0.71896
 20
-1.8903200000000002
 30
0.0
 10
0.71896
 20
-1.8903200000000002
 30
0.0
 10
0.8104000000000001
 20
-1.8623800000000001
 30
0.0
 10
0.9856600000000001
 20
-1.9538200000000001
 30
0.0
 10
1.0339200000000002
 20
-1.8598400000000002
 30
0.0
 10
1.0339200000000002
 20
-1.8598400000000002
 30
0.0
 10
0.9094600000000001
 20
-1.7785600000000001
 30
0.0
 10
0.76468
 20
-1.7760200000000002
 30
0.0
 10
0.6275200000000001
 20
-1.7531600000000001
 30
0.0
 10
0.6275200000000001
 20
-1.7531600000000001
 30
0.0
 10
0.49798
 20
-1.7658600000000002
 30
0.0
 10
0.37098
 20
-1.7785600000000001
 30
0.0
 10
0.24906
 20
-1.8065000000000002
 30
0.0
 10
0.24906
 20
-1.8065000000000002
 30
0.0
 10
-0.5789700000000001
 20
-2.3399000000000001
 30
0.0
 10
-1.9835900000000002
 20
-1.5144000000000002
 30
0.0
 10
-1.08189
 20
-0.61016
 30
0.0
 10
-1.08189
 20
-0.61016
 30
0.0
 10
-1.0514100000000002
 20
-0.4780800000000001
 30
0.0
 10
-1.0488700000000002
 20
-0.31552
 30
0.0
 10
-1.1047500000000001
 20
-0.1936
 30
0.0
 10
-1.1047500000000001
 20
-0.1936
 30
0.0
 10
-1.08443
 20
-0.6279400000000001
 30
0.0
 10
-1.6127500000000001
 20
-0.9149600000000001
 30
0.0
 10
-1.6457700000000002
 20
-1.37216
 30
0.0
 10
-1.6457700000000002
 20
-1.37216
 30
0.0
 10
-1.6457700000000002
 20
-1.37216
 30
0.0
 10
-1.7829300000000001
 20
-1.42042
 30
0.0
 10
-1.7829300000000001
 20
-1.42042
 30
0.0
 10
-1.7829300000000001
 20
-1.42042
 30
0.0
 10
-1.8540500000000002
 20
-1.4102600000000001
 30
0.0
 10
-1.8972300000000002
 20
-1.3416800000000002
 30
0.0
 10
-1.8870700000000002
 20
-1.2680200000000001
 30
0.0
 10
-1.8870700000000002
 20
-1.2680200000000001
 30
0.0
 10
-1.8667500000000001
 20
-1.1562600000000001
 30
0.0
 10
-1.7778500000000002
 20
-1.3848600000000002
 30
0.0
 10
-1.7270500000000002
 20
-1.28834
 30
0.0
 10
-1.7270500000000002
 20
-1.28834
 30
0.0
 10
-1.9683500000000003
 20
-0.8768600000000001
 30
0.0
 10
-2.4585700000000004
 20
-0.6685800000000001
 30
0.0
 10
-2.69225
 20
-0.07422
 30
0.0
 10
-2.69225
 20
-0.07422
 30
0.0
 10
-2.69225
 20
-0.07422
 30
0.0
 10
-2.5042900000000001
 20
-0.29012
 30
0.0
 10
-2.5042900000000001
 20
-0.29012
 30
0.0
 10
-2.5042900000000001
 20
-0.29012
 30
0.0
 10
-1.8464300000000002
 20
-0.84638
 30
0.0
 10
-3.4263100000000004
 20
0.7792100000000001
 30
0.0
 10
-2.4890500000000002
 20
0.12389
 30
0.0
 10
-2.4890500000000002
 20
0.12389
 30
0.0
 10
-2.1969500000000002
 20
-0.09708
 30
0.0
 10
-2.4103100000000004
 20
0.22295
 30
0.0
 10
-2.5550900000000003
 20
0.3372500000000001
 30
0.0
 10
-2.5550900000000003
 20
0.3372500000000001
 30
0.0
 10
-3.1367500000000001
 20
0.8985900000000001
 30
0.0
 10
-2.0064500000000001
 20
0.11627
 30
0.0
 10
-1.9429500000000002
 20
-0.16566
 30
0.0
 10
-1.9429500000000002
 20
-0.16566
 30
0.0
 10
-1.8337300000000001
 20
-0.1174
 30
0.0
 10
-1.9708900000000003
 20
0.07309
 30
0.0
 10
-2.0445500000000001
 20
0.17723
 30
0.0
 10
-2.0445500000000001
 20
0.17723
 30
0.0
 10
-2.44333
 20
0.7334900000000001
 30
0.0
 10
-3.2256500000000004
 20
1.1398900000000001
 30
0.0
 10
-2.9157700000000002
 20
1.9374500000000001
 30
0.0
 10
-2.9157700000000002
 20
1.9374500000000001
 30
0.0
 10
-2.6566900000000002
 20
1.8510900000000001
 30
0.0
 10
-2.4915900000000004
 20
1.61487
 30
0.0
 10
-2.3214100000000002
 20
1.4116700000000002
 30
0.0
 10
-2.3214100000000002
 20
1.4116700000000002
 30
0.0
 10
-2.0724900000000002
 20
1.1271900000000001
 30
0.0
 10
-2.2579100000000003
 20
1.5107300000000001
 30
0.0
 10
-2.3798300000000001
 20
1.6250300000000002
 30
0.0
 10
-2.3798300000000001
 20
1.6250300000000002
 30
0.0
 10
-2.3798300000000001
 20
1.6250300000000002
 30
0.0
 10
-2.7379700000000002
 20
2.13557
 30
0.0
 10
-2.7379700000000002
 20
2.13557
 30
0.0
 10
-2.7379700000000002
 20
2.13557
 30
0.0
 10
-2.2452100000000002
 20
2.1279500000000002
 30
0.0
 10
-2.02677
 20
1.2059300000000002
 30
0.0
 10
-1.9073900000000001
 20
1.1983100000000002
 30
0.0
 10
-1.9073900000000001
 20
1.1983100000000002
 30
0.0
 10
-2.0623300000000002
 20
2.0568300000000002
 30
0.0
 10
-2.8979900000000001
 20
2.6283300000000001
 30
0.0
 10
-2.8725900000000002
 20
3.5579700000000001
 30
0.0
 10
-2.8725900000000002
 20
3.5579700000000001
 30
0.0
 10
-2.6998700000000002
 20
4.0278700000000001
 30
0.0
 10
-2.2198100000000003
 20
4.34537
 30
0.0
 10
-1.7473700000000001
 20
4.4647500000000004
 30
0.0
 10
-1.7473700000000001
 20
4.4647500000000004
 30
0.0
 10
-1.3206500000000001
 20
4.1421700000000001
 30
0.0
 10
-0.9472700000000001
 20
3.7433900000000002
 30
0.0
 10
-0.59421
 20
3.3573100000000005
 30
0.0
 10
-0.59421
 20
3.3573100000000005
 30
0.0
 10
-0.59421
 20
3.3573100000000005
 30
0.0
 10
-0.35037
 20
3.0906100000000003
 30
0.0
 10
-0.35037
 20
3.0906100000000003
 30
0.0
 10
-0.35037
 20
3.0906100000000003
 30
0.0
 10
-0.25385
 20
2.97377
 30
0.0
 10
-0.14971
 20
2.8747100000000003
 30
0.0
 10
-0.03795
 20
2.7756500000000002
 30
0.0
 10
-0.03795
 20
2.7756500000000002
 30
0.0
 10
0.26938
 20
2.6232500000000001
 30
0.0
 10
-0.25639
 20
3.1185500000000004
 30
0.0
 10
-0.30719
 20
3.2760300000000004
 30
0.0
 10
-0.30719
 20
3.2760300000000004
 30
0.0
 10
-0.52563
 20
3.6570300000000002
 30
0.0
 10
-0.76185
 20
4.0329500000000005
 30
0.0
 10
-1.0260100000000001
 20
4.3707700000000003
 30
0.0
 10
-1.0260100000000001
 20
4.3707700000000003
 30
0.0
 10
0.1373
 20
3.9745300000000001
 30
0.0
 10
0.6224400000000001
 20
2.5241900000000004
 30
0.0
 10
1.65368
 20
1.8866500000000002
 30
0.0
 10
1.65368
 20
1.8866500000000002
 30
0.0
 10
1.5901800000000001
 20
2.0796900000000003
 30
0.0
 10
1.3031600000000001
 20
2.2320900000000004
 30
0.0
 10
1.1914
 20
2.4403700000000002
 30
0.0
 10
1.1914
 20
2.4403700000000002
 30
0.0
 10
0.9780400000000001
 20
2.7299300000000004
 30
0.0
 10
0.80786
 20
3.0575900000000003
 30
0.0
 10
0.7113400000000001
 20
3.3928700000000003
 30
0.0
 10
0.7113400000000001
 20
3.3928700000000003
 30
0.0
 10
0.8358000000000001
 20
3.7510100000000004
 30
0.0
 10
1.3234800000000002
 20
4.0888300000000006
 30
0.0
 10
1.6994000000000002
 20
4.0532700000000004
 30
0.0
 10
1.6994000000000002
 20
4.0532700000000004
 30
0.0
 10
2.20994
 20
3.5935300000000003
 30
0.0
 10
2.3699600000000003
 20
2.84423
 30
0.0
 10
2.5833200000000001
 20
2.2651100000000004
 30
0.0
 10
2.5833200000000001
 20
2.2651100000000004
 30
0.0
 10
2.6544400000000001
 20
2.4733900000000002
 30
0.0
 10
2.5249000000000001
 20
2.71469
 30
0.0
 10
2.4842600000000004
 20
2.9102700000000001
 30
0.0
 10
2.4842600000000004
 20
2.9102700000000001
 30
0.0
 10
2.4842600000000004
 20
2.9102700000000001
 30
0.0
 10
2.2455000000000003
 20
3.5782900000000004
 30
0.0
 10
2.2455000000000003
 20
3.5782900000000004
 30
0.0
 10
2.2455000000000003
 20
3.5782900000000004
 30
0.0
 10
2.1032600000000001
 20
3.9288100000000004
 30
0.0
 10
1.6333600000000001
 20
4.5714300000000003
 30
0.0
 10
2.3344
 20
4.25901
 30
0.0
 10
2.3344
 20
4.25901
 30
0.0
 10
3.0557600000000003
 20
3.6544900000000005
 30
0.0
 10
3.1675200000000001
 20
2.50387
 30
0.0
 10
3.1345000000000001
 20
1.6097900000000001
 30
0.0
 10
3.1345000000000001
 20
1.6097900000000001
 30
0.0
 10
3.0329000000000002
 20
1.5996300000000001
 30
0.0
 10
2.9262200000000003
 20
1.7342500000000001
 30
0.0
 10
2.8398600000000003
 20
1.6732900000000002
 30
0.0
 10
2.8398600000000003
 20
1.6732900000000002
 30
0.0
 10
3.4012000000000002
 20
1.1271900000000001
 30
0.0
 10
4.7143800000000002
 20
-0.16058
 30
0.0
 10
3.8177600000000003
 20
-0.7549400000000001
 30
0.0
 10
3.8177600000000003
 20
-0.7549400000000001
 30
0.0
 10
4.0514400000000004
 20
-1.0064000000000002
 30
0.0
 10
4.1200200000000002
 20
-1.3975600000000001
 30
0.0
 10
4.2419400000000005
 20
-1.6947400000000001
 30
0.0
 10
4.2419400000000005
 20
-1.6947400000000001
 30
0.0
 10
4.2419400000000005
 20
-1.6947400000000001
 30
0.0
 10
4.4984800000000007
 20
-2.0884400000000003
 30
0.0
 10
4.4984800000000007
 20
-2.0884400000000003
 30
0.0
 10
4.4984800000000007
 20
-2.0884400000000003
 30
0.0
 10
4.6915200000000006
 20
-2.1976600000000004
 30
0.0
 10
4.468
 20
-1.9106400000000001
 30
0.0
 10
4.5416600000000003
 20
-1.8852400000000002
 30
0.0
 10
4.5416600000000003
 20
-1.8852400000000002
 30
0.0
 10
4.96584
 20
-2.2916400000000001
 30
0.0
 10
4.85154
 20
-2.48468
 30
0.0
 10
4.8718600000000007
 20
-2.8783800000000004
 30
0.0
 10
4.8718600000000007
 20
-2.8783800000000004
 30
0.0
 10
4.8769400000000003
 20
-2.9723600000000001
 30
0.0
 10
4.9175800000000001
 20
-3.1323800000000004
 30
0.0
 10
4.8490000000000002
 20
-3.19842
 30
0.0
 10
4.8490000000000002
 20
-3.19842
 30
0.0
 10
4.8490000000000002
 20
-3.19842
 30
0.0
 10
4.8007400000000002
 20
-3.0409400000000004
 30
0.0
 10
4.8007400000000002
 20
-3.0409400000000004
 30
0.0
 10
4.8007400000000002
 20
-3.0409400000000004
 30
0.0
 10
4.7499400000000005
 20
-2.9190200000000002
 30
0.0
 10
4.7448600000000001
 20
-3.0638000000000001
 30
0.0
 10
4.7347000000000001
 20
-3.1196800000000002
 30
0.0
 10
4.7347000000000001
 20
-3.1196800000000002
 30
0.0
 10
4.9125000000000005
 20
-3.8461200000000004
 30
0.0
 10
4.8566200000000004
 20
-4.6335200000000007
 30
0.0
 10
4.6077000000000004
 20
-5.3117000000000001
 30
0.0
 10
4.6077000000000004
 20
-5.3117000000000001
 30
0.0
 10
4.5746800000000007
 20
-5.0958000000000006
 30
0.0
 10
4.6889800000000008
 20
-4.6132
 30
0.0
 10
4.5467400000000007
 20
-4.5547800000000001
 30
0.0
 10
4.5467400000000007
 20
-4.5547800000000001
 30
0.0
 10
4.5721400000000001
 20
-5.0043600000000001
 30
0.0
 10
4.6051600000000006
 20
-5.4742600000000001
 30
0.0
 10
4.41974
 20
-5.8730400000000005
 30
0.0
 10
4.41974
 20
-5.8730400000000005
 30
0.0
 10
4.2114600000000006
 20
-5.6393600000000008
 30
0.0
 10
4.1124000000000001
 20
-5.32186
 30
0.0
 10
3.9930200000000005
 20
-5.02468
 30
0.0
  0
SPLINE
  5
29
100
AcDbEntity
  8
Ebene 1
 62
     7
100
AcDbSpline
210
0.0
220
0.0
230
1.0
 70
     1
 71
     3
 72
    40
 73
    36
 74
     0
 42
0.0000000001
 43
0.0000000001
 40
0.0
 40
0.0
 40
0.0
 40
0.0
 40
0.1111111111111111
 40
0.1111111111111111
 40
0.1111111111111111
 40
0.1111111111111111
 40
0.2222222222222222
 40
0.2222222222222222
 40
0.2222222222222222
 40
0.2222222222222222
 40
0.3333333333333333
 40
0.3333333333333333
 40
0.3333333333333333
 40
0.3333333333333333
 40
0.4444444444444444
 40
0.4444444444444444
 40
0.4444444444444444
 40
0.4444444444444444
 40
0.5555555555555556
 40
0.5555555555555556
 40
0.5555555555555556
 40
0.5555555555555556
 40
0.6666666666666667
 40
0.6666666666666667
 40
0.6666666666666667
 40
0.6666666666666667
 40
0.7777777777777779
 40
0.7777777777777779
 40
0.7777777777777779
 40
0.7777777777777779
 40
0.8888888888888891
 40
0.8888888888888891
 40
0.8888888888888891
 40
0.8888888888888891
 40
1.0
 40
1.0
 40
1.0
 40
1.0
 10
-4.3026100000000005
 20
3.4385900000000005
 30
0.0
 10
-3.7031700000000005
 20
3.2785700000000002
 30
0.0
 10
-3.2078700000000002
 20
2.8721700000000001
 30
0.0
 10
-2.7379700000000002
 20
2.4810100000000004
 30
0.0
 10
-2.7379700000000002
 20
2.4810100000000004
 30
0.0
 10
-2.7557500000000004
 20
2.4251300000000002
 30
0.0
 10
-2.8014700000000001
 20
2.3641700000000001
 30
0.0
 10
-2.8497300000000001
 20
2.3235300000000003
 30
0.0
 10
-2.8497300000000001
 20
2.3235300000000003
 30
0.0
 10
-2.8497300000000001
 20
2.3235300000000003
 30
0.0
 10
-3.1240500000000004
 20
2.4784700000000002
 30
0.0
 10
-3.1240500000000004
 20
2.4784700000000002
 30
0.0
 10
-3.1240500000000004
 20
2.4784700000000002
 30
0.0
 10
-3.4339300000000001
 20
2.6867500000000004
 30
0.0
 10
-3.2281900000000001
 20
2.3971900000000002
 30
0.0
 10
-3.0681700000000003
 20
2.2854300000000003
 30
0.0
 10
-3.0681700000000003
 20
2.2854300000000003
 30
0.0
 10
-3.0681700000000003
 20
2.2854300000000003
 30
0.0
 10
-2.9767300000000003
 20
2.0771500000000001
 30
0.0
 10
-2.9767300000000003
 20
2.0771500000000001
 30
0.0
 10
-2.9767300000000003
 20
2.0771500000000001
 30
0.0
 10
-3.4796500000000004
 20
2.2828900000000001
 30
0.0
 10
-3.7692100000000002
 20
2.8162900000000004
 30
0.0
 10
-4.1781500000000005
 20
3.1591900000000002
 30
0.0
 10
-4.1781500000000005
 20
3.1591900000000002
 30
0.0
 10
-4.1781500000000005
 20
3.1591900000000002
 30
0.0
 10
-4.1095700000000006
 20
3.1490300000000002
 30
0.0
 10
-4.1095700000000006
 20
3.1490300000000002
 30
0.0
 10
-4.1095700000000006
 20
3.1490300000000002
 30
0.0
 10
-3.8631900000000003
 20
2.9915500000000002
 30
0.0
 10
-3.6066500000000001
 20
2.7604100000000003
 30
0.0
 10
-3.3577300000000001
 20
2.6562700000000001
 30
0.0
 10
-3.3577300000000001
 20
2.6562700000000001
 30
0.0
 10
-3.3577300000000001
 20
2.6562700000000001
 30
0.0
 10
-4.3026100000000005
 20
3.4385900000000005
 30
0.0
 10
-4.3026100000000005
 20
3.4385900000000005
 30
0.0
  0
SPLINE
  5
2A
100
AcDbEntity
  8
Ebene 1
100
AcDbSpline
210
0.0
220
0.0
230
1.0
 70
     1
 71
     3
 72
    28
 73
    24
 74
     0
 42
0.0000000001
 43
0.0000000001
 40
0.0
 40
0.0
 40
0.0
 40
0.0
 40
0.1666666666666667
 40
0.1666666666666667
 40
0.1666666666666667
 40
0.1666666666666667
 40
0.3333333333333333
 40
0.3333333333333333
 40
0.3333333333333333
 40
0.3333333333333333
 40
0.5
 40
0.5
 40
0.5
 40
0.5
 40
0.6666666666666666
 40
0.6666666666666666
 40
0.6666666666666666
 40
0.6666666666666666
 40
0.8333333333333333
 40
0.8333333333333333
 40
0.8333333333333333
 40
0.8333333333333333
 40
1.0
 40
1.0
 40
1.0
 40
1.0
 10
0.41416
 20
2.1482700000000001
 30
0.0
 10
0.43448
 20
2.1482700000000001
 30
0.0
 10
0.4675
 20
2.13557
 30
0.0
 10
0.47004
 20
2.1177900000000003
 30
0.0
 10
0.47004
 20
2.1177900000000003
 30
0.0
 10
0.4319400000000001
 20
2.0771500000000001
 30
0.0
 10
0.4624200000000001
 20
2.0339700000000001
 30
0.0
 10
0.44464
 20
1.9780900000000001
 30
0.0
 10
0.44464
 20
1.9780900000000001
 30
0.0
 10
0.25668
 20
0.9722500000000001
 30
0.0
 10
2.21502
 20
0.64205
 30
0.0
 10
2.0600800000000001
 20
-0.45268
 30
0.0
 10
2.0600800000000001
 20
-0.45268
 30
0.0
 10
1.9940400000000003
 20
-0.5136400000000001
 30
0.0
 10
1.9178400000000002
 20
-0.59238
 30
0.0
 10
1.8264000000000002
 20
-0.6203200000000001
 30
0.0
 10
1.8264000000000002
 20
-0.6203200000000001
 30
0.0
 10
1.8264000000000002
 20
-0.6203200000000001
 30
0.0
 10
1.7527400000000002
 20
-0.57206
 30
0.0
 10
1.7527400000000002
 20
-0.57206
 30
0.0
 10
1.7527400000000002
 20
-0.57206
 30
0.0
 10
2.1642200000000003
 20
0.5912500000000001
 30
0.0
 10
-0.13701
 20
0.9671700000000001
 30
0.0
 10
0.41416
 20
2.1482700000000001
 30
0.0
  0
SPLINE
  5
2B
100
AcDbEntity
  8
Ebene 1
100
AcDbSpline
210
0.0
220
0.0
230
1.0
 70
     1
 71
     3
 72
    24
 73
    20
 74
     0
 42
0.0000000001
 43
0.0000000001
 40
0.0
 40
0.0
 40
0.0
 40
0.0
 40
0.2
 40
0.2
 40
0.2
 40
0.2
 40
0.4
 40
0.4
 40
0.4
 40
0.4
 40
0.6000000000000001
 40
0.6000000000000001
 40
0.6000000000000001
 40
0.6000000000000001
 40
0.8
 40
0.8
 40
0.8
 40
0.8
 40
1.0
 40
1.0
 40
1.0
 40
1.0
 10
-0.4900700000000001
 20
1.9526900000000003
 30
0.0
 10
-0.47737
 20
1.9526900000000003
 30
0.0
 10
-0.4494300000000001
 20
1.9552300000000002
 30
0.0
 10
-0.45197
 20
1.9374500000000001
 30
0.0
 10
-0.45197
 20
1.9374500000000001
 30
0.0
 10
-0.6043700000000001
 20
1.6859900000000001
 30
0.0
 10
-0.76185
 20
1.4548500000000002
 30
0.0
 10
-0.88885
 20
1.18815
 30
0.0
 10
-0.88885
 20
1.18815
 30
0.0
 10
-0.9625100000000001
 20
0.8350900000000001
 30
0.0
 10
-0.6475500000000001
 20
0.5912500000000001
 30
0.0
 10
-0.36307
 20
0.5836300000000001
 30
0.0
 10
-0.36307
 20
0.5836300000000001
 30
0.0
 10
-0.6729500000000001
 20
0.40837
 30
0.0
 10
-1.1403100000000002
 20
0.63697
 30
0.0
 10
-1.1098300000000001
 20
1.02051
 30
0.0
 10
-1.1098300000000001
 20
1.02051
 30
0.0
 10
-1.0260100000000001
 20
1.3913500000000001
 30
0.0
 10
-0.7135900000000001
 20
1.6580500000000002
 30
0.0
 10
-0.4900700000000001
 20
1.9526900000000003
 30
0.0
  0
SPLINE
  5
2C
100
AcDbEntity
  8
Ebene 1
 62
     7
100
AcDbSpline
210
0.0
220
0.0
230
1.0
 70
     1
 71
     3
 72
    24
 73
    20
 74
     0
 42
0.0000000001
 43
0.0000000001
 40
0.0
 40
0.0
 40
0.0
 40
0.0
 40
0.2
 40
0.2
 40
0.2
 40
0.2
 40
0.4
 40
0.4
 40
0.4
 40
0.4
 40
0.6000000000000001
 40
0.6000000000000001
 40
0.6000000000000001
 40
0.6000000000000001
 40
0.8
 40
0.8
 40
0.8
 40
0.8
 40
1.0
 40
1.0
 40
1.0
 40
1.0
 10
-3.6066500000000001
 20
1.10687
 30
0.0
 10
-3.6066500000000001
 20
1.10687
 30
0.0
 10
-3.1265900000000002
 20
0.80969
 30
0.0
 10
-3.1265900000000002
 20
0.80969
 30
0.0
 10
-3.1265900000000002
 20
0.80969
 30
0.0
 10
-3.2535900000000004
 20
1.0332100000000002
 30
0.0
 10
-3.5837900000000005
 20
1.10941
 30
0.0
 10
-3.7539700000000003
 20
1.3303900000000002
 30
0.0
 10
-3.7539700000000003
 20
1.3303900000000002
 30
0.0
 10
-3.4440900000000001
 20
1.1779900000000001
 30
0.0
 10
-3.1342100000000004
 20
1.0078100000000001
 30
0.0
 10
-2.8827500000000001
 20
0.7766700000000001
 30
0.0
 10
-2.8827500000000001
 20
0.7766700000000001
 30
0.0
 10
-2.8827500000000001
 20
0.7766700000000001
 30
0.0
 10
-2.9843500000000001
 20
0.51251
 30
0.0
 10
-2.9843500000000001
 20
0.51251
 30
0.0
 10
-2.9843500000000001
 20
0.51251
 30
0.0
 10
-2.9843500000000001
 20
0.51251
 30
0.0
 10
-3.6066500000000001
 20
1.10687
 30
0.0
 10
-3.6066500000000001
 20
1.10687
 30
0.0
  0
SPLINE
  5
2D
100
AcDbEntity
  8
Ebene 1
100
AcDbSpline
210
0.0
220
0.0
230
1.0
 70
     1
 71
     3
 72
    48
 73
    44
 74
     0
 42
0.0000000001
 43
0.0000000001
 40
0.0
 40
0.0
 40
0.0
 40
0.0
 40
0.0909090909090909
 40
0.0909090909090909
 40
0.0909090909090909
 40
0.0909090909090909
 40
0.1818181818181818
 40
0.1818181818181818
 40
0.1818181818181818
 40
0.1818181818181818
 40
0.2727272727272727
 40
0.2727272727272727
 40
0.2727272727272727
 40
0.2727272727272727
 40
0.3636363636363637
 40
0.3636363636363637
 40
0.3636363636363637
 40
0.3636363636363637
 40
0.4545454545454546
 40
0.4545454545454546
 40
0.4545454545454546
 40
0.4545454545454546
 40
0.5454545454545455
 40
0.5454545454545455
 40
0.5454545454545455
 40
0.5454545454545455
 40
0.6363636363636365
 40
0.6363636363636365
 40
0.6363636363636365
 40
0.6363636363636365
 40
0.7272727272727274
 40
0.7272727272727274
 40
0.7272727272727274
 40
0.7272727272727274
 40
0.8181818181818183
 40
0.8181818181818183
 40
0.8181818181818183
 40
0.8181818181818183
 40
0.9090909090909093
 40
0.9090909090909093
 40
0.9090909090909093
 40
0.9090909090909093
 40
1.0
 40
1.0
 40
1.0
 40
1.0
 10
-0.8583700000000001
 20
0.49981
 30
0.0
 10
-0.8583700000000001
 20
0.49981
 30
0.0
 10
-0.4900700000000001
 20
0.42615
 30
0.0
 10
-0.4900700000000001
 20
0.42615
 30
0.0
 10
-0.4900700000000001
 20
0.42615
 30
0.0
 10
0.6326000000000001
 20
0.6979300000000001
 30
0.0
 10
0.7342000000000001
 20
-1.7582400000000002
 30
0.0
 10
1.9635600000000002
 20
-0.8616200000000001
 30
0.0
 10
1.9635600000000002
 20
-0.8616200000000001
 30
0.0
 10
1.9635600000000002
 20
-0.8616200000000001
 30
0.0
 10
2.0321400000000001
 20
-0.88956
 30
0.0
 10
2.0321400000000001
 20
-0.88956
 30
0.0
 10
2.0321400000000001
 20
-0.88956
 30
0.0
 10
1.8467200000000001
 20
-1.0546600000000002
 30
0.0
 10
1.56732
 20
-1.20706
 30
0.0
 10
1.6917800000000001
 20
-1.50424
 30
0.0
 10
1.6917800000000001
 20
-1.50424
 30
0.0
 10
1.6359000000000001
 20
-1.6185400000000001
 30
0.0
 10
1.5724
 20
-1.4331200000000002
 30
0.0
 10
1.5419200000000002
 20
-1.4001000000000001
 30
0.0
 10
1.5419200000000002
 20
-1.4001000000000001
 30
0.0
 10
1.2066400000000002
 20
-1.00132
 30
0.0
 10
0.6249800000000001
 20
-0.78288
 30
0.0
 10
0.29478
 20
-1.3670800000000001
 30
0.0
 10
0.29478
 20
-1.3670800000000001
 30
0.0
 10
0.29478
 20
-1.3670800000000001
 30
0.0
 10
0.14238
 20
-1.4356600000000002
 30
0.0
 10
0.14238
 20
-1.4356600000000002
 30
0.0
 10
0.14238
 20
-1.4356600000000002
 30
0.0
 10
0.00522
 20
-1.4483600000000001
 30
0.0
 10
-0.12685
 20
-1.4255000000000002
 30
0.0
 10
-0.22337
 20
-1.3264400000000001
 30
0.0
 10
-0.22337
 20
-1.3264400000000001
 30
0.0
 10
0.15254
 20
-1.4890000000000001
 30
0.0
 10
0.32272
 20
-1.0546600000000002
 30
0.0
 10
0.5945
 20
-0.88448
 30
0.0
 10
0.5945
 20
-0.88448
 30
0.0
 10
-0.00239
 20
-0.88702
 30
0.0
 10
-0.42403
 20
-0.25456
 30
0.0
 10
-0.22337
 20
0.27121
 30
0.0
 10
-0.22337
 20
0.27121
 30
0.0
 10
-0.4062500000000001
 20
0.41599
 30
0.0
 10
-0.7339100000000001
 20
0.27629
 30
0.0
 10
-0.8583700000000001
 20
0.49981
 30
0.0
  0
SPLINE
  5
2E
100
AcDbEntity
  8
Ebene 1
100
AcDbSpline
210
0.0
220
0.0
230
1.0
 70
     1
 71
     3
 72
    28
 73
    24
 74
     0
 42
0.0000000001
 43
0.0000000001
 40
0.0
 40
0.0
 40
0.0
 40
0.0
 40
0.1666666666666667
 40
0.1666666666666667
 40
0.1666666666666667
 40
0.1666666666666667
 40
0.3333333333333333
 40
0.3333333333333333
 40
0.3333333333333333
 40
0.3333333333333333
 40
0.5
 40
0.5
 40
0.5
 40
0.5
 40
0.6666666666666666
 40
0.6666666666666666
 40
0.6666666666666666
 40
0.6666666666666666
 40
0.8333333333333333
 40
0.8333333333333333
 40
0.8333333333333333
 40
0.8333333333333333
 40
1.0
 40
1.0
 40
1.0
 40
1.0
 10
2.75604
 20
0.28391
 30
0.0
 10
3.0913200000000001
 20
0.02483
 30
0.0
 10
3.0938600000000003
 20
-0.5873
 30
0.0
 10
3.5917000000000003
 20
-0.7041400000000001
 30
0.0
 10
3.5917000000000003
 20
-0.7041400000000001
 30
0.0
 10
3.5917000000000003
 20
-0.7041400000000001
 30
0.0
 10
3.6171000000000002
 20
-0.7752600000000001
 30
0.0
 10
3.6171000000000002
 20
-0.7752600000000001
 30
0.0
 10
3.6171000000000002
 20
-0.7752600000000001
 30
0.0
 10
3.4647000000000001
 20
-0.8082800000000001
 30
0.0
 10
3.2488000000000001
 20
-0.71938
 30
0.0
 10
3.1472000000000002
 20
-0.5822200000000001
 30
0.0
 10
3.1472000000000002
 20
-0.5822200000000001
 30
0.0
 10
2.9871800000000004
 20
-0.8540000000000001
 30
0.0
 10
2.6773000000000002
 20
-1.0114800000000002
 30
0.0
 10
2.46902
 20
-1.2299200000000001
 30
0.0
 10
2.46902
 20
-1.2299200000000001
 30
0.0
 10
2.46902
 20
-1.2299200000000001
 30
0.0
 10
2.5884
 20
-0.7473200000000001
 30
0.0
 10
2.5884
 20
-0.7473200000000001
 30
0.0
 10
2.5884
 20
-0.7473200000000001
 30
0.0
 10
3.0811600000000001
 20
-0.6254000000000001
 30
0.0
 10
2.9795600000000002
 20
-0.03612
 30
0.0
 10
2.75604
 20
0.28391
 30
0.0
  0
SPLINE
  5
2F
100
AcDbEntity
  8
Ebene 1
100
AcDbSpline
210
0.0
220
0.0
230
1.0
 70
     1
 71
     3
 72
    44
 73
    40
 74
     0
 42
0.0000000001
 43
0.0000000001
 40
0.0
 40
0.0
 40
0.0
 40
0.0
 40
0.1
 40
0.1
 40
0.1
 40
0.1
 40
0.2
 40
0.2
 40
0.2
 40
0.2
 40
0.3
 40
0.3
 40
0.3
 40
0.3
 40
0.4
 40
0.4
 40
0.4
 40
0.4
 40
0.5
 40
0.5
 40
0.5
 40
0.5
 40
0.6
 40
0.6
 40
0.6
 40
0.6
 40
0.7
 40
0.7
 40
0.7
 40
0.7
 40
0.7999999999999999
 40
0.7999999999999999
 40
0.7999999999999999
 40
0.7999999999999999
 40
0.8999999999999999
 40
0.8999999999999999
 40
0.8999999999999999
 40
0.8999999999999999
 40
1.0
 40
1.0
 40
1.0
 40
1.0
 10
3.8431600000000001
 20
-2.5329400000000004
 30
0.0
 10
3.6577400000000004
 20
-2.3703800000000004
 30
0.0
 10
3.5358200000000002
 20
-2.1265400000000003
 30
0.0
 10
3.4570800000000004
 20
-1.8979400000000002
 30
0.0
 10
3.4570800000000004
 20
-1.8979400000000002
 30
0.0
 10
3.4570800000000004
 20
-1.7176000000000002
 30
0.0
 10
3.3631000000000002
 20
-1.4712200000000002
 30
0.0
 10
3.4799400000000005
 20
-1.3493000000000002
 30
0.0
 10
3.4799400000000005
 20
-1.3493000000000002
 30
0.0
 10
3.5815400000000004
 20
-1.6668000000000001
 30
0.0
 10
3.9396800000000005
 20
-1.9055600000000001
 30
0.0
 10
4.1530400000000007
 20
-2.1773400000000001
 30
0.0
 10
4.1530400000000007
 20
-2.1773400000000001
 30
0.0
 10
4.2521000000000004
 20
-2.81996
 30
0.0
 10
4.3943400000000006
 20
-3.4422600000000001
 30
0.0
 10
4.3740200000000007
 20
-4.0798000000000005
 30
0.0
 10
4.3740200000000007
 20
-4.0798000000000005
 30
0.0
 10
4.1911400000000008
 20
-3.8969200000000002
 30
0.0
 10
4.1251000000000007
 20
-3.5413200000000002
 30
0.0
 10
4.0641400000000001
 20
-3.2568400000000004
 30
0.0
 10
4.0641400000000001
 20
-3.2568400000000004
 30
0.0
 10
4.1809799999999999
 20
-3.3000200000000004
 30
0.0
 10
4.1632000000000007
 20
-3.5006800000000005
 30
0.0
 10
4.2317800000000005
 20
-3.5845000000000002
 30
0.0
 10
4.2317800000000005
 20
-3.5845000000000002
 30
0.0
 10
4.2317800000000005
 20
-3.5845000000000002
 30
0.0
 10
4.0565199999999999
 20
-2.2941800000000003
 30
0.0
 10
4.0565199999999999
 20
-2.2941800000000003
 30
0.0
 10
4.0565199999999999
 20
-2.2941800000000003
 30
0.0
 10
3.9473000000000003
 20
-2.1036800000000002
 30
0.0
 10
3.7568000000000001
 20
-1.9436600000000002
 30
0.0
 10
3.5790000000000002
 20
-1.79634
 30
0.0
 10
3.5790000000000002
 20
-1.79634
 30
0.0
 10
3.5739200000000002
 20
-1.9055600000000001
 30
0.0
 10
3.5942400000000001
 20
-2.0122400000000003
 30
0.0
 10
3.6399600000000003
 20
-2.0986000000000002
 30
0.0
 10
3.6399600000000003
 20
-2.0986000000000002
 30
0.0
 10
3.6399600000000003
 20
-2.0986000000000002
 30
0.0
 10
3.8431600000000001
 20
-2.5329400000000004
 30
0.0
 10
3.8431600000000001
 20
-2.5329400000000004
 30
0.0
  0
SPLINE
  5
30
100
AcDbEntity
  8
Ebene 1
100
AcDbSpline
210
0.0
220
0.0
230
1.0
 70
     1
 71
     3
 72
    32
 73
    28
 74
     0
 42
0.0000000001
 43
0.0000000001
 40
0.0
 40
0.0
 40
0.0
 40
0.0
 40
0.1428571428571429
 40
0.1428571428571429
 40
0.1428571428571429
 40
0.1428571428571429
 40
0.2857142857142857
 40
0.2857142857142857
 40
0.2857142857142857
 40
0.2857142857142857
 40
0.4285714285714286
 40
0.4285714285714286
 40
0.4285714285714286
 40
0.4285714285714286
 40
0.5714285714285714
 40
0.5714285714285714
 40
0.5714285714285714
 40
0.5714285714285714
 40
0.7142857142857142
 40
0.7142857142857142
 40
0.7142857142857142
 40
0.7142857142857142
 40
0.857142857142857
 40
0.857142857142857
 40
0.857142857142857
 40
0.857142857142857
 40
1.0
 40
1.0
 40
1.0
 40
1.0
 10
2.05246
 20
-1.6515600000000001
 30
0.0
 10
2.4106000000000001
 20
-1.6363200000000002
 30
0.0
 10
2.6900000000000004
 20
-1.8623800000000001
 30
0.0
 10
2.9795600000000002
 20
-2.0706600000000002
 30
0.0
 10
2.9795600000000002
 20
-2.0706600000000002
 30
0.0
 10
3.1675200000000001
 20
-2.1798800000000003
 30
0.0
 10
3.4520000000000004
 20
-2.57104
 30
0.0
 10
3.1497400000000004
 20
-2.69042
 30
0.0
 10
3.1497400000000004
 20
-2.69042
 30
0.0
 10
3.1878400000000005
 20
-2.6320000000000001
 30
0.0
 10
3.2157800000000001
 20
-2.5558000000000001
 30
0.0
 10
3.2208600000000001
 20
-2.48468
 30
0.0
 10
3.2208600000000001
 20
-2.48468
 30
0.0
 10
2.8982800000000002
 20
-2.1163800000000004
 30
0.0
 10
2.4334600000000002
 20
-1.7430000000000001
 30
0.0
 10
1.9026000000000001
 20
-1.8115800000000002
 30
0.0
 10
1.9026000000000001
 20
-1.8115800000000002
 30
0.0
 10
1.6257400000000002
 20
-1.9284200000000002
 30
0.0
 10
1.4504800000000002
 20
-2.2002000000000002
 30
0.0
 10
1.3869800000000001
 20
-2.4796
 30
0.0
 10
1.3869800000000001
 20
-2.4796
 30
0.0
 10
1.3006200000000001
 20
-2.36022
 30
0.0
 10
1.3742800000000002
 20
-2.1519400000000002
 30
0.0
 10
1.4555600000000002
 20
-2.0173200000000002
 30
0.0
 10
1.4555600000000002
 20
-2.0173200000000002
 30
0.0
 10
1.56732
 20
-1.7887200000000001
 30
0.0
 10
1.8441800000000002
 20
-1.7252200000000002
 30
0.0
 10
2.05246
 20
-1.6515600000000001
 30
0.0
  0
SPLINE
  5
31
100
AcDbEntity
  8
Ebene 1
100
AcDbSpline
210
0.0
220
0.0
230
1.0
 70
     1
 71
     3
 72
    20
 73
    16
 74
     0
 42
0.0000000001
 43
0.0000000001
 40
0.0
 40
0.0
 40
0.0
 40
0.0
 40
0.25
 40
0.25
 40
0.25
 40
0.25
 40
0.5
 40
0.5
 40
0.5
 40
0.5
 40
0.75
 40
0.75
 40
0.75
 40
0.75
 40
1.0
 40
1.0
 40
1.0
 40
1.0
 10
2.0067400000000002
 20
-2.1113
 30
0.0
 10
2.2455000000000003
 20
-2.0503400000000003
 30
0.0
 10
2.4410800000000004
 20
-2.3043400000000003
 30
0.0
 10
2.5147400000000002
 20
-2.4973800000000002
 30
0.0
 10
2.5147400000000002
 20
-2.4973800000000002
 30
0.0
 10
2.5299800000000001
 20
-2.6421600000000001
 30
0.0
 10
2.63158
 20
-2.73868
 30
0.0
 10
2.7230200000000004
 20
-2.8225000000000002
 30
0.0
 10
2.7230200000000004
 20
-2.8225000000000002
 30
0.0
 10
2.7230200000000004
 20
-2.8225000000000002
 30
0.0
 10
1.5851000000000002
 20
-2.5862800000000004
 30
0.0
 10
1.5851000000000002
 20
-2.5862800000000004
 30
0.0
 10
1.5851000000000002
 20
-2.5862800000000004
 30
0.0
 10
1.5520800000000001
 20
-2.3348200000000001
 30
0.0
 10
1.8060800000000001
 20
-2.18242
 30
0.0
 10
2.0067400000000002
 20
-2.1113
 30
0.0
  0
SPLINE
  5
32
100
AcDbEntity
  8
Ebene 1
100
AcDbSpline
210
0.0
220
0.0
230
1.0
 70
     1
 71
     3
 72
    32
 73
    28
 74
     0
 42
0.0000000001
 43
0.0000000001
 40
0.0
 40
0.0
 40
0.0
 40
0.0
 40
0.1428571428571429
 40
0.1428571428571429
 40
0.1428571428571429
 40
0.1428571428571429
 40
0.2857142857142857
 40
0.2857142857142857
 40
0.2857142857142857
 40
0.2857142857142857
 40
0.4285714285714286
 40
0.4285714285714286
 40
0.4285714285714286
 40
0.4285714285714286
 40
0.5714285714285714
 40
0.5714285714285714
 40
0.5714285714285714
 40
0.5714285714285714
 40
0.7142857142857142
 40
0.7142857142857142
 40
0.7142857142857142
 40
0.7142857142857142
 40
0.857142857142857
 40
0.857142857142857
 40
0.857142857142857
 40
0.857142857142857
 40
1.0
 40
1.0
 40
1.0
 40
1.0
 10
3.2157800000000001
 20
-2.9926800000000005
 30
0.0
 10
3.3605600000000004
 20
-3.0155400000000001
 30
0.0
 10
3.3402400000000001
 20
-3.2543000000000002
 30
0.0
 10
3.4443800000000002
 20
-3.3330400000000004
 30
0.0
 10
3.4443800000000002
 20
-3.3330400000000004
 30
0.0
 10
3.4443800000000002
 20
-3.3330400000000004
 30
0.0
 10
3.4901000000000004
 20
-3.4219400000000002
 30
0.0
 10
3.4901000000000004
 20
-3.4219400000000002
 30
0.0
 10
3.4901000000000004
 20
-3.4219400000000002
 30
0.0
 10
3.5536000000000003
 20
-3.4879800000000003
 30
0.0
 10
3.4824800000000002
 20
-3.5489400000000004
 30
0.0
 10
3.4494600000000002
 20
-3.4600400000000002
 30
0.0
 10
3.4494600000000002
 20
-3.4600400000000002
 30
0.0
 10
3.2945200000000003
 20
-3.0765000000000002
 30
0.0
 10
2.8982800000000002
 20
-3.3863800000000004
 30
0.0
 10
2.63158
 20
-3.2670000000000003
 30
0.0
 10
2.63158
 20
-3.2670000000000003
 30
0.0
 10
2.6138000000000003
 20
-3.2492200000000002
 30
0.0
 10
2.63158
 20
-3.2289000000000003
 30
0.0
 10
2.6442800000000002
 20
-3.2111200000000002
 30
0.0
 10
2.6442800000000002
 20
-3.2111200000000002
 30
0.0
 10
2.7103200000000003
 20
-3.2238200000000004
 30
0.0
 10
2.7814400000000004
 20
-3.2517600000000004
 30
0.0
 10
2.8576400000000004
 20
-3.2263600000000001
 30
0.0
 10
2.8576400000000004
 20
-3.2263600000000001
 30
0.0
 10
3.0024200000000003
 20
-3.2136600000000004
 30
0.0
 10
3.1421200000000002
 20
-3.1273000000000004
 30
0.0
 10
3.2157800000000001
 20
-2.9926800000000005
 30
0.0
  0
SPLINE
  5
33
100
AcDbEntity
  8
Ebene 1
 62
     7
100
AcDbSpline
210
0.0
220
0.0
230
1.0
 70
     1
 71
     3
 72
    12
 73
     8
 74
     0
 42
0.0000000001
 43
0.0000000001
 40
0.0
 40
0.0
 40
0.0
 40
0.0
 40
0.5
 40
0.5
 40
0.5
 40
0.5
 40
1.0
 40
1.0
 40
1.0
 40
1.0
 10
0.9170800000000001
 20
-3.2670000000000003
 30
0.0
 10
1.2295
 20
-3.2187400000000004
 30
0.0
 10
1.0567800000000001
 20
-3.6734000000000004
 30
0.0
 10
0.83072
 20
-3.6226000000000003
 30
0.0
 10
0.83072
 20
-3.6226000000000003
 30
0.0
 10
0.83072
 20
-3.6226000000000003
 30
0.0
 10
0.9170800000000001
 20
-3.2670000000000003
 30
0.0
 10
0.9170800000000001
 20
-3.2670000000000003
 30
0.0
  0
SPLINE
  5
34
100
AcDbEntity
  8
Ebene 1
 62
     7
100
AcDbSpline
210
0.0
220
0.0
230
1.0
 70
     1
 71
     3
 72
    12
 73
     8
 74
     0
 42
0.0000000001
 43
0.0000000001
 40
0.0
 40
0.0
 40
0.0
 40
0.0
 40
0.5
 40
0.5
 40
0.5
 40
0.5
 40
1.0
 40
1.0
 40
1.0
 40
1.0
 10
1.3006200000000001
 20
-3.2873200000000002
 30
0.0
 10
1.5876400000000002
 20
-3.4041600000000001
 30
0.0
 10
1.3793600000000001
 20
-3.7496000000000005
 30
0.0
 10
1.2193400000000001
 20
-3.8918400000000002
 30
0.0
 10
1.2193400000000001
 20
-3.8918400000000002
 30
0.0
 10
1.1761600000000001
 20
-3.6784800000000004
 30
0.0
 10
1.15076
 20
-3.4651200000000002
 30
0.0
 10
1.3006200000000001
 20
-3.2873200000000002
 30
0.0
  0
SPLINE
  5
35
100
AcDbEntity
  8
Ebene 1
 62
     7
100
AcDbSpline
210
0.0
220
0.0
230
1.0
 70
     1
 71
     3
 72
    16
 73
    12
 74
     0
 42
0.0000000001
 43
0.0000000001
 40
0.0
 40
0.0
 40
0.0
 40
0.0
 40
0.3333333333333333
 40
0.3333333333333333
 40
0.3333333333333333
 40
0.3333333333333333
 40
0.6666666666666666
 40
0.6666666666666666
 40
0.6666666666666666
 40
0.6666666666666666
 40
1.0
 40
1.0
 40
1.0
 40
1.0
 10
2.2175600000000002
 20
-3.5794200000000003
 30
0.0
 10
2.2861400000000001
 20
-3.5718000000000001
 30
0.0
 10
2.3547200000000004
 20
-3.5489400000000004
 30
0.0
 10
2.41568
 20
-3.5768800000000005
 30
0.0
 10
2.41568
 20
-3.5768800000000005
 30
0.0
 10
2.54522
 20
-3.8207200000000001
 30
0.0
 10
2.5274400000000004
 20
-4.1306000000000003
 30
0.0
 10
2.42076
 20
-4.3592000000000004
 30
0.0
 10
2.42076
 20
-4.3592000000000004
 30
0.0
 10
2.2251800000000004
 20
-4.1610800000000001
 30
0.0
 10
2.16676
 20
-3.8562800000000004
 30
0.0
 10
2.2175600000000002
 20
-3.5794200000000003
 30
0.0
  0
SPLINE
  5
36
100
AcDbEntity
  8
Ebene 1
 62
     7
100
AcDbSpline
210
0.0
220
0.0
230
1.0
 70
     1
 71
     3
 72
    12
 73
     8
 74
     0
 42
0.0000000001
 43
0.0000000001
 40
0.0
 40
0.0
 40
0.0
 40
0.0
 40
0.5
 40
0.5
 40
0.5
 40
0.5
 40
1.0
 40
1.0
 40
1.0
 40
1.0
 10
4.8947200000000004
 20
-3.3965400000000003
 30
0.0
 10
4.9531400000000003
 20
-3.4092400000000005
 30
0.0
 10
5.0242600000000008
 20
-3.5667200000000001
 30
0.0
 10
4.9328200000000004
 20
-3.6099000000000001
 30
0.0
 10
4.9328200000000004
 20
-3.6099000000000001
 30
0.0
 10
4.8744000000000005
 20
-3.5616400000000001
 30
0.0
 10
4.8693200000000001
 20
-3.4702000000000002
 30
0.0
 10
4.8947200000000004
 20
-3.3965400000000003
 30
0.0
  0
SPLINE
  5
37
100
AcDbEntity
  8
Ebene 1
 62
     7
100
AcDbSpline
210
0.0
220
0.0
230
1.0
 70
     1
 71
     3
 72
    20
 73
    16
 74
     0
 42
0.0000000001
 43
0.0000000001
 40
0.0
 40
0.0
 40
0.0
 40
0.0
 40
0.25
 40
0.25
 40
0.25
 40
0.25
 40
0.5
 40
0.5
 40
0.5
 40
0.5
 40
0.75
 40
0.75
 40
0.75
 40
0.75
 40
1.0
 40
1.0
 40
1.0
 40
1.0
 10
3.0176600000000002
 20
-4.1382200000000005
 30
0.0
 10
3.0176600000000002
 20
-4.1382200000000005
 30
0.0
 10
3.0659200000000002
 20
-4.13314
 30
0.0
 10
3.0659200000000002
 20
-4.13314
 30
0.0
 10
3.0659200000000002
 20
-4.13314
 30
0.0
 10
3.0659200000000002
 20
-4.13314
 30
0.0
 10
3.05322
 20
-4.51668
 30
0.0
 10
3.05322
 20
-4.51668
 30
0.0
 10
3.05322
 20
-4.51668
 30
0.0
 10
2.9389200000000004
 20
-4.4557200000000003
 30
0.0
 10
2.8805000000000001
 20
-4.31602
 30
0.0
 10
2.8652600000000001
 20
-4.1890200000000002
 30
0.0
 10
2.8652600000000001
 20
-4.1890200000000002
 30
0.0
 10
2.8652600000000001
 20
-4.1890200000000002
 30
0.0
 10
3.0176600000000002
 20
-4.1382200000000005
 30
0.0
 10
3.0176600000000002
 20
-4.1382200000000005
 30
0.0
  0
SPLINE
  5
38
100
AcDbEntity
  8
Ebene 1
 62
     7
100
AcDbSpline
210
0.0
220
0.0
230
1.0
 70
     1
 71
     3
 72
    12
 73
     8
 74
     0
 42
0.0000000001
 43
0.0000000001
 40
0.0
 40
0.0
 40
0.0
 40
0.0
 40
0.5
 40
0.5
 40
0.5
 40
0.5
 40
1.0
 40
1.0
 40
1.0
 40
1.0
 10
3.2081600000000003
 20
-4.2474400000000001
 30
0.0
 10
3.2742000000000004
 20
-4.3312600000000003
 30
0.0
 10
3.4799400000000005
 20
-4.40238
 30
0.0
 10
3.3605600000000004
 20
-4.5217600000000004
 30
0.0
 10
3.3605600000000004
 20
-4.5217600000000004
 30
0.0
 10
3.2869000000000002
 20
-4.4557200000000003
 30
0.0
 10
3.2310200000000004
 20
-4.35412
 30
0.0
 10
3.2081600000000003
 20
-4.2474400000000001
 30
0.0
  0
ENDSEC
  0
SECTION
  2
OBJECTS
  0
DICTIONARY
  5
19
100
AcDbDictionary
280
     0
281
     1
  3
ACAD_GROUP
350
1A
  3
ACAD_MLINESTYLE
350
1B
  3
ACAD_LAYOUT
350
1E
  3
ACAD_PLOTSETTINGS
350
22
  3
ACAD_PLOTSTYLENAME
350
1F
  3
ACAD_WIPEOUT_VARS
350
23
  0
DICTIONARY
  5
1A
102
{ACAD_REACTORS
330
19
102
}
100
AcDbDictionary
280
     0
281
     1
  0
DICTIONARY
  5
1B
102
{ACAD_REACTORS
330
19
102
}
100
AcDbDictionary
280
     0
281
     1
  3
Standard
350
1C
  0
MLINESTYLE
  5
1C
102
{ACAD_REACTORS
330
1B
102
}
100
AcDbMlineStyle
  2
Standard
 70
     0
  3

 62
     0
 51
90.0
 52
90.0
 71
     2
 49
0.5
 62
   256
  6
BYLAYER
 49
-0.5
 62
   256
  6
BYLAYER
  0
ACDBDICTIONARYWDFLT
  5
1F
102
{ACAD_REACTORS
330
19
102
}
100
AcDbDictionary
281
     1
  3
Normal
350
1D
100
AcDbDictionaryWithDefault
340
1D
  0
ACDBPLACEHOLDER
  5
1D
102
{ACAD_REACTORS
330
1F
102
}
  0
LAYOUT
  5
20
102
{ACAD_REACTORS
330
1E
102
}
100
AcDbPlotSettings
  1

  2

  4

  6

 40
0.0
 41
0.0
 42
0.0
 43
0.0
 44
0.0
 45
0.0
 46
0.0
 47
0.0
 48
0.0
 49
0.0
140
0.0
141
0.0
142
1.0
143
1.0
 70
  1024
 72
     0
 73
     0
 74
     0
  7

 75
     0
147
1.0
148
0.0
149
0.0
100
AcDbLayout
  1
Model
 70
     0
 71
     0
 10
0.0
 20
0.0
 11
0.0
 21
0.0
 12
0.0
 22
0.0
 32
0.0
 14
0.0
 24
0.0
 34
0.0
 15
0.0
 25
0.0
 35
0.0
146
0.0
 13
0.0
 23
0.0
 33
0.0
 16
0.0
 26
0.0
 36
0.0
 17
0.0
 27
0.0
 37
0.0
 76
     0
330
A
331
0
345
0
346
0
  0
LAYOUT
  5
21
102
{ACAD_REACTORS
330
1E
102
}
100
AcDbPlotSettings
  1

  2

  4

  6

 40
0.0
 41
0.0
 42
0.0
 43
0.0
 44
0.0
 45
0.0
 46
0.0
 47
0.0
 48
0.0
 49
0.0
140
0.0
141
0.0
142
1.0
143
1.0
 70
     0
 72
     0
 73
     0
 74
     0
  7

 75
     0
147
1.0
148
0.0
149
0.0
100
AcDbLayout
  1
Layout1
 70
     0
 71
     0
 10
0.0
 20
0.0
 11
0.0
 21
0.0
 12
0.0
 22
0.0
 32
0.0
 14
0.0
 24
0.0
 34
0.0
 15
0.0
 25
0.0
 35
0.0
146
0.0
 13
0.0
 23
0.0
 33
0.0
 16
0.0
 26
0.0
 36
0.0
 17
0.0
 27
0.0
 37
0.0
 76
     0
330
B
331
0
345
0
346
0
  0
DICTIONARY
  5
1E
102
{ACAD_REACTORS
330
19
102
}
100
AcDbDictionary
280
     0
281
     1
  3
Layout1
350
21
  3
Model
350
20
  0
DICTIONARY
  5
22
102
{ACAD_REACTORS
330
19
102
}
100
AcDbDictionary
280
     0
281
     1
  0
WIPEOUTVARIABLES
  5
23
100
AcDbWipeoutVariables
 70
     1
  0
ENDSEC
  0
EOF
