  0
SECTION
  2
HEADER
  9
$ACADVER
  1
AC1015
  9
$ACADMAINTVER
 70
     6
  9
$DWGCODEPAGE
  3
DOS850
  9
$INSBASE
 10
0.0
 20
0.0
 30
0.0
  9
$EXTMIN
 10
-4.84358
 20
-5.35488
 30
1.000000E+20
  9
$EXTMAX
 10
4.84893
 20
5.34957
 30
-1.000000E+20
  9
$LIMMIN
 10
0.0
 20
0.0
  9
$LIMMAX
 10
0.0
 20
0.0
  9
$ORTHOMODE
 70
     0
  9
$REGENMODE
 70
     1
  9
$FILLMODE
 70
     1
  9
$QTEXTMODE
 70
     0
  9
$MIRRTEXT
 70
     1
  9
$LTSCALE
 40
1.0
  9
$ATTMODE
 70
     1
  9
$TEXTSIZE
 40
0.2
  9
$TRACEWID
 40
0.05
  9
$TEXTSTYLE
  7
Standard
  9
$CLAYER
  8
0
  9
$CELTYPE
  6
Continuous
  9
$CECOLOR
 62
   256
  9
$CELTSCALE
 40
1.0
  9
$DISPSILH
 70
     0
  9
$DIMSCALE
 40
1.0
  9
$DIMASZ
 40
0.18
  9
$DIMEXO
 40
0.0625
  9
$DIMDLI
 40
0.38
  9
$DIMRND
 40
0.0
  9
$DIMDLE
 40
0.0
  9
$DIMEXE
 40
0.18
  9
$DIMTP
 40
0.0
  9
$DIMTM
 40
0.0
  9
$DIMTXT
 40
0.18
  9
$DIMCEN
 40
0.09
  9
$DIMTSZ
 40
0.0
  9
$DIMTOL
 70
     0
  9
$DIMLIM
 70
     0
  9
$DIMTIH
 70
     1
  9
$DIMTOH
 70
     1
  9
$DIMSE1
 70
     0
  9
$DIMSE2
 70
     0
  9
$DIMTAD
 70
     0
  9
$DIMZIN
 70
     0
  9
$DIMBLK
  1

  9
$DIMASO
 70
     1
  9
$DIMSHO
 70
     1
  9
$DIMPOST
  1

  9
$DIMAPOST
  1

  9
$DIMALT
 70
     0
  9
$DIMALTD
 70
     2
  9
$DIMALTF
 40
25.4
  9
$DIMLFAC
 40
1.0
  9
$DIMTOFL
 70
     0
  9
$DIMTVP
 40
0.0
  9
$DIMTIX
 70
     0
  9
$DIMSOXD
 70
     0
  9
$DIMSAH
 70
     0
  9
$DIMBLK1
  1

  9
$DIMBLK2
  1

  9
$DIMSTYLE
  2
Standard
  9
$DIMCLRD
 70
     0
  9
$DIMCLRE
 70
     0
  9
$DIMCLRT
 70
     0
  9
$DIMTFAC
 40
1.0
  9
$DIMGAP
 40
0.09
  9
$DIMJUST
 70
     0
  9
$DIMSD1
 70
     0
  9
$DIMSD2
 70
     0
  9
$DIMTOLJ
 70
     1
  9
$DIMTZIN
 70
     0
  9
$DIMALTZ
 70
     0
  9
$DIMALTTZ
 70
     0
  9
$DIMUPT
 70
     0
  9
$DIMDEC
 70
     4
  9
$DIMTDEC
 70
     4
  9
$DIMALTU
 70
     2
  9
$DIMALTTD
 70
     2
  9
$DIMTXSTY
  7
Standard
  9
$DIMAUNIT
 70
     0
  9
$DIMADEC
 70
     0
  9
$DIMALTRND
 40
0.0
  9
$DIMAZIN
 70
     0
  9
$DIMDSEP
 70
     0
  9
$DIMATFIT
 70
     3
  9
$DIMFRAC
 70
     0
  9
$DIMLDRBLK
  1

  9
$DIMLUNIT
 70
     2
  9
$DIMLWD
 70
     0
  9
$DIMLWE
 70
     0
  9
$DIMTMOVE
 70
     0
  9
$LUNITS
 70
     2
  9
$LUPREC
 70
     4
  9
$SKETCHINC
 40
0.1
  9
$FILLETRAD
 40
0.0
  9
$AUNITS
 70
     0
  9
$AUPREC
 70
     0
  9
$MENU
  1
acad
  9
$ELEVATION
 40
0.0
  9
$PELEVATION
 40
0.0
  9
$THICKNESS
 40
0.0
  9
$LIMCHECK
 70
     0
  9
$CHAMFERA
 40
0.0
  9
$CHAMFERB
 40
0.0
  9
$CHAMFERC
 40
0.0
  9
$CHAMFERD
 40
0.0
  9
$SKPOLY
 70
     0
  9
$TDCREATE
 40
0.000000000
  9
$TDUCREATE
 40
0.000000000
  9
$TDUPDATE
 40
0.000000000
  9
$TDUUPDATE
 40
0.000000000
  9
$TDINDWG
 40
0.0000000000
  9
$TDUSRTIMER
 40
0.0000000000
  9
$USRTIMER
 70
     1
  9
$ANGBASE
 50
0.0
  9
$ANGDIR
 70
     0
  9
$PDMODE
 70
     0
  9
$PDSIZE
 40
0.0
  9
$PLINEWID
 40
0.0
  9
$SPLFRAME
 70
     0
  9
$SPLINETYPE
 70
     6
  9
$SPLINESEGS
 70
     8
  9
$HANDSEED
  5
36
  9
$SURFTAB1
 70
     6
  9
$SURFTAB2
 70
     6
  9
$SURFTYPE
 70
     6
  9
$SURFU
 70
     6
  9
$SURFV
 70
     6
  9
$UCSBASE
  2

  9
$UCSNAME
  2

  9
$UCSORG
 10
0.0
 20
0.0
 30
0.0
  9
$UCSXDIR
 10
1.0
 20
0.0
 30
0.0
  9
$UCSYDIR
 10
0.0
 20
1.0
 30
0.0
  9
$UCSORTHOREF
  2

  9
$UCSORTHOVIEW
 70
     0
  9
$UCSORGTOP
 10
0.0
 20
0.0
 30
0.0
  9
$UCSORGBOTTOM
 10
0.0
 20
0.0
 30
0.0
  9
$UCSORGLEFT
 10
0.0
 20
0.0
 30
0.0
  9
$UCSORGRIGHT
 10
0.0
 20
0.0
 30
0.0
  9
$UCSORGFRONT
 10
0.0
 20
0.0
 30
0.0
  9
$UCSORGBACK
 10
0.0
 20
0.0
 30
0.0
  9
$PUCSBASE
  2

  9
$PUCSNAME
  2

  9
$PUCSORG
 10
0.0
 20
0.0
 30
0.0
  9
$PUCSXDIR
 10
1.0
 20
0.0
 30
0.0
  9
$PUCSYDIR
 10
0.0
 20
1.0
 30
0.0
  9
$PUCSORTHOREF
  2

  9
$PUCSORTHOVIEW
 70
     0
  9
$PUCSORGTOP
 10
0.0
 20
0.0
 30
0.0
  9
$PUCSORGBOTTOM
 10
0.0
 20
0.0
 30
0.0
  9
$PUCSORGLEFT
 10
0.0
 20
0.0
 30
0.0
  9
$PUCSORGRIGHT
 10
0.0
 20
0.0
 30
0.0
  9
$PUCSORGFRONT
 10
0.0
 20
0.0
 30
0.0
  9
$PUCSORGBACK
 10
0.0
 20
0.0
 30
0.0
  9
$USERI1
 70
     0
  9
$USERI2
 70
     0
  9
$USERI3
 70
     0
  9
$USERI4
 70
     0
  9
$USERI5
 70
     0
  9
$USERR1
 40
0.0
  9
$USERR2
 40
0.0
  9
$USERR3
 40
0.0
  9
$USERR4
 40
0.0
  9
$USERR5
 40
0.0
  9
$WORLDVIEW
 70
     1
  9
$SHADEDGE
 70
     3
  9
$SHADEDIF
 70
    70
  9
$TILEMODE
 70
     1
  9
$MAXACTVP
 70
    16
  9
$PINSBASE
 10
0.0
 20
0.0
 30
0.0
  9
$PLIMCHECK
 70
     0
  9
$PEXTMIN
 10
1.000000E+20
 20
1.000000E+20
 30
1.000000E+20
  9
$PEXTMAX
 10
-1.000000E+20
 20
-1.000000E+20
 30
-1.000000E+20
  9
$PLIMMIN
 10
0.0
 20
0.0
  9
$PLIMMAX
 10
12.0
 20
9.0
  9
$UNITMODE
 70
     0
  9
$VISRETAIN
 70
     0
  9
$PLINEGEN
 70
     1
  9
$PSLTSCALE
 70
     0
  9
$TREEDEPTH
 70
  3020
  9
$CMLSTYLE
  2
Standard
  9
$CMLJUST
 70
     0
  9
$CMLSCALE
 40
1.0
  9
$PROXYGRAPHICS
 70
     0
  9
$MEASUREMENT
 70
     0
  9
$CELWEIGHT
370
     0
  9
$ENDCAPS
280
     0
  9
$JOINSTYLE
280
     0
  9
$LWDISPLAY
290
     0
  9
$INSUNITS
 70
     5
  9
$HYPERLINKBASE
  1

  9
$XEDIT
290
     1
  9
$CEPSNTYPE
380
     0
  9
$PSTYLEMODE
290
     1
  9
$FINGERPRINTGUID
  2

  9
$VERSIONGUID
  2

  9
$EXTNAMES
290
     1
  9
$PSVPSCALE
 40
0.0
  0
ENDSEC
  0
SECTION
  2
CLASSES
  0
CLASS
  1
LWPOLYLINE
  2
AcDbPolyline
  3
AutoCAD 2000
 90
    32768
280
     0
281
     1
  0
CLASS
  1
IMAGE
  2
AcDbRasterImage
  3
ISM
 90
    32895
280
     0
281
     1
  0
CLASS
  1
OLE2FRAME
  2
AcDbOle2Frame
  3
AutoCAD 2000
 90
    32768
280
     0
281
     1
  0
CLASS
  1
HATCH
  2
AcDbHatch
  3
AutoCAD 2000
 90
    32768
280
     0
281
     1
  0
CLASS
  1
DICTIONARYVAR
  2
AcDbDictionaryVar
  3
AutoCAD 2000
 90
    32768
280
     0
281
     0
  0
CLASS
  1
RASTERVARIABLES
  2
AcDbRasterVariables
  3
ISM
 90
    32768
280
     0
281
     0
  0
CLASS
  1
IMAGEDEF
  2
AcDbRasterImageDef
  3
ISM
 90
    32768
280
     0
281
     0
  0
CLASS
  1
IMAGEDEF_REACTOR
  2
AcDbRasterImageDefReactor
  3
ISM
 90
    32769
280
     0
281
     0
  0
CLASS
  1
IDBUFFER
  2
AcDbIdBuffer
  3
AutoCAD 2000
 90
    32768
280
     0
281
     0
  0
CLASS
  1
SPATIAL_FILTER
  2
AcDbSpatialFilter
  3
AutoCAD 2000
 90
    32768
280
     0
281
     0
  0
CLASS
  1
XRECORD
  2
AcDbXrecord
  3
AutoCAD 2000
 90
    32768
280
     0
281
     0
  0
CLASS
  1
SORTENTSTABLE
  2
AcDbSortentsTable
  3
AutoCAD 2000
 90
    32768
280
     0
281
     0
  0
CLASS
  1
LAYER_INDEX
  2
AcDbLayerIndex
  3
AutoCAD 2000
 90
    32768
280
     0
281
     0
  0
CLASS
  1
SPATIAL_INDEX
  2
AcDbSpatialIndex
  3
AutoCAD 2000
 90
    32768
280
     0
281
     0
  0
CLASS
  1
OBJECT_PTR
  2
CAseDLPNTableRecord
  3
"ASE-LPNTableRecord"
 90
    32769
280
     0
281
     0
  0
CLASS
  1
LAYOUT
  2
AcDbLayout
  3
AutoCAD 2000
 90
        0
280
     0
281
     0
  0
CLASS
  1
PLOTSETTINGS
  2
AcDbPlotSettings
  3
AutoCAD 2000
 90
    32768
280
     0
281
     0
  0
CLASS
  1
ACDBDICTIONARYWDFLT
  2
AcDbDictionaryWithDefault
  3
AutoCAD 2000
 90
        0
280
     0
281
     0
  0
CLASS
  1
ACDBPLACEHOLDER
  2
AcDbPlaceHolder
  3
AutoCAD 2000
 90
        0
280
     0
281
     0
  0
CLASS
  1
VBA_PROJECT
  2
AcDbVbaProject
  3
acadvba
 90
    32768
280
     0
281
     0
  0
CLASS
  1
WIPEOUT
  2
AcDbWipeout
  3
WipeOut|AutoCAD Express Tool|expresstools@autodesk.com
 90
    32895
280
     0
281
     1
  0
CLASS
  1
WIPEOUTVARIABLES
  2
AcDbWipeoutVariables
  3
WipeOut|AutoCAD Express Tool|expresstools@autodesk.com
 90
        0
280
     0
281
     0
  0
CLASS
  1
RTEXT
  2
RText
  3
RText|AutoCAD Express Tool|expresstools@autodesk.com
 90
    32768
280
     0
281
     1
  0
CLASS
  1
ARCALIGNEDTEXT
  2
AcDbArcAlignedText
  3
ATEXT|AutoCAD Express Tool|expresstools@autodesk.com
 90
    32768
280
     0
281
     1
  0
ENDSEC
  0
SECTION
  2
TABLES
  0
TABLE
  2
VPORT
  5
7
100
AcDbSymbolTable
 70
     1
  0
VPORT
  5
15
100
AcDbSymbolTableRecord
100
AcDbViewportTableRecord
  2
*ACTIVE
 70
     0
 10
0.0
 20
0.0
 11
1.0
 21
1.0
 12
6.591288
 22
4.579184
 13
0.0
 23
0.0
 14
1.0
 24
1.0
 15
0.0
 25
0.0
 16
0.0
 26
0.0
 36
1.0
 17
0.0
 27
0.0
 37
0.0
 40
9.158369
 41
0.688564
 42
50.0
 43
0.0
 44
0.0
 50
0.0
 51
0.0
 71
     0
 72
   100
 73
     1
 74
     1
 75
     0
 76
     0
 77
     0
 78
     0
281
     0
 65
     0
110
0.0
120
0.0
130
0.0
111
1.0
121
0.0
131
0.0
112
0.0
122
1.0
132
0.0
345
0
346
0
 79
     0
146
0.0
  0
ENDTAB
  0
TABLE
  2
LTYPE
  5
4
100
AcDbSymbolTable
 70
     3
  0
LTYPE
  5
11
100
AcDbSymbolTableRecord
100
AcDbLinetypeTableRecord
  2
ByBlock
 70
    64
  3

 72
    65
 73
     0
 40
0.0
  0
LTYPE
  5
12
100
AcDbSymbolTableRecord
100
AcDbLinetypeTableRecord
  2
ByLayer
 70
    64
  3

 72
    65
 73
     0
 40
0.0
  0
LTYPE
  5
13
100
AcDbSymbolTableRecord
100
AcDbLinetypeTableRecord
  2
Continuous
 70
    64
  3
Solid line
 72
    65
 73
     0
 40
0.0
  0
ENDTAB
  0
TABLE
  2
LAYER
  5
2
100
AcDbSymbolTable
 70
     2
  0
LAYER
  5
14
100
AcDbSymbolTableRecord
100
AcDbLayerTableRecord
  2
0
 70
     0
 62
     7
  6
Continuous
290
     1
370
    -3
390
1D
  0
LAYER
  5
24
100
AcDbSymbolTableRecord
100
AcDbLayerTableRecord
  2
Ebene 1
 70
     0
 62
     7
  6
Continuous
290
     1
370
    -3
390
1F
  0
ENDTAB
  0
TABLE
  2
STYLE
  5
3
100
AcDbSymbolTable
 70
     1
  0
STYLE
  5
17
100
AcDbSymbolTableRecord
100
AcDbTextStyleTableRecord
  2
Standard
 70
     0
 40
0.0
 41
1.0
 50
0.0
 71
     0
 42
0.0
  3
txt
  4

  0
ENDTAB
  0
TABLE
  2
VIEW
  5
5
100
AcDbSymbolTable
 70
     0
  0
ENDTAB
  0
TABLE
  2
UCS
  5
6
100
AcDbSymbolTable
 70
     0
  0
ENDTAB
  0
TABLE
  2
APPID
  5
8
100
AcDbSymbolTable
 70
     1
  0
APPID
  5
16
100
AcDbSymbolTableRecord
100
AcDbRegAppTableRecord
  2
ACAD
 70
     0
  0
ENDTAB
  0
TABLE
  2
DIMSTYLE
  5
9
100
AcDbSymbolTable
 70
     1
100
AcDbDimStyleTable
 71
     0
  0
DIMSTYLE
105
18
100
AcDbSymbolTableRecord
100
AcDbDimStyleTableRecord
  2
Standard
 70
     0
  3

  4

 40
1.0
 41
0.18
 42
0.0625
 43
0.38
 44
0.18
 45
0.0
 46
0.0
 47
0.0
 48
0.0
 71
     0
 72
     0
 73
     1
 74
     1
 75
     0
 76
     0
 77
     0
 78
     0
 79
     0
140
0.18
141
0.09
142
0.0
143
25.4
144
1.0
145
0.0
146
1.0
147
0.09
148
0.0
170
     0
171
     2
172
     0
173
     0
174
     0
175
     0
176
     0
177
     0
178
     0
179
     0
271
     4
272
     4
273
     2
274
     2
275
     0
276
     0
277
     2
278
    46
279
     0
280
     0
281
     0
282
     0
283
     1
284
     0
285
     0
286
     0
288
     0
340
17
341
0
342
0
343
0
344
0
371
    -2
372
    -2
  0
ENDTAB
  0
TABLE
  2
BLOCK_RECORD
  5
1
100
AcDbSymbolTable
 70
     0
  0
BLOCK_RECORD
  5
A
100
AcDbSymbolTableRecord
100
AcDbBlockTableRecord
  2
*MODEL_SPACE
340
20
  0
BLOCK_RECORD
  5
B
100
AcDbSymbolTableRecord
100
AcDbBlockTableRecord
  2
*PAPER_SPACE
340
21
  0
ENDTAB
  0
ENDSEC
  0
SECTION
  2
BLOCKS
  0
BLOCK
  5
D
100
AcDbEntity
  8
0
100
AcDbBlockBegin
  2
*MODEL_SPACE
 70
     0
 10
0.0
 20
0.0
 30
0.0
  3
*MODEL_SPACE
  1

  0
ENDBLK
  5
E
100
AcDbEntity
  8
0
100
AcDbBlockEnd
  0
BLOCK
  5
F
100
AcDbEntity
 67
     1
  8
0
100
AcDbBlockBegin
  2
*PAPER_SPACE
 70
     0
 10
0.0
 20
0.0
 30
0.0
  3
*PAPER_SPACE
  1

  0
ENDBLK
  5
10
100
AcDbEntity
 67
     1
  8
0
100
AcDbBlockEnd
  0
ENDSEC
  0
SECTION
  2
ENTITIES
  0
SPLINE
  5
25
100
AcDbEntity
  8
Ebene 1
100
AcDbSpline
210
0.0
220
0.0
230
1.0
 70
     1
 71
     3
 72
   116
 73
   112
 74
     0
 42
0.0000000001
 43
0.0000000001
 40
0.0
 40
0.0
 40
0.0
 40
0.0
 40
0.0357142857142857
 40
0.0357142857142857
 40
0.0357142857142857
 40
0.0357142857142857
 40
0.0714285714285714
 40
0.0714285714285714
 40
0.0714285714285714
 40
0.0714285714285714
 40
0.1071428571428571
 40
0.1071428571428571
 40
0.1071428571428571
 40
0.1071428571428571
 40
0.1428571428571429
 40
0.1428571428571429
 40
0.1428571428571429
 40
0.1428571428571429
 40
0.1785714285714286
 40
0.1785714285714286
 40
0.1785714285714286
 40
0.1785714285714286
 40
0.2142857142857143
 40
0.2142857142857143
 40
0.2142857142857143
 40
0.2142857142857143
 40
0.2499999999999999
 40
0.2499999999999999
 40
0.2499999999999999
 40
0.2499999999999999
 40
0.2857142857142856
 40
0.2857142857142856
 40
0.2857142857142856
 40
0.2857142857142856
 40
0.3214285714285713
 40
0.3214285714285713
 40
0.3214285714285713
 40
0.3214285714285713
 40
0.357142857142857
 40
0.357142857142857
 40
0.357142857142857
 40
0.357142857142857
 40
0.3928571428571427
 40
0.3928571428571427
 40
0.3928571428571427
 40
0.3928571428571427
 40
0.4285714285714284
 40
0.4285714285714284
 40
0.4285714285714284
 40
0.4285714285714284
 40
0.4642857142857141
 40
0.4642857142857141
 40
0.4642857142857141
 40
0.4642857142857141
 40
0.4999999999999998
 40
0.4999999999999998
 40
0.4999999999999998
 40
0.4999999999999998
 40
0.5357142857142856
 40
0.5357142857142856
 40
0.5357142857142856
 40
0.5357142857142856
 40
0.5714285714285713
 40
0.5714285714285713
 40
0.5714285714285713
 40
0.5714285714285713
 40
0.607142857142857
 40
0.607142857142857
 40
0.607142857142857
 40
0.607142857142857
 40
0.6428571428571427
 40
0.6428571428571427
 40
0.6428571428571427
 40
0.6428571428571427
 40
0.6785714285714284
 40
0.6785714285714284
 40
0.6785714285714284
 40
0.6785714285714284
 40
0.7142857142857141
 40
0.7142857142857141
 40
0.7142857142857141
 40
0.7142857142857141
 40
0.7499999999999998
 40
0.7499999999999998
 40
0.7499999999999998
 40
0.7499999999999998
 40
0.7857142857142855
 40
0.7857142857142855
 40
0.7857142857142855
 40
0.7857142857142855
 40
0.8214285714285712
 40
0.8214285714285712
 40
0.8214285714285712
 40
0.8214285714285712
 40
0.8571428571428569
 40
0.8571428571428569
 40
0.8571428571428569
 40
0.8571428571428569
 40
0.8928571428571426
 40
0.8928571428571426
 40
0.8928571428571426
 40
0.8928571428571426
 40
0.9285714285714283
 40
0.9285714285714283
 40
0.9285714285714283
 40
0.9285714285714283
 40
0.964285714285714
 40
0.964285714285714
 40
0.964285714285714
 40
0.964285714285714
 40
1.0
 40
1.0
 40
1.0
 40
1.0
 10
0.40654
 20
5.1530900000000006
 30
0.0
 10
1.9483200000000001
 20
5.6204500000000008
 30
0.0
 10
3.6704400000000001
 20
5.2597700000000005
 30
0.0
 10
4.7016800000000005
 20
4.0100899999999999
 30
0.0
 10
4.7016800000000005
 20
4.0100899999999999
 30
0.0
 10
4.9328200000000004
 20
2.5267300000000001
 30
0.0
 10
4.9887000000000006
 20
0.9087500000000001
 30
0.0
 10
4.1327199999999999
 20
-0.3739400000000001
 30
0.0
 10
4.1327199999999999
 20
-0.3739400000000001
 30
0.0
 10
3.8838000000000004
 20
-0.5111
 30
0.0
 10
3.6120200000000002
 20
-0.61016
 30
0.0
 10
3.3300800000000002
 20
-0.6076200000000001
 30
0.0
 10
3.3300800000000002
 20
-0.6076200000000001
 30
0.0
 10
3.3300800000000002
 20
-0.6076200000000001
 30
0.0
 10
2.5807800000000003
 20
-0.22154
 30
0.0
 10
2.5807800000000003
 20
-0.22154
 30
0.0
 10
2.5807800000000003
 20
-0.22154
 30
0.0
 10
2.2658200000000002
 20
-0.21392
 30
0.0
 10
1.9254600000000002
 20
-0.21138
 30
0.0
 10
1.6181200000000002
 20
-0.34854
 30
0.0
 10
1.6181200000000002
 20
-0.34854
 30
0.0
 10
1.6181200000000002
 20
-0.34854
 30
0.0
 10
1.27776
 20
-0.5847600000000001
 30
0.0
 10
1.27776
 20
-0.5847600000000001
 30
0.0
 10
1.27776
 20
-0.5847600000000001
 30
0.0
 10
1.7502000000000002
 20
-1.6795000000000002
 30
0.0
 10
-0.6018300000000001
 20
-1.8065000000000002
 30
0.0
 10
-0.34529
 20
-0.65842
 30
0.0
 10
-0.34529
 20
-0.65842
 30
0.0
 10
-0.4926100000000001
 20
-0.6660400000000001
 30
0.0
 10
-0.6424700000000001
 20
-0.71938
 30
0.0
 10
-0.7745500000000001
 20
-0.78288
 30
0.0
 10
-0.7745500000000001
 20
-0.78288
 30
0.0
 10
-1.0590300000000001
 20
-0.9429000000000001
 30
0.0
 10
-1.3257300000000001
 20
-1.1740400000000002
 30
0.0
 10
-1.4984500000000001
 20
-1.4712200000000002
 30
0.0
 10
-1.4984500000000001
 20
-1.4712200000000002
 30
0.0
 10
-1.3028700000000002
 20
-2.0300200000000004
 30
0.0
 10
-0.6653300000000001
 20
-2.3703800000000004
 30
0.0
 10
-0.9193300000000001
 20
-3.0587200000000001
 30
0.0
 10
-0.9193300000000001
 20
-3.0587200000000001
 30
0.0
 10
-0.99299
 20
-3.1806400000000004
 30
0.0
 10
-1.0488700000000002
 20
-3.0333200000000002
 30
0.0
 10
-1.1123700000000001
 20
-2.9876
 30
0.0
 10
-1.1123700000000001
 20
-2.9876
 30
0.0
 10
-1.1784100000000002
 20
-3.1247600000000002
 30
0.0
 10
-1.29779
 20
-3.3482800000000004
 30
0.0
 10
-1.46543
 20
-3.2289000000000003
 30
0.0
 10
-1.46543
 20
-3.2289000000000003
 30
0.0
 10
-1.7600700000000002
 20
-3.8943800000000004
 30
0.0
 10
-2.61097
 20
-3.8308800000000005
 30
0.0
 10
-2.6744700000000003
 20
-4.6182800000000004
 30
0.0
 10
-2.6744700000000003
 20
-4.6182800000000004
 30
0.0
 10
-2.85989
 20
-4.6817800000000007
 30
0.0
 10
-2.8141700000000003
 20
-4.3414200000000003
 30
0.0
 10
-2.9716500000000003
 20
-4.3236400000000001
 30
0.0
 10
-2.9716500000000003
 20
-4.3236400000000001
 30
0.0
 10
-2.9716500000000003
 20
-4.3236400000000001
 30
0.0
 10
-3.0453100000000002
 20
-4.6233600000000008
 30
0.0
 10
-3.0453100000000002
 20
-4.6233600000000008
 30
0.0
 10
-3.0453100000000002
 20
-4.6233600000000008
 30
0.0
 10
-3.1469100000000001
 20
-4.7402000000000006
 30
0.0
 10
-3.2586700000000004
 20
-4.6487600000000002
 30
0.0
 10
-3.3577300000000001
 20
-4.6005000000000003
 30
0.0
 10
-3.3577300000000001
 20
-4.6005000000000003
 30
0.0
 10
-3.4771100000000001
 20
-4.7630600000000003
 30
0.0
 10
-3.5152100000000002
 20
-5.0399200000000004
 30
0.0
 10
-3.7641300000000002
 20
-4.9129200000000006
 30
0.0
 10
-3.7641300000000002
 20
-4.9129200000000006
 30
0.0
 10
-3.8860500000000004
 20
-5.28376
 30
0.0
 10
-4.1400500000000005
 20
-5.1262800000000004
 30
0.0
 10
-4.3661099999999999
 20
-5.3472600000000003
 30
0.0
 10
-4.3661099999999999
 20
-5.3472600000000003
 30
0.0
 10
-4.3661099999999999
 20
-5.3472600000000003
 30
0.0
 10
-4.44231
 20
-5.0399200000000004
 30
0.0
 10
-4.44231
 20
-5.0399200000000004
 30
0.0
 10
-4.44231
 20
-5.0399200000000004
 30
0.0
 10
-4.49057
 20
-5.1415200000000008
 30
0.0
 10
-4.5439100000000003
 20
-5.2888400000000004
 30
0.0
 10
-4.6302700000000003
 20
-5.3548800000000005
 30
0.0
 10
-4.6302700000000003
 20
-5.3548800000000005
 30
0.0
 10
-4.6937700000000007
 20
-4.6741600000000005
 30
0.0
 10
-4.9909500000000007
 20
-4.0239200000000004
 30
0.0
 10
-4.7521900000000006
 20
-3.3101800000000003
 30
0.0
 10
-4.7521900000000006
 20
-3.3101800000000003
 30
0.0
 10
-4.7521900000000006
 20
-3.3101800000000003
 30
0.0
 10
-4.7064700000000004
 20
-3.2085800000000004
 30
0.0
 10
-4.7064700000000004
 20
-3.2085800000000004
 30
0.0
 10
-4.7064700000000004
 20
-3.2085800000000004
 30
0.0
 10
-4.4880300000000002
 20
-3.7318200000000004
 30
0.0
 10
-4.3280099999999999
 20
-2.6828000000000003
 30
0.0
 10
-4.3711900000000004
 20
-2.3830800000000001
 30
0.0
 10
-4.3711900000000004
 20
-2.3830800000000001
 30
0.0
 10
-4.3965900000000007
 20
-2.2865600000000001
 30
0.0
 10
-4.4118300000000001
 20
-2.1697200000000003
 30
0.0
 10
-4.4727900000000007
 20
-2.09606
 30
0.0
 10
-4.4727900000000007
 20
-2.09606
 30
0.0
 10
-4.5515300000000005
 20
-1.9843000000000002
 30
0.0
 10
-4.6099500000000004
 20
-2.22052
 30
0.0
 10
-4.70139
 20
-2.23068
 30
0.0
 10
-4.70139
 20
-2.23068
 30
0.0
 10
-4.8334700000000002
 20
-1.1054600000000001
 30
0.0
 10
-4.2060900000000006
 20
-0.0412
 30
0.0
 10
-3.3780500000000004
 20
0.68523
 30
0.0
 10
-3.3780500000000004
 20
0.68523
 30
0.0
 10
-3.4923500000000001
 20
0.85033
 30
0.0
 10
-3.5304500000000001
 20
1.0459100000000001
 30
0.0
 10
-3.5304500000000001
 20
1.2567300000000001
 30
0.0
 10
-3.5304500000000001
 20
1.2567300000000001
 30
0.0
 10
-2.57287
 20
2.8188300000000002
 30
0.0
 10
-1.2342900000000001
 20
4.3326700000000002
 30
0.0
 10
0.40654
 20
5.1530900000000006
 30
0.0
  0
SPLINE
  5
26
100
AcDbEntity
  8
Ebene 1
 62
     7
100
AcDbSpline
210
0.0
220
0.0
230
1.0
 70
     1
 71
     3
 72
   436
 73
   432
 74
     0
 42
0.0000000001
 43
0.0000000001
 40
0.0
 40
0.0
 40
0.0
 40
0.0
 40
0.0092592592592593
 40
0.0092592592592593
 40
0.0092592592592593
 40
0.0092592592592593
 40
0.0185185185185185
 40
0.0185185185185185
 40
0.0185185185185185
 40
0.0185185185185185
 40
0.0277777777777778
 40
0.0277777777777778
 40
0.0277777777777778
 40
0.0277777777777778
 40
0.037037037037037
 40
0.037037037037037
 40
0.037037037037037
 40
0.037037037037037
 40
0.0462962962962963
 40
0.0462962962962963
 40
0.0462962962962963
 40
0.0462962962962963
 40
0.0555555555555556
 40
0.0555555555555556
 40
0.0555555555555556
 40
0.0555555555555556
 40
0.0648148148148148
 40
0.0648148148148148
 40
0.0648148148148148
 40
0.0648148148148148
 40
0.0740740740740741
 40
0.0740740740740741
 40
0.0740740740740741
 40
0.0740740740740741
 40
0.0833333333333333
 40
0.0833333333333333
 40
0.0833333333333333
 40
0.0833333333333333
 40
0.0925925925925926
 40
0.0925925925925926
 40
0.0925925925925926
 40
0.0925925925925926
 40
0.1018518518518519
 40
0.1018518518518519
 40
0.1018518518518519
 40
0.1018518518518519
 40
0.1111111111111111
 40
0.1111111111111111
 40
0.1111111111111111
 40
0.1111111111111111
 40
0.1203703703703704
 40
0.1203703703703704
 40
0.1203703703703704
 40
0.1203703703703704
 40
0.1296296296296296
 40
0.1296296296296296
 40
0.1296296296296296
 40
0.1296296296296296
 40
0.1388888888888889
 40
0.1388888888888889
 40
0.1388888888888889
 40
0.1388888888888889
 40
0.1481481481481481
 40
0.1481481481481481
 40
0.1481481481481481
 40
0.1481481481481481
 40
0.1574074074074074
 40
0.1574074074074074
 40
0.1574074074074074
 40
0.1574074074074074
 40
0.1666666666666666
 40
0.1666666666666666
 40
0.1666666666666666
 40
0.1666666666666666
 40
0.1759259259259259
 40
0.1759259259259259
 40
0.1759259259259259
 40
0.1759259259259259
 40
0.1851851851851851
 40
0.1851851851851851
 40
0.1851851851851851
 40
0.1851851851851851
 40
0.1944444444444444
 40
0.1944444444444444
 40
0.1944444444444444
 40
0.1944444444444444
 40
0.2037037037037036
 40
0.2037037037037036
 40
0.2037037037037036
 40
0.2037037037037036
 40
0.2129629629629629
 40
0.2129629629629629
 40
0.2129629629629629
 40
0.2129629629629629
 40
0.2222222222222221
 40
0.2222222222222221
 40
0.2222222222222221
 40
0.2222222222222221
 40
0.2314814814814813
 40
0.2314814814814813
 40
0.2314814814814813
 40
0.2314814814814813
 40
0.2407407407407406
 40
0.2407407407407406
 40
0.2407407407407406
 40
0.2407407407407406
 40
0.2499999999999998
 40
0.2499999999999998
 40
0.2499999999999998
 40
0.2499999999999998
 40
0.2592592592592591
 40
0.2592592592592591
 40
0.2592592592592591
 40
0.2592592592592591
 40
0.2685185185185183
 40
0.2685185185185183
 40
0.2685185185185183
 40
0.2685185185185183
 40
0.2777777777777776
 40
0.2777777777777776
 40
0.2777777777777776
 40
0.2777777777777776
 40
0.2870370370370368
 40
0.2870370370370368
 40
0.2870370370370368
 40
0.2870370370370368
 40
0.2962962962962961
 40
0.2962962962962961
 40
0.2962962962962961
 40
0.2962962962962961
 40
0.3055555555555553
 40
0.3055555555555553
 40
0.3055555555555553
 40
0.3055555555555553
 40
0.3148148148148146
 40
0.3148148148148146
 40
0.3148148148148146
 40
0.3148148148148146
 40
0.3240740740740738
 40
0.3240740740740738
 40
0.3240740740740738
 40
0.3240740740740738
 40
0.333333333333333
 40
0.333333333333333
 40
0.333333333333333
 40
0.333333333333333
 40
0.3425925925925923
 40
0.3425925925925923
 40
0.3425925925925923
 40
0.3425925925925923
 40
0.3518518518518515
 40
0.3518518518518515
 40
0.3518518518518515
 40
0.3518518518518515
 40
0.3611111111111108
 40
0.3611111111111108
 40
0.3611111111111108
 40
0.3611111111111108
 40
0.37037037037037
 40
0.37037037037037
 40
0.37037037037037
 40
0.37037037037037
 40
0.3796296296296293
 40
0.3796296296296293
 40
0.3796296296296293
 40
0.3796296296296293
 40
0.3888888888888885
 40
0.3888888888888885
 40
0.3888888888888885
 40
0.3888888888888885
 40
0.3981481481481478
 40
0.3981481481481478
 40
0.3981481481481478
 40
0.3981481481481478
 40
0.407407407407407
 40
0.407407407407407
 40
0.407407407407407
 40
0.407407407407407
 40
0.4166666666666662
 40
0.4166666666666662
 40
0.4166666666666662
 40
0.4166666666666662
 40
0.4259259259259255
 40
0.4259259259259255
 40
0.4259259259259255
 40
0.4259259259259255
 40
0.4351851851851847
 40
0.4351851851851847
 40
0.4351851851851847
 40
0.4351851851851847
 40
0.444444444444444
 40
0.444444444444444
 40
0.444444444444444
 40
0.444444444444444
 40
0.4537037037037032
 40
0.4537037037037032
 40
0.4537037037037032
 40
0.4537037037037032
 40
0.4629629629629625
 40
0.4629629629629625
 40
0.4629629629629625
 40
0.4629629629629625
 40
0.4722222222222217
 40
0.4722222222222217
 40
0.4722222222222217
 40
0.4722222222222217
 40
0.481481481481481
 40
0.481481481481481
 40
0.481481481481481
 40
0.481481481481481
 40
0.4907407407407402
 40
0.4907407407407402
 40
0.4907407407407402
 40
0.4907407407407402
 40
0.4999999999999994
 40
0.4999999999999994
 40
0.4999999999999994
 40
0.4999999999999994
 40
0.5092592592592588
 40
0.5092592592592588
 40
0.5092592592592588
 40
0.5092592592592588
 40
0.5185185185185181
 40
0.5185185185185181
 40
0.5185185185185181
 40
0.5185185185185181
 40
0.5277777777777774
 40
0.5277777777777774
 40
0.5277777777777774
 40
0.5277777777777774
 40
0.5370370370370367
 40
0.5370370370370367
 40
0.5370370370370367
 40
0.5370370370370367
 40
0.546296296296296
 40
0.546296296296296
 40
0.546296296296296
 40
0.546296296296296
 40
0.5555555555555553
 40
0.5555555555555553
 40
0.5555555555555553
 40
0.5555555555555553
 40
0.5648148148148146
 40
0.5648148148148146
 40
0.5648148148148146
 40
0.5648148148148146
 40
0.5740740740740739
 40
0.5740740740740739
 40
0.5740740740740739
 40
0.5740740740740739
 40
0.5833333333333332
 40
0.5833333333333332
 40
0.5833333333333332
 40
0.5833333333333332
 40
0.5925925925925925
 40
0.5925925925925925
 40
0.5925925925925925
 40
0.5925925925925925
 40
0.6018518518518518
 40
0.6018518518518518
 40
0.6018518518518518
 40
0.6018518518518518
 40
0.6111111111111111
 40
0.6111111111111111
 40
0.6111111111111111
 40
0.6111111111111111
 40
0.6203703703703704
 40
0.6203703703703704
 40
0.6203703703703704
 40
0.6203703703703704
 40
0.6296296296296297
 40
0.6296296296296297
 40
0.6296296296296297
 40
0.6296296296296297
 40
0.638888888888889
 40
0.638888888888889
 40
0.638888888888889
 40
0.638888888888889
 40
0.6481481481481483
 40
0.6481481481481483
 40
0.6481481481481483
 40
0.6481481481481483
 40
0.6574074074074076
 40
0.6574074074074076
 40
0.6574074074074076
 40
0.6574074074074076
 40
0.6666666666666669
 40
0.6666666666666669
 40
0.6666666666666669
 40
0.6666666666666669
 40
0.6759259259259262
 40
0.6759259259259262
 40
0.6759259259259262
 40
0.6759259259259262
 40
0.6851851851851855
 40
0.6851851851851855
 40
0.6851851851851855
 40
0.6851851851851855
 40
0.6944444444444448
 40
0.6944444444444448
 40
0.6944444444444448
 40
0.6944444444444448
 40
0.7037037037037041
 40
0.7037037037037041
 40
0.7037037037037041
 40
0.7037037037037041
 40
0.7129629629629634
 40
0.7129629629629634
 40
0.7129629629629634
 40
0.7129629629629634
 40
0.7222222222222227
 40
0.7222222222222227
 40
0.7222222222222227
 40
0.7222222222222227
 40
0.731481481481482
 40
0.731481481481482
 40
0.731481481481482
 40
0.731481481481482
 40
0.7407407407407413
 40
0.7407407407407413
 40
0.7407407407407413
 40
0.7407407407407413
 40
0.7500000000000006
 40
0.7500000000000006
 40
0.7500000000000006
 40
0.7500000000000006
 40
0.7592592592592599
 40
0.7592592592592599
 40
0.7592592592592599
 40
0.7592592592592599
 40
0.7685185185185192
 40
0.7685185185185192
 40
0.7685185185185192
 40
0.7685185185185192
 40
0.7777777777777785
 40
0.7777777777777785
 40
0.7777777777777785
 40
0.7777777777777785
 40
0.7870370370370378
 40
0.7870370370370378
 40
0.7870370370370378
 40
0.7870370370370378
 40
0.7962962962962971
 40
0.7962962962962971
 40
0.7962962962962971
 40
0.7962962962962971
 40
0.8055555555555564
 40
0.8055555555555564
 40
0.8055555555555564
 40
0.8055555555555564
 40
0.8148148148148157
 40
0.8148148148148157
 40
0.8148148148148157
 40
0.8148148148148157
 40
0.824074074074075
 40
0.824074074074075
 40
0.824074074074075
 40
0.824074074074075
 40
0.8333333333333343
 40
0.8333333333333343
 40
0.8333333333333343
 40
0.8333333333333343
 40
0.8425925925925936
 40
0.8425925925925936
 40
0.8425925925925936
 40
0.8425925925925936
 40
0.8518518518518529
 40
0.8518518518518529
 40
0.8518518518518529
 40
0.8518518518518529
 40
0.8611111111111122
 40
0.8611111111111122
 40
0.8611111111111122
 40
0.8611111111111122
 40
0.8703703703703715
 40
0.8703703703703715
 40
0.8703703703703715
 40
0.8703703703703715
 40
0.8796296296296308
 40
0.8796296296296308
 40
0.8796296296296308
 40
0.8796296296296308
 40
0.8888888888888901
 40
0.8888888888888901
 40
0.8888888888888901
 40
0.8888888888888901
 40
0.8981481481481494
 40
0.8981481481481494
 40
0.8981481481481494
 40
0.8981481481481494
 40
0.9074074074074087
 40
0.9074074074074087
 40
0.9074074074074087
 40
0.9074074074074087
 40
0.916666666666668
 40
0.916666666666668
 40
0.916666666666668
 40
0.916666666666668
 40
0.9259259259259273
 40
0.9259259259259273
 40
0.9259259259259273
 40
0.9259259259259273
 40
0.9351851851851866
 40
0.9351851851851866
 40
0.9351851851851866
 40
0.9351851851851866
 40
0.9444444444444459
 40
0.9444444444444459
 40
0.9444444444444459
 40
0.9444444444444459
 40
0.9537037037037052
 40
0.9537037037037052
 40
0.9537037037037052
 40
0.9537037037037052
 40
0.9629629629629645
 40
0.9629629629629645
 40
0.9629629629629645
 40
0.9629629629629645
 40
0.9722222222222238
 40
0.9722222222222238
 40
0.9722222222222238
 40
0.9722222222222238
 40
0.9814814814814831
 40
0.9814814814814831
 40
0.9814814814814831
 40
0.9814814814814831
 40
0.9907407407407424
 40
0.9907407407407424
 40
0.9907407407407424
 40
0.9907407407407424
 40
1.0
 40
1.0
 40
1.0
 40
1.0
 10
-2.0826500000000001
 20
-0.7143000000000001
 30
0.0
 10
-2.0826500000000001
 20
-0.7143000000000001
 30
0.0
 10
-2.1639300000000001
 20
-0.9149600000000001
 30
0.0
 10
-2.1639300000000001
 20
-0.9149600000000001
 30
0.0
 10
-2.1639300000000001
 20
-0.9149600000000001
 30
0.0
 10
-2.1639300000000001
 20
-0.9149600000000001
 30
0.0
 10
-2.1969500000000002
 20
-1.0572000000000001
 30
0.0
 10
-2.1969500000000002
 20
-1.0572000000000001
 30
0.0
 10
-2.1969500000000002
 20
-1.0572000000000001
 30
0.0
 10
-2.1563100000000004
 20
-1.1943600000000001
 30
0.0
 10
-2.01661
 20
-0.7295400000000001
 30
0.0
 10
-2.0242300000000002
 20
-0.9530600000000001
 30
0.0
 10
-2.0242300000000002
 20
-0.9530600000000001
 30
0.0
 10
-2.0318500000000004
 20
-0.9835400000000001
 30
0.0
 10
-2.0394700000000001
 20
-1.0165600000000001
 30
0.0
 10
-2.0242300000000002
 20
-1.0572000000000001
 30
0.0
 10
-2.0242300000000002
 20
-1.0572000000000001
 30
0.0
 10
-2.0242300000000002
 20
-1.3239000000000001
 30
0.0
 10
-1.7295900000000002
 20
-1.3518400000000002
 30
0.0
 10
-1.6381500000000002
 20
-1.5372600000000001
 30
0.0
 10
-1.6381500000000002
 20
-1.5372600000000001
 30
0.0
 10
-1.6381500000000002
 20
-1.5372600000000001
 30
0.0
 10
-1.4730500000000002
 20
-1.8801600000000001
 30
0.0
 10
-1.4730500000000002
 20
-1.8801600000000001
 30
0.0
 10
-1.4730500000000002
 20
-1.8801600000000001
 30
0.0
 10
-1.4730500000000002
 20
-1.8801600000000001
 30
0.0
 10
-1.4755900000000002
 20
-2.2662400000000003
 30
0.0
 10
-1.4755900000000002
 20
-2.2662400000000003
 30
0.0
 10
-1.4755900000000002
 20
-2.2662400000000003
 30
0.0
 10
-1.7041900000000001
 20
-1.9538200000000001
 30
0.0
 10
-1.8565900000000002
 20
-1.5779000000000001
 30
0.0
 10
-2.0318500000000004
 20
-1.2375400000000001
 30
0.0
 10
-2.0318500000000004
 20
-1.2375400000000001
 30
0.0
 10
-2.0496300000000001
 20
-1.3137400000000001
 30
0.0
 10
-2.02169
 20
-1.3823200000000002
 30
0.0
 10
-1.9962900000000001
 20
-1.4509000000000001
 30
0.0
 10
-1.9962900000000001
 20
-1.4509000000000001
 30
0.0
 10
-1.9962900000000001
 20
-1.4509000000000001
 30
0.0
 10
-1.9073900000000001
 20
-1.7531600000000001
 30
0.0
 10
-1.9073900000000001
 20
-1.7531600000000001
 30
0.0
 10
-1.9073900000000001
 20
-1.7531600000000001
 30
0.0
 10
-1.9023100000000002
 20
-1.8420600000000003
 30
0.0
 10
-1.7829300000000001
 20
-2.1671800000000001
 30
0.0
 10
-1.8184900000000002
 20
-1.92334
 30
0.0
 10
-1.8184900000000002
 20
-1.92334
 30
0.0
 10
-1.8184900000000002
 20
-1.92334
 30
0.0
 10
-1.8362700000000001
 20
-1.83952
 30
0.0
 10
-1.8362700000000001
 20
-1.83952
 30
0.0
 10
-1.8362700000000001
 20
-1.83952
 30
0.0
 10
-1.7422900000000001
 20
-1.9766800000000002
 30
0.0
 10
-1.6406900000000002
 20
-2.1113
 30
0.0
 10
-1.5517900000000002
 20
-2.2611600000000003
 30
0.0
 10
-1.5517900000000002
 20
-2.2611600000000003
 30
0.0
 10
-1.5263900000000001
 20
-2.3043400000000003
 30
0.0
 10
-1.4044700000000001
 20
-2.36022
 30
0.0
 10
-1.46543
 20
-2.39832
 30
0.0
 10
-1.46543
 20
-2.39832
 30
0.0
 10
-1.4832100000000001
 20
-2.3754600000000003
 30
0.0
 10
-1.5289300000000001
 20
-2.3576800000000002
 30
0.0
 10
-1.5594100000000002
 20
-2.3399000000000001
 30
0.0
 10
-1.5594100000000002
 20
-2.3399000000000001
 30
0.0
 10
-1.67117
 20
-2.2713200000000002
 30
0.0
 10
-1.8438900000000003
 20
-2.2586200000000001
 30
0.0
 10
-1.8210300000000001
 20
-2.4440400000000002
 30
0.0
 10
-1.8210300000000001
 20
-2.4440400000000002
 30
0.0
 10
-1.8210300000000001
 20
-2.4440400000000002
 30
0.0
 10
-1.9708900000000003
 20
-2.13924
 30
0.0
 10
-1.9708900000000003
 20
-2.13924
 30
0.0
 10
-1.9708900000000003
 20
-2.13924
 30
0.0
 10
-2.0140700000000002
 20
-2.3297400000000001
 30
0.0
 10
-1.8261100000000001
 20
-2.5050000000000003
 30
0.0
 10
-1.8032500000000002
 20
-2.69042
 30
0.0
 10
-1.8032500000000002
 20
-2.69042
 30
0.0
 10
-2.1156700000000002
 20
-2.31196
 30
0.0
 10
-2.2020300000000002
 20
-2.8961600000000001
 30
0.0
 10
-2.1258300000000001
 20
-3.1450800000000001
 30
0.0
 10
-2.1258300000000001
 20
-3.1450800000000001
 30
0.0
 10
-2.3061700000000003
 20
-2.86314
 30
0.0
 10
-2.2629900000000003
 20
-2.43642
 30
0.0
 10
-2.3595100000000002
 20
-2.2256
 30
0.0
 10
-2.3595100000000002
 20
-2.2256
 30
0.0
 10
-2.39507
 20
-2.6193000000000004
 30
0.0
 10
-2.3671300000000004
 20
-2.9393400000000001
 30
0.0
 10
-2.1817100000000003
 20
-3.2924000000000002
 30
0.0
 10
-2.1817100000000003
 20
-3.2924000000000002
 30
0.0
 10
-2.4687300000000003
 20
-2.9799800000000003
 30
0.0
 10
-2.4458700000000002
 20
-3.5972000000000004
 30
0.0
 10
-2.5322300000000002
 20
-3.7826200000000001
 30
0.0
 10
-2.5322300000000002
 20
-3.7826200000000001
 30
0.0
 10
-2.6744700000000003
 20
-3.6835600000000004
 30
0.0
 10
-2.9360900000000001
 20
-3.1882600000000001
 30
0.0
 10
-2.9970500000000002
 20
-3.5743400000000003
 30
0.0
 10
-2.9970500000000002
 20
-3.5743400000000003
 30
0.0
 10
-2.9970500000000002
 20
-3.5743400000000003
 30
0.0
 10
-3.0072100000000002
 20
-3.6505400000000003
 30
0.0
 10
-3.0072100000000002
 20
-3.6505400000000003
 30
0.0
 10
-3.0072100000000002
 20
-3.6505400000000003
 30
0.0
 10
-3.0122900000000001
 20
-3.6683200000000005
 30
0.0
 10
-3.0173700000000001
 20
-3.7572200000000002
 30
0.0
 10
-3.0376900000000004
 20
-3.7038800000000003
 30
0.0
 10
-3.0376900000000004
 20
-3.7038800000000003
 30
0.0
 10
-3.0376900000000004
 20
-3.7038800000000003
 30
0.0
 10
-3.0605500000000001
 20
-3.5591000000000004
 30
0.0
 10
-3.0605500000000001
 20
-3.5591000000000004
 30
0.0
 10
-3.0605500000000001
 20
-3.5591000000000004
 30
0.0
 10
-3.2866100000000005
 20
-3.1273000000000004
 30
0.0
 10
-2.9818100000000003
 20
-4.2703000000000007
 30
0.0
 10
-3.2078700000000002
 20
-3.8054800000000002
 30
0.0
 10
-3.2078700000000002
 20
-3.8054800000000002
 30
0.0
 10
-3.2586700000000004
 20
-3.7750000000000004
 30
0.0
 10
-3.3069300000000004
 20
-3.6835600000000004
 30
0.0
 10
-3.3729700000000005
 20
-3.7140400000000002
 30
0.0
 10
-3.3729700000000005
 20
-3.7140400000000002
 30
0.0
 10
-3.3729700000000005
 20
-3.7140400000000002
 30
0.0
 10
-3.4136100000000003
 20
-3.8435800000000002
 30
0.0
 10
-3.4136100000000003
 20
-3.8435800000000002
 30
0.0
 10
-3.4136100000000003
 20
-3.8435800000000002
 30
0.0
 10
-3.4110700000000005
 20
-4.2728400000000004
 30
0.0
 10
-3.5583900000000002
 20
-3.2873200000000002
 30
0.0
 10
-3.5558500000000004
 20
-3.7013400000000005
 30
0.0
 10
-3.5558500000000004
 20
-3.7013400000000005
 30
0.0
 10
-3.5126700000000004
 20
-4.01884
 30
0.0
 10
-3.4898100000000003
 20
-4.1153599999999999
 30
0.0
 10
-3.7514300000000005
 20
-3.8842200000000005
 30
0.0
 10
-3.7514300000000005
 20
-3.8842200000000005
 30
0.0
 10
-3.8962100000000004
 20
-4.2118800000000007
 30
0.0
 10
-3.8708100000000005
 20
-3.9197800000000003
 30
0.0
 10
-3.8962100000000004
 20
-3.7140400000000002
 30
0.0
 10
-3.8962100000000004
 20
-3.7140400000000002
 30
0.0
 10
-3.9063700000000003
 20
-3.6454600000000004
 30
0.0
 10
-3.9317700000000002
 20
-3.6378400000000002
 30
0.0
 10
-3.9571700000000005
 20
-3.5972000000000004
 30
0.0
 10
-3.9571700000000005
 20
-3.5972000000000004
 30
0.0
 10
-3.9571700000000005
 20
-3.5972000000000004
 30
0.0
 10
-3.9393900000000004
 20
-4.1991800000000001
 30
0.0
 10
-3.9393900000000004
 20
-4.1991800000000001
 30
0.0
 10
-3.9393900000000004
 20
-4.1991800000000001
 30
0.0
 10
-4.0333700000000006
 20
-4.1052
 30
0.0
 10
-4.1654500000000008
 20
-4.1077400000000006
 30
0.0
 10
-4.2111700000000001
 20
-4.26776
 30
0.0
 10
-4.2111700000000001
 20
-4.26776
 30
0.0
 10
-4.2111700000000001
 20
-4.26776
 30
0.0
 10
-4.2518100000000008
 20
-3.9528000000000003
 30
0.0
 10
-4.2518100000000008
 20
-3.9528000000000003
 30
0.0
 10
-4.2518100000000008
 20
-3.9528000000000003
 30
0.0
 10
-4.2518100000000008
 20
-3.9528000000000003
 30
0.0
 10
-4.3203900000000006
 20
-3.9121600000000005
 30
0.0
 10
-4.3203900000000006
 20
-3.9121600000000005
 30
0.0
 10
-4.3203900000000006
 20
-3.9121600000000005
 30
0.0
 10
-4.3102300000000007
 20
-4.1763200000000005
 30
0.0
 10
-4.3483300000000007
 20
-4.2753800000000002
 30
0.0
 10
-4.4981900000000001
 20
-4.4760400000000002
 30
0.0
 10
-4.4981900000000001
 20
-4.4760400000000002
 30
0.0
 10
-4.5845500000000001
 20
-4.2906200000000005
 30
0.0
 10
-4.6099500000000004
 20
-4.0899600000000005
 30
0.0
 10
-4.5947100000000001
 20
-3.8918400000000002
 30
0.0
 10
-4.5947100000000001
 20
-3.8918400000000002
 30
0.0
 10
-4.7267900000000003
 20
-3.9858200000000004
 30
0.0
 10
-4.5845500000000001
 20
-4.2601400000000007
 30
0.0
 10
-4.6759900000000005
 20
-4.3592000000000004
 30
0.0
 10
-4.6759900000000005
 20
-4.3592000000000004
 30
0.0
 10
-4.7928300000000004
 20
-4.0925000000000002
 30
0.0
 10
-4.7699700000000007
 20
-3.7902400000000003
 30
0.0
 10
-4.7166300000000003
 20
-3.5083000000000002
 30
0.0
 10
-4.7166300000000003
 20
-3.5083000000000002
 30
0.0
 10
-3.5710900000000003
 20
-3.2314400000000001
 30
0.0
 10
-4.39405
 20
-1.6185400000000001
 30
0.0
 10
-4.0892500000000007
 20
-0.7676400000000001
 30
0.0
 10
-4.0892500000000007
 20
-0.7676400000000001
 30
0.0
 10
-4.0892500000000007
 20
-0.7676400000000001
 30
0.0
 10
-4.1400500000000005
 20
-0.8082800000000001
 30
0.0
 10
-4.1400500000000005
 20
-0.8082800000000001
 30
0.0
 10
-4.1400500000000005
 20
-0.8082800000000001
 30
0.0
 10
-4.1400500000000005
 20
-0.8082800000000001
 30
0.0
 10
-4.1679900000000005
 20
-0.90734
 30
0.0
 10
-4.1679900000000005
 20
-0.90734
 30
0.0
 10
-4.1679900000000005
 20
-0.90734
 30
0.0
 10
-4.3153100000000002
 20
-1.3010400000000002
 30
0.0
 10
-4.2746700000000004
 20
-1.8242800000000001
 30
0.0
 10
-4.6556700000000006
 20
-2.1138400000000002
 30
0.0
 10
-4.6556700000000006
 20
-2.1138400000000002
 30
0.0
 10
-4.7115500000000008
 20
-1.29088
 30
0.0
 10
-4.3889700000000005
 20
-0.3942600000000001
 30
0.0
 10
-3.6523700000000003
 20
-0.07422
 30
0.0
 10
-3.6523700000000003
 20
-0.07422
 30
0.0
 10
-3.4593300000000005
 20
0.00705
 30
0.0
 10
-3.3221700000000003
 20
0.12643
 30
0.0
 10
-3.4136100000000003
 20
0.12897
 30
0.0
 10
-3.4136100000000003
 20
0.12897
 30
0.0
 10
-3.4136100000000003
 20
0.12897
 30
0.0
 10
-4.0003500000000001
 20
-0.1682
 30
0.0
 10
-4.0003500000000001
 20
-0.1682
 30
0.0
 10
-4.0003500000000001
 20
-0.1682
 30
0.0
 10
-3.6701500000000005
 20
0.21025
 30
0.0
 10
-3.1926300000000003
 20
0.76397
 30
0.0
 10
-2.6439900000000001
 20
0.48711
 30
0.0
 10
-2.6439900000000001
 20
0.48711
 30
0.0
 10
-2.6719300000000001
 20
0.46679
 30
0.0
 10
-2.7913100000000002
 20
0.47949
 30
0.0
 10
-2.69225
 20
0.41599
 30
0.0
 10
-2.69225
 20
0.41599
 30
0.0
 10
-2.69225
 20
0.41599
 30
0.0
 10
-2.3976100000000002
 20
0.28391
 30
0.0
 10
-2.3976100000000002
 20
0.28391
 30
0.0
 10
-2.3976100000000002
 20
0.28391
 30
0.0
 10
-2.5703300000000002
 20
-0.09454
 30
0.0
 10
-2.9310100000000001
 20
-0.05644
 30
0.0
 10
-3.1824700000000004
 20
-0.44252
 30
0.0
 10
-3.1824700000000004
 20
-0.44252
 30
0.0
 10
-3.2459700000000002
 20
-0.5390400000000001
 30
0.0
 10
-3.4669500000000002
 20
-0.5771400000000001
 30
0.0
 10
-3.4898100000000003
 20
-0.7549400000000001
 30
0.0
 10
-3.4898100000000003
 20
-0.7549400000000001
 30
0.0
 10
-3.4364700000000004
 20
-0.7727200000000001
 30
0.0
 10
-3.4161500000000005
 20
-0.6406400000000001
 30
0.0
 10
-3.3831300000000004
 20
-0.71938
 30
0.0
 10
-3.3831300000000004
 20
-0.71938
 30
0.0
 10
-3.3831300000000004
 20
-0.71938
 30
0.0
 10
-3.4161500000000005
 20
-0.8032
 30
0.0
 10
-3.4161500000000005
 20
-0.8032
 30
0.0
 10
-3.4161500000000005
 20
-0.8032
 30
0.0
 10
-3.7107900000000003
 20
-1.4280400000000002
 30
0.0
 10
-3.1494500000000003
 20
-2.02494
 30
0.0
 10
-2.9995900000000004
 20
-2.5812000000000004
 30
0.0
 10
-2.9995900000000004
 20
-2.5812000000000004
 30
0.0
 10
-2.9716500000000003
 20
-2.4237200000000003
 30
0.0
 10
-2.94625
 20
-2.2484600000000001
 30
0.0
 10
-2.9665700000000004
 20
-2.0782800000000003
 30
0.0
 10
-2.9665700000000004
 20
-2.0782800000000003
 30
0.0
 10
-2.9716500000000003
 20
-2.0274800000000002
 30
0.0
 10
-2.9665700000000004
 20
-1.7379200000000001
 30
0.0
 10
-3.0199100000000003
 20
-1.9335000000000002
 30
0.0
 10
-3.0199100000000003
 20
-1.9335000000000002
 30
0.0
 10
-3.0605500000000001
 20
-2.3881600000000001
 30
0.0
 10
-3.2815300000000001
 20
-1.7176000000000002
 30
0.0
 10
-3.1545300000000003
 20
-1.5677400000000001
 30
0.0
 10
-3.1545300000000003
 20
-1.5677400000000001
 30
0.0
 10
-2.9513300000000005
 20
-1.6337800000000002
 30
0.0
 10
-2.7328900000000003
 20
-1.7557
 30
0.0
 10
-2.7049500000000002
 20
-1.9868400000000002
 30
0.0
 10
-2.7049500000000002
 20
-1.9868400000000002
 30
0.0
 10
-2.6236700000000002
 20
-2.2332200000000002
 30
0.0
 10
-2.7227300000000003
 20
-2.6294600000000004
 30
0.0
 10
-2.5068300000000003
 20
-2.7818600000000004
 30
0.0
 10
-2.5068300000000003
 20
-2.7818600000000004
 30
0.0
 10
-2.5271500000000002
 20
-2.6675600000000004
 30
0.0
 10
-2.5703300000000002
 20
-2.56088
 30
0.0
 10
-2.5423900000000001
 20
-2.4643600000000001
 30
0.0
 10
-2.5423900000000001
 20
-2.4643600000000001
 30
0.0
 10
-2.52969
 20
-2.2103600000000001
 30
0.0
 10
-2.5652500000000003
 20
-1.9360400000000002
 30
0.0
 10
-2.69225
 20
-1.7023600000000001
 30
0.0
 10
-2.69225
 20
-1.7023600000000001
 30
0.0
 10
-3.0097500000000004
 20
-1.4255000000000002
 30
0.0
 10
-3.4923500000000001
 20
-1.1486400000000001
 30
0.0
 10
-3.3069300000000004
 20
-0.65842
 30
0.0
 10
-3.3069300000000004
 20
-0.65842
 30
0.0
 10
-2.6566900000000002
 20
-0.15042
 30
0.0
 10
-1.9581900000000001
 20
0.2635900000000001
 30
0.0
 10
-1.33081
 20
0.80715
 30
0.0
 10
-1.33081
 20
0.80715
 30
0.0
 10
-1.33081
 20
0.80715
 30
0.0
 10
-0.9752100000000001
 20
0.8681100000000001
 30
0.0
 10
-0.9752100000000001
 20
0.8681100000000001
 30
0.0
 10
-0.9752100000000001
 20
0.8681100000000001
 30
0.0
 10
-0.07351
 20
0.3575700000000001
 30
0.0
 10
0.7113400000000001
 20
1.9247500000000002
 30
0.0
 10
-0.16241
 20
2.4556100000000001
 30
0.0
 10
-0.16241
 20
2.4556100000000001
 30
0.0
 10
-0.36053
 20
2.4784700000000002
 30
0.0
 10
-0.6221500000000001
 20
2.6207100000000003
 30
0.0
 10
-0.74153
 20
2.3971900000000002
 30
0.0
 10
-0.74153
 20
2.3971900000000002
 30
0.0
 10
-0.88631
 20
2.21177
 30
0.0
 10
-1.04633
 20
2.0238100000000001
 30
0.0
 10
-1.20889
 20
1.8485500000000001
 30
0.0
 10
-1.20889
 20
1.8485500000000001
 30
0.0
 10
-1.21143
 20
1.8510900000000001
 30
0.0
 10
-1.2342900000000001
 20
1.9653900000000002
 30
0.0
 10
-1.1834900000000002
 20
2.0415900000000002
 30
0.0
 10
-1.1834900000000002
 20
2.0415900000000002
 30
0.0
 10
-1.04125
 20
2.24987
 30
0.0
 10
-1.1834900000000002
 20
2.21177
 30
0.0
 10
-1.1834900000000002
 20
2.2092300000000002
 30
0.0
 10
-1.1834900000000002
 20
2.2092300000000002
 30
0.0
 10
-1.5670300000000001
 20
1.6809100000000001
 30
0.0
 10
-1.4730500000000002
 20
0.9646300000000001
 30
0.0
 10
-1.9327900000000002
 20
0.49219
 30
0.0
 10
-1.9327900000000002
 20
0.49219
 30
0.0
 10
-2.2629900000000003
 20
0.30423
 30
0.0
 10
-2.8878300000000001
 20
0.4413900000000001
 30
0.0
 10
-2.3112500000000002
 20
0.5277500000000001
 30
0.0
 10
-2.3112500000000002
 20
0.5277500000000001
 30
0.0
 10
-2.18425
 20
0.62173
 30
0.0
 10
-2.3976100000000002
 20
0.62173
 30
0.0
 10
-2.5779500000000004
 20
0.5887100000000001
 30
0.0
 10
-2.5779500000000004
 20
0.5887100000000001
 30
0.0
 10
-3.0757900000000005
 20
0.49981
 30
0.0
 10
-3.0376900000000004
 20
1.3888100000000001
 30
0.0
 10
-2.6516100000000002
 20
1.7469500000000002
 30
0.0
 10
-2.6516100000000002
 20
1.7469500000000002
 30
0.0
 10
-2.6516100000000002
 20
1.7469500000000002
 30
0.0
 10
-2.2629900000000003
 20
2.1406500000000004
 30
0.0
 10
-2.2629900000000003
 20
2.1406500000000004
 30
0.0
 10
-2.2629900000000003
 20
2.1406500000000004
 30
0.0
 10
-2.4687300000000003
 20
2.0746100000000003
 30
0.0
 10
-2.6211300000000004
 20
1.8587100000000001
 30
0.0
 10
-2.7760700000000003
 20
1.7012300000000002
 30
0.0
 10
-2.7760700000000003
 20
1.7012300000000002
 30
0.0
 10
-2.9614900000000004
 20
1.5183500000000001
 30
0.0
 10
-3.1545300000000003
 20
1.3075300000000001
 30
0.0
 10
-3.1977100000000003
 20
1.0433700000000001
 30
0.0
 10
-3.1977100000000003
 20
1.0433700000000001
 30
0.0
 10
-3.2891500000000002
 20
1.7469500000000002
 30
0.0
 10
-3.3628100000000001
 20
1.10433
 30
0.0
 10
-3.3094700000000001
 20
0.7919100000000001
 30
0.0
 10
-3.3094700000000001
 20
0.7919100000000001
 30
0.0
 10
-3.4339300000000001
 20
0.9824100000000001
 30
0.0
 10
-3.4593300000000005
 20
1.1271900000000001
 30
0.0
 10
-3.4110700000000005
 20
1.3456300000000001
 30
0.0
 10
-3.4110700000000005
 20
1.3456300000000001
 30
0.0
 10
-2.7608300000000003
 20
2.1533500000000001
 30
0.0
 10
-2.6897100000000003
 20
2.3159100000000001
 30
0.0
 10
-2.0928100000000001
 20
2.9280500000000003
 30
0.0
 10
-2.0928100000000001
 20
2.9280500000000003
 30
0.0
 10
-2.0928100000000001
 20
2.9280500000000003
 30
0.0
 10
-2.31379
 20
2.33623
 30
0.0
 10
-2.31379
 20
2.33623
 30
0.0
 10
-2.31379
 20
2.33623
 30
0.0
 10
-2.31379
 20
2.33623
 30
0.0
 10
-2.1740900000000001
 20
2.4302100000000002
 30
0.0
 10
-2.1740900000000001
 20
2.4302100000000002
 30
0.0
 10
-2.1740900000000001
 20
2.4302100000000002
 30
0.0
 10
-1.6356100000000002
 20
3.5782900000000004
 30
0.0
 10
-0.69581
 20
4.5434900000000003
 30
0.0
 10
0.51576
 20
4.8990900000000002
 30
0.0
 10
0.51576
 20
4.8990900000000002
 30
0.0
 10
0.93232
 20
4.9448100000000004
 30
0.0
 10
1.3387200000000001
 20
4.92957
 30
0.0
 10
1.7451200000000002
 20
4.84321
 30
0.0
 10
1.7451200000000002
 20
4.84321
 30
0.0
 10
1.9330800000000001
 20
4.9194100000000001
 30
0.0
 10
1.5825600000000002
 20
4.9041700000000006
 30
0.0
 10
1.5089000000000001
 20
4.9575100000000001
 30
0.0
 10
1.5089000000000001
 20
4.9575100000000001
 30
0.0
 10
1.5089000000000001
 20
4.9575100000000001
 30
0.0
 10
1.1761600000000001
 20
5.0362500000000008
 30
0.0
 10
1.1761600000000001
 20
5.0362500000000008
 30
0.0
 10
1.1761600000000001
 20
5.0362500000000008
 30
0.0
 10
1.7400400000000003
 20
5.2115100000000005
 30
0.0
 10
2.38774
 20
5.2292900000000007
 30
0.0
 10
2.9795600000000002
 20
5.0667300000000006
 30
0.0
 10
2.9795600000000002
 20
5.0667300000000006
 30
0.0
 10
3.2843600000000004
 20
4.9244900000000005
 30
0.0
 10
3.4799400000000005
 20
4.6755700000000004
 30
0.0
 10
3.6806000000000001
 20
4.4063300000000005
 30
0.0
 10
3.6806000000000001
 20
4.4063300000000005
 30
0.0
 10
3.7212400000000003
 20
4.3504500000000004
 30
0.0
 10
3.7669600000000001
 20
4.1777300000000004
 30
0.0
 10
3.8685600000000004
 20
4.2564700000000002
 30
0.0
 10
3.8685600000000004
 20
4.2564700000000002
 30
0.0
 10
3.6628200000000004
 20
4.6501700000000001
 30
0.0
 10
4.2165400000000002
 20
4.4622100000000007
 30
0.0
 10
4.3943400000000006
 20
4.2259900000000004
 30
0.0
 10
4.3943400000000006
 20
4.2259900000000004
 30
0.0
 10
4.7270799999999999
 20
3.2734900000000002
 30
0.0
 10
4.8312200000000001
 20
2.1609700000000003
 30
0.0
 10
4.5899200000000002
 20
1.19323
 30
0.0
 10
4.5899200000000002
 20
1.19323
 30
0.0
 10
4.4476800000000001
 20
1.1703700000000001
 30
0.0
 10
4.5188000000000006
 20
1.6504300000000001
 30
0.0
 10
4.4857800000000001
 20
1.8333100000000002
 30
0.0
 10
4.4857800000000001
 20
1.8333100000000002
 30
0.0
 10
4.4857800000000001
 20
1.8333100000000002
 30
0.0
 10
4.4019600000000008
 20
2.3921100000000002
 30
0.0
 10
4.4019600000000008
 20
2.3921100000000002
 30
0.0
 10
4.4019600000000008
 20
2.3921100000000002
 30
0.0
 10
4.3181400000000005
 20
2.38449
 30
0.0
 10
4.38164
 20
2.1762100000000002
 30
0.0
 10
4.3841800000000006
 20
2.0517500000000002
 30
0.0
 10
4.3841800000000006
 20
2.0517500000000002
 30
0.0
 10
4.3917999999999999
 20
1.2491100000000002
 30
0.0
 10
4.5365800000000007
 20
0.27121
 30
0.0
 10
3.8609400000000003
 20
-0.3104400000000001
 30
0.0
 10
3.8609400000000003
 20
-0.3104400000000001
 30
0.0
 10
2.8551000000000002
 20
-0.8336800000000001
 30
0.0
 10
3.1548200000000004
 20
0.4845700000000001
 30
0.0
 10
3.7898200000000002
 20
0.72333
 30
0.0
 10
3.7898200000000002
 20
0.72333
 30
0.0
 10
3.6831400000000003
 20
0.7385700000000001
 30
0.0
 10
3.5612200000000005
 20
0.6344300000000001
 30
0.0
 10
3.4570800000000004
 20
0.57855
 30
0.0
 10
3.4570800000000004
 20
0.57855
 30
0.0
 10
3.4570800000000004
 20
0.57855
 30
0.0
 10
3.1218000000000004
 20
0.26867
 30
0.0
 10
3.1218000000000004
 20
0.26867
 30
0.0
 10
3.1218000000000004
 20
0.26867
 30
0.0
 10
2.9262200000000003
 20
-0.0158
 30
0.0
 10
2.5655400000000004
 20
-0.16566
 30
0.0
 10
2.2226400000000002
 20
-0.1047
 30
0.0
 10
2.2226400000000002
 20
-0.1047
 30
0.0
 10
1.7400400000000003
 20
-0.0666
 30
0.0
 10
0.7723000000000001
 20
-0.6381
 30
0.0
 10
0.9882000000000001
 20
0.20009
 30
0.0
 10
0.9882000000000001
 20
0.20009
 30
0.0
 10
0.9094600000000001
 20
0.10611
 30
0.0
 10
0.8561200000000001
 20
-0.03866
 30
0.0
 10
0.8612000000000001
 20
-0.17074
 30
0.0
 10
0.8612000000000001
 20
-0.17074
 30
0.0
 10
1.4250800000000001
 20
-0.69398
 30
0.0
 10
1.0364600000000002
 20
-1.6083800000000001
 30
0.0
 10
0.23382
 20
-1.3112000000000001
 30
0.0
 10
0.23382
 20
-1.3112000000000001
 30
0.0
 10
0.277
 20
-1.2553200000000002
 30
0.0
 10
0.49798
 20
-1.2426200000000001
 30
0.0
 10
0.42432
 20
-1.1867400000000001
 30
0.0
 10
0.42432
 20
-1.1867400000000001
 30
0.0
 10
-0.27417
 20
-1.4305800000000002
 30
0.0
 10
-0.27925
 20
-0.97084
 30
0.0
 10
-0.24623
 20
-0.52888
 30
0.0
 10
-0.24623
 20
-0.52888
 30
0.0
 10
-0.32751
 20
-0.38664
 30
0.0
 10
-0.37069
 20
-0.219
 30
0.0
 10
-0.5230900000000001
 20
-0.14026
 30
0.0
 10
-0.5230900000000001
 20
-0.14026
 30
0.0
 10
-1.2419100000000001
 20
-0.00056
 30
0.0
 10
-2.0877300000000001
 20
-0.39172
 30
0.0
 10
-2.44333
 20
-1.0292600000000001
 30
0.0
 10
-2.44333
 20
-1.0292600000000001
 30
0.0
 10
-2.44333
 20
-1.0292600000000001
 30
0.0
 10
-2.0826500000000001
 20
-0.7143000000000001
 30
0.0
 10
-2.0826500000000001
 20
-0.7143000000000001
 30
0.0
  0
SPLINE
  5
27
100
AcDbEntity
  8
Ebene 1
100
AcDbSpline
210
0.0
220
0.0
230
1.0
 70
     1
 71
     3
 72
    60
 73
    56
 74
     0
 42
0.0000000001
 43
0.0000000001
 40
0.0
 40
0.0
 40
0.0
 40
0.0
 40
0.0714285714285714
 40
0.0714285714285714
 40
0.0714285714285714
 40
0.0714285714285714
 40
0.1428571428571429
 40
0.1428571428571429
 40
0.1428571428571429
 40
0.1428571428571429
 40
0.2142857142857143
 40
0.2142857142857143
 40
0.2142857142857143
 40
0.2142857142857143
 40
0.2857142857142857
 40
0.2857142857142857
 40
0.2857142857142857
 40
0.2857142857142857
 40
0.3571428571428571
 40
0.3571428571428571
 40
0.3571428571428571
 40
0.3571428571428571
 40
0.4285714285714285
 40
0.4285714285714285
 40
0.4285714285714285
 40
0.4285714285714285
 40
0.4999999999999999
 40
0.4999999999999999
 40
0.4999999999999999
 40
0.4999999999999999
 40
0.5714285714285713
 40
0.5714285714285713
 40
0.5714285714285713
 40
0.5714285714285713
 40
0.6428571428571427
 40
0.6428571428571427
 40
0.6428571428571427
 40
0.6428571428571427
 40
0.7142857142857141
 40
0.7142857142857141
 40
0.7142857142857141
 40
0.7142857142857141
 40
0.7857142857142855
 40
0.7857142857142855
 40
0.7857142857142855
 40
0.7857142857142855
 40
0.8571428571428569
 40
0.8571428571428569
 40
0.8571428571428569
 40
0.8571428571428569
 40
0.9285714285714283
 40
0.9285714285714283
 40
0.9285714285714283
 40
0.9285714285714283
 40
1.0
 40
1.0
 40
1.0
 40
1.0
 10
0.9882000000000001
 20
4.1447100000000008
 30
0.0
 10
1.52922
 20
4.29711
 30
0.0
 10
2.1489800000000003
 20
4.3656900000000007
 30
0.0
 10
2.6138000000000003
 20
4.0558100000000001
 30
0.0
 10
2.6138000000000003
 20
4.0558100000000001
 30
0.0
 10
2.6138000000000003
 20
4.0558100000000001
 30
0.0
 10
2.5706200000000003
 20
3.8805500000000004
 30
0.0
 10
2.5706200000000003
 20
3.8805500000000004
 30
0.0
 10
2.5706200000000003
 20
3.8805500000000004
 30
0.0
 10
2.5706200000000003
 20
3.8805500000000004
 30
0.0
 10
2.4512400000000003
 20
3.7611700000000003
 30
0.0
 10
2.4512400000000003
 20
3.7611700000000003
 30
0.0
 10
2.4512400000000003
 20
3.7611700000000003
 30
0.0
 10
2.4080600000000003
 20
3.7637100000000001
 30
0.0
 10
2.3191600000000001
 20
3.6392500000000001
 30
0.0
 10
2.2937600000000002
 20
3.7357700000000005
 30
0.0
 10
2.2937600000000002
 20
3.7357700000000005
 30
0.0
 10
2.3674200000000001
 20
3.7992700000000004
 30
0.0
 10
2.41568
 20
3.9008700000000003
 30
0.0
 10
2.3902800000000002
 20
3.9973900000000002
 30
0.0
 10
2.3902800000000002
 20
3.9973900000000002
 30
0.0
 10
2.3496400000000004
 20
4.0456500000000002
 30
0.0
 10
2.3039200000000002
 20
4.1091500000000005
 30
0.0
 10
2.2378800000000001
 20
4.1370900000000006
 30
0.0
 10
2.2378800000000001
 20
4.1370900000000006
 30
0.0
 10
1.3031600000000001
 20
4.3123500000000003
 30
0.0
 10
0.3151000000000001
 20
3.8246700000000002
 30
0.0
 10
-0.25639
 20
3.1134700000000004
 30
0.0
 10
-0.25639
 20
3.1134700000000004
 30
0.0
 10
-0.29449
 20
3.0296500000000002
 30
0.0
 10
-0.23099
 20
2.9559900000000003
 30
0.0
 10
-0.25893
 20
2.8924900000000004
 30
0.0
 10
-0.25893
 20
2.8924900000000004
 30
0.0
 10
-0.20305
 20
2.7273900000000002
 30
0.0
 10
0.14492
 20
2.80105
 30
0.0
 10
0.13984
 20
2.6511900000000002
 30
0.0
 10
0.13984
 20
2.6511900000000002
 30
0.0
 10
-0.11415
 20
2.6740500000000003
 30
0.0
 10
-0.46721
 20
2.6003900000000004
 30
0.0
 10
-0.58913
 20
2.9102700000000001
 30
0.0
 10
-0.58913
 20
2.9102700000000001
 30
0.0
 10
-0.58913
 20
2.9102700000000001
 30
0.0
 10
-0.6475500000000001
 20
2.8950300000000002
 30
0.0
 10
-0.6475500000000001
 20
2.8950300000000002
 30
0.0
 10
-0.6475500000000001
 20
2.8950300000000002
 30
0.0
 10
-0.7466100000000001
 20
2.8848700000000003
 30
0.0
 10
-0.80249
 20
2.6918300000000004
 30
0.0
 10
-0.9066300000000001
 20
2.7553300000000003
 30
0.0
 10
-0.9066300000000001
 20
2.7553300000000003
 30
0.0
 10
-0.9066300000000001
 20
2.7553300000000003
 30
0.0
 10
-0.6704100000000001
 20
3.0525100000000003
 30
0.0
 10
-0.6704100000000001
 20
3.0525100000000003
 30
0.0
 10
-0.6704100000000001
 20
3.0525100000000003
 30
0.0
 10
-0.20051
 20
3.5300300000000004
 30
0.0
 10
0.3405
 20
3.9643700000000002
 30
0.0
 10
0.9882000000000001
 20
4.1447100000000008
 30
0.0
  0
SPLINE
  5
28
100
AcDbEntity
  8
Ebene 1
100
AcDbSpline
210
0.0
220
0.0
230
1.0
 70
     1
 71
     3
 72
    44
 73
    40
 74
     0
 42
0.0000000001
 43
0.0000000001
 40
0.0
 40
0.0
 40
0.0
 40
0.0
 40
0.1
 40
0.1
 40
0.1
 40
0.1
 40
0.2
 40
0.2
 40
0.2
 40
0.2
 40
0.3
 40
0.3
 40
0.3
 40
0.3
 40
0.4
 40
0.4
 40
0.4
 40
0.4
 40
0.5
 40
0.5
 40
0.5
 40
0.5
 40
0.6
 40
0.6
 40
0.6
 40
0.6
 40
0.7
 40
0.7
 40
0.7
 40
0.7
 40
0.7999999999999999
 40
0.7999999999999999
 40
0.7999999999999999
 40
0.7999999999999999
 40
0.8999999999999999
 40
0.8999999999999999
 40
0.8999999999999999
 40
0.8999999999999999
 40
1.0
 40
1.0
 40
1.0
 40
1.0
 10
0.41162
 20
2.17367
 30
0.0
 10
0.8231000000000001
 20
1.7748900000000001
 30
0.0
 10
0.4395600000000001
 20
1.18815
 30
0.0
 10
0.5894200000000001
 20
0.72079
 30
0.0
 10
0.5894200000000001
 20
0.72079
 30
0.0
 10
1.0339200000000002
 20
0.9519300000000001
 30
0.0
 10
1.5317600000000002
 20
1.0941700000000001
 30
0.0
 10
2.0270600000000001
 20
1.0738500000000002
 30
0.0
 10
2.0270600000000001
 20
1.0738500000000002
 30
0.0
 10
2.0270600000000001
 20
1.0738500000000002
 30
0.0
 10
2.8398600000000003
 20
1.2516500000000002
 30
0.0
 10
2.8398600000000003
 20
1.2516500000000002
 30
0.0
 10
2.8398600000000003
 20
1.2516500000000002
 30
0.0
 10
2.5680800000000001
 20
0.9874900000000001
 30
0.0
 10
2.1388200000000004
 20
0.9824100000000001
 30
0.0
 10
1.8568800000000001
 20
0.74873
 30
0.0
 10
1.8568800000000001
 20
0.74873
 30
0.0
 10
1.7375
 20
0.80715
 30
0.0
 10
1.9432400000000001
 20
0.87319
 30
0.0
 10
1.9076800000000003
 20
0.95447
 30
0.0
 10
1.9076800000000003
 20
0.95447
 30
0.0
 10
1.3184
 20
1.0560700000000001
 30
0.0
 10
0.8993000000000001
 20
0.5480700000000001
 30
0.0
 10
0.4167
 20
0.34995
 30
0.0
 10
0.4167
 20
0.34995
 30
0.0
 10
0.20588
 20
0.41599
 30
0.0
 10
0.0103
 20
0.5429900000000001
 30
0.0
 10
-0.17257
 20
0.6877700000000001
 30
0.0
 10
-0.17257
 20
0.6877700000000001
 30
0.0
 10
-0.17257
 20
0.6877700000000001
 30
0.0
 10
-0.12685
 20
0.74365
 30
0.0
 10
-0.12685
 20
0.74365
 30
0.0
 10
-0.12685
 20
0.74365
 30
0.0
 10
-0.07351
 20
0.7131700000000001
 30
0.0
 10
-0.01001
 20
0.70047
 30
0.0
 10
0.05094
 20
0.7309500000000001
 30
0.0
 10
0.05094
 20
0.7309500000000001
 30
0.0
 10
0.48528
 20
1.06623
 30
0.0
 10
0.6249800000000001
 20
1.6783700000000001
 30
0.0
 10
0.41162
 20
2.17367
 30
0.0
  0
SPLINE
  5
29
100
AcDbEntity
  8
Ebene 1
 62
     7
100
AcDbSpline
210
0.0
220
0.0
230
1.0
 70
     1
 71
     3
 72
    12
 73
     8
 74
     0
 42
0.0000000001
 43
0.0000000001
 40
0.0
 40
0.0
 40
0.0
 40
0.0
 40
0.5
 40
0.5
 40
0.5
 40
0.5
 40
1.0
 40
1.0
 40
1.0
 40
1.0
 10
-0.5637300000000001
 20
1.8206100000000001
 30
0.0
 10
-0.76439
 20
1.5005700000000002
 30
0.0
 10
-1.0641100000000001
 20
1.2186300000000001
 30
0.0
 10
-1.4044700000000001
 20
1.10179
 30
0.0
 10
-1.4044700000000001
 20
1.10179
 30
0.0
 10
-1.2698500000000001
 20
1.44723
 30
0.0
 10
-0.9599700000000001
 20
1.8079100000000001
 30
0.0
 10
-0.5637300000000001
 20
1.8206100000000001
 30
0.0
  0
SPLINE
  5
2A
100
AcDbEntity
  8
Ebene 1
100
AcDbSpline
210
0.0
220
0.0
230
1.0
 70
     1
 71
     3
 72
    20
 73
    16
 74
     0
 42
0.0000000001
 43
0.0000000001
 40
0.0
 40
0.0
 40
0.0
 40
0.0
 40
0.25
 40
0.25
 40
0.25
 40
0.25
 40
0.5
 40
0.5
 40
0.5
 40
0.5
 40
0.75
 40
0.75
 40
0.75
 40
0.75
 40
1.0
 40
1.0
 40
1.0
 40
1.0
 10
3.5028000000000001
 20
2.54705
 30
0.0
 10
3.5180400000000005
 20
2.5495900000000002
 30
0.0
 10
3.5485200000000003
 20
2.5419700000000001
 30
0.0
 10
3.5510600000000001
 20
2.5292700000000004
 30
0.0
 10
3.5510600000000001
 20
2.5292700000000004
 30
0.0
 10
3.6704400000000001
 20
1.8333100000000002
 30
0.0
 10
2.7662000000000004
 20
1.8841100000000002
 30
0.0
 10
2.5553800000000004
 20
1.3862700000000001
 30
0.0
 10
2.5553800000000004
 20
1.3862700000000001
 30
0.0
 10
2.5274400000000004
 20
1.3786500000000002
 30
0.0
 10
2.4944200000000003
 20
1.3253100000000002
 30
0.0
 10
2.4614000000000003
 20
1.3456300000000001
 30
0.0
 10
2.4614000000000003
 20
1.3456300000000001
 30
0.0
 10
2.5909400000000002
 20
1.8841100000000002
 30
0.0
 10
3.3605600000000004
 20
2.00603
 30
0.0
 10
3.5028000000000001
 20
2.54705
 30
0.0
  0
SPLINE
  5
2B
100
AcDbEntity
  8
Ebene 1
 62
     7
100
AcDbSpline
210
0.0
220
0.0
230
1.0
 70
     1
 71
     3
 72
     8
 73
     4
 74
     0
 42
0.0000000001
 43
0.0000000001
 40
0.0
 40
0.0
 40
0.0
 40
0.0
 40
1.0
 40
1.0
 40
1.0
 40
1.0
 10
-1.4044700000000001
 20
1.10179
 30
0.0
 10
-1.3968500000000001
 20
1.0738500000000002
 30
0.0
 10
-1.4324100000000002
 20
1.0941700000000001
 30
0.0
 10
-1.4044700000000001
 20
1.10179
 30
0.0
  0
SPLINE
  5
2C
100
AcDbEntity
  8
Ebene 1
 62
     7
100
AcDbSpline
210
0.0
220
0.0
230
1.0
 70
     1
 71
     3
 72
    12
 73
     8
 74
     0
 42
0.0000000001
 43
0.0000000001
 40
0.0
 40
0.0
 40
0.0
 40
0.0
 40
0.5
 40
0.5
 40
0.5
 40
0.5
 40
1.0
 40
1.0
 40
1.0
 40
1.0
 10
-1.3562100000000001
 20
-2.0427200000000001
 30
0.0
 10
-1.12761
 20
-2.19258
 30
0.0
 10
-0.99299
 20
-2.48468
 30
0.0
 10
-1.0107700000000002
 20
-2.7564600000000001
 30
0.0
 10
-1.0107700000000002
 20
-2.7564600000000001
 30
0.0
 10
-1.1453900000000001
 20
-2.5380200000000004
 30
0.0
 10
-1.4527300000000001
 20
-2.3043400000000003
 30
0.0
 10
-1.3562100000000001
 20
-2.0427200000000001
 30
0.0
  0
SPLINE
  5
2D
100
AcDbEntity
  8
Ebene 1
 62
     7
100
AcDbSpline
210
0.0
220
0.0
230
1.0
 70
     1
 71
     3
 72
    16
 73
    12
 74
     0
 42
0.0000000001
 43
0.0000000001
 40
0.0
 40
0.0
 40
0.0
 40
0.0
 40
0.3333333333333333
 40
0.3333333333333333
 40
0.3333333333333333
 40
0.3333333333333333
 40
0.6666666666666666
 40
0.6666666666666666
 40
0.6666666666666666
 40
0.6666666666666666
 40
1.0
 40
1.0
 40
1.0
 40
1.0
 10
-1.7118100000000001
 20
-2.3399000000000001
 30
0.0
 10
-1.6864100000000002
 20
-2.3195800000000002
 30
0.0
 10
-1.6584700000000001
 20
-2.3424400000000003
 30
0.0
 10
-1.6381500000000002
 20
-2.3526000000000002
 30
0.0
 10
-1.6381500000000002
 20
-2.3526000000000002
 30
0.0
 10
-1.4578100000000001
 20
-2.5735800000000002
 30
0.0
 10
-0.9802900000000001
 20
-2.8809200000000001
 30
0.0
 10
-1.3231900000000001
 20
-3.1603200000000005
 30
0.0
 10
-1.3231900000000001
 20
-3.1603200000000005
 30
0.0
 10
-1.6229100000000001
 20
-3.03078
 30
0.0
 10
-1.6889500000000002
 20
-2.64724
 30
0.0
 10
-1.7118100000000001
 20
-2.3399000000000001
 30
0.0
  0
SPLINE
  5
2E
100
AcDbEntity
  8
Ebene 1
 62
     7
100
AcDbSpline
210
0.0
220
0.0
230
1.0
 70
     1
 71
     3
 72
    24
 73
    20
 74
     0
 42
0.0000000001
 43
0.0000000001
 40
0.0
 40
0.0
 40
0.0
 40
0.0
 40
0.2
 40
0.2
 40
0.2
 40
0.2
 40
0.4
 40
0.4
 40
0.4
 40
0.4
 40
0.6000000000000001
 40
0.6000000000000001
 40
0.6000000000000001
 40
0.6000000000000001
 40
0.8
 40
0.8
 40
0.8
 40
0.8
 40
1.0
 40
1.0
 40
1.0
 40
1.0
 10
-1.9912100000000001
 20
-2.7539200000000004
 30
0.0
 10
-1.9912100000000001
 20
-2.7539200000000004
 30
0.0
 10
-1.9632700000000001
 20
-2.7031200000000002
 30
0.0
 10
-1.9632700000000001
 20
-2.7031200000000002
 30
0.0
 10
-1.9632700000000001
 20
-2.7031200000000002
 30
0.0
 10
-1.8184900000000002
 20
-2.9164800000000004
 30
0.0
 10
-1.4298700000000002
 20
-3.1146000000000003
 30
0.0
 10
-1.6051300000000002
 20
-3.3965400000000003
 30
0.0
 10
-1.6051300000000002
 20
-3.3965400000000003
 30
0.0
 10
-1.6533900000000001
 20
-3.4244800000000004
 30
0.0
 10
-1.6559300000000001
 20
-3.3051000000000004
 30
0.0
 10
-1.6914900000000002
 20
-3.3584400000000003
 30
0.0
 10
-1.6914900000000002
 20
-3.3584400000000003
 30
0.0
 10
-1.6914900000000002
 20
-3.3584400000000003
 30
0.0
 10
-1.8057900000000002
 20
-3.5362400000000003
 30
0.0
 10
-1.8057900000000002
 20
-3.5362400000000003
 30
0.0
 10
-1.8057900000000002
 20
-3.5362400000000003
 30
0.0
 10
-2.01661
 20
-3.3533600000000003
 30
0.0
 10
-2.05979
 20
-2.9799800000000003
 30
0.0
 10
-1.9912100000000001
 20
-2.7539200000000004
 30
0.0
  0
SPLINE
  5
2F
100
AcDbEntity
  8
Ebene 1
 62
     7
100
AcDbSpline
210
0.0
220
0.0
230
1.0
 70
     1
 71
     3
 72
    20
 73
    16
 74
     0
 42
0.0000000001
 43
0.0000000001
 40
0.0
 40
0.0
 40
0.0
 40
0.0
 40
0.25
 40
0.25
 40
0.25
 40
0.25
 40
0.5
 40
0.5
 40
0.5
 40
0.5
 40
0.75
 40
0.75
 40
0.75
 40
0.75
 40
1.0
 40
1.0
 40
1.0
 40
1.0
 10
-2.3239500000000004
 20
-3.2543000000000002
 30
0.0
 10
-2.18425
 20
-3.3355800000000002
 30
0.0
 10
-1.8616700000000002
 20
-3.6251400000000005
 30
0.0
 10
-2.1334500000000003
 20
-3.7521400000000003
 30
0.0
 10
-2.1334500000000003
 20
-3.7521400000000003
 30
0.0
 10
-2.1156700000000002
 20
-3.6911800000000001
 30
0.0
 10
-2.1334500000000003
 20
-3.6657800000000003
 30
0.0
 10
-2.2020300000000002
 20
-3.6530800000000001
 30
0.0
 10
-2.2020300000000002
 20
-3.6530800000000001
 30
0.0
 10
-2.2020300000000002
 20
-3.6530800000000001
 30
0.0
 10
-2.3366500000000001
 20
-3.8791400000000005
 30
0.0
 10
-2.3366500000000001
 20
-3.8791400000000005
 30
0.0
 10
-2.3366500000000001
 20
-3.8791400000000005
 30
0.0
 10
-2.43825
 20
-3.6683200000000005
 30
0.0
 10
-2.4331700000000001
 20
-3.4600400000000002
 30
0.0
 10
-2.3239500000000004
 20
-3.2543000000000002
 30
0.0
  0
SPLINE
  5
30
100
AcDbEntity
  8
Ebene 1
 62
     7
100
AcDbSpline
210
0.0
220
0.0
230
1.0
 70
     1
 71
     3
 72
    12
 73
     8
 74
     0
 42
0.0000000001
 43
0.0000000001
 40
0.0
 40
0.0
 40
0.0
 40
0.0
 40
0.5
 40
0.5
 40
0.5
 40
0.5
 40
1.0
 40
1.0
 40
1.0
 40
1.0
 10
-2.9233900000000004
 20
-3.4651200000000002
 30
0.0
 10
-2.6693900000000004
 20
-3.6988000000000003
 30
0.0
 10
-2.7074900000000004
 20
-4.1077400000000006
 30
0.0
 10
-2.7252700000000001
 20
-4.4074600000000004
 30
0.0
 10
-2.7252700000000001
 20
-4.4074600000000004
 30
0.0
 10
-2.8725900000000002
 20
-4.1356800000000007
 30
0.0
 10
-3.0961100000000004
 20
-3.7927800000000005
 30
0.0
 10
-2.9233900000000004
 20
-3.4651200000000002
 30
0.0
  0
SPLINE
  5
31
100
AcDbEntity
  8
Ebene 1
 62
     7
100
AcDbSpline
210
0.0
220
0.0
230
1.0
 70
     1
 71
     3
 72
    16
 73
    12
 74
     0
 42
0.0000000001
 43
0.0000000001
 40
0.0
 40
0.0
 40
0.0
 40
0.0
 40
0.3333333333333333
 40
0.3333333333333333
 40
0.3333333333333333
 40
0.3333333333333333
 40
0.6666666666666666
 40
0.6666666666666666
 40
0.6666666666666666
 40
0.6666666666666666
 40
1.0
 40
1.0
 40
1.0
 40
1.0
 10
-3.3323300000000002
 20
-3.8385000000000002
 30
0.0
 10
-3.1977100000000003
 20
-3.8766000000000003
 30
0.0
 10
-3.1316700000000002
 20
-4.0696400000000006
 30
0.0
 10
-3.0503900000000002
 20
-4.1814
 30
0.0
 10
-3.0503900000000002
 20
-4.1814
 30
0.0
 10
-3.0656300000000001
 20
-4.3033200000000003
 30
0.0
 10
-3.0986500000000001
 20
-4.4455600000000004
 30
0.0
 10
-3.1291300000000004
 20
-4.5725600000000002
 30
0.0
 10
-3.1291300000000004
 20
-4.5725600000000002
 30
0.0
 10
-3.3831300000000004
 20
-4.4430200000000006
 30
0.0
 10
-3.4390100000000001
 20
-4.0721800000000004
 30
0.0
 10
-3.3323300000000002
 20
-3.8385000000000002
 30
0.0
  0
SPLINE
  5
32
100
AcDbEntity
  8
Ebene 1
 62
     7
100
AcDbSpline
210
0.0
220
0.0
230
1.0
 70
     1
 71
     3
 72
    16
 73
    12
 74
     0
 42
0.0000000001
 43
0.0000000001
 40
0.0
 40
0.0
 40
0.0
 40
0.0
 40
0.3333333333333333
 40
0.3333333333333333
 40
0.3333333333333333
 40
0.3333333333333333
 40
0.6666666666666666
 40
0.6666666666666666
 40
0.6666666666666666
 40
0.6666666666666666
 40
1.0
 40
1.0
 40
1.0
 40
1.0
 10
-3.7692100000000002
 20
-3.9782000000000002
 30
0.0
 10
-3.4466300000000003
 20
-4.1026600000000002
 30
0.0
 10
-3.3729700000000005
 20
-4.5446200000000001
 30
0.0
 10
-3.5558500000000004
 20
-4.81386
 30
0.0
 10
-3.5558500000000004
 20
-4.81386
 30
0.0
 10
-3.5558500000000004
 20
-4.81386
 30
0.0
 10
-3.6676100000000003
 20
-4.7681400000000007
 30
0.0
 10
-3.6676100000000003
 20
-4.7681400000000007
 30
0.0
 10
-3.6676100000000003
 20
-4.7681400000000007
 30
0.0
 10
-3.7946100000000005
 20
-4.5192200000000007
 30
0.0
 10
-3.8428700000000005
 20
-4.2499800000000008
 30
0.0
 10
-3.7692100000000002
 20
-3.9782000000000002
 30
0.0
  0
SPLINE
  5
33
100
AcDbEntity
  8
Ebene 1
 62
     7
100
AcDbSpline
210
0.0
220
0.0
230
1.0
 70
     1
 71
     3
 72
    16
 73
    12
 74
     0
 42
0.0000000001
 43
0.0000000001
 40
0.0
 40
0.0
 40
0.0
 40
0.0
 40
0.3333333333333333
 40
0.3333333333333333
 40
0.3333333333333333
 40
0.3333333333333333
 40
0.6666666666666666
 40
0.6666666666666666
 40
0.6666666666666666
 40
0.6666666666666666
 40
1.0
 40
1.0
 40
1.0
 40
1.0
 10
-4.1171899999999999
 20
-4.1864800000000004
 30
0.0
 10
-3.8428700000000005
 20
-4.3820600000000001
 30
0.0
 10
-3.6904700000000004
 20
-4.8341800000000008
 30
0.0
 10
-4.0130500000000007
 20
-5.0932600000000008
 30
0.0
 10
-4.0130500000000007
 20
-5.0932600000000008
 30
0.0
 10
-4.19339
 20
-4.8875200000000003
 30
0.0
 10
-4.0994100000000007
 20
-4.5674800000000007
 30
0.0
 10
-4.1806900000000002
 20
-4.3211000000000004
 30
0.0
 10
-4.1806900000000002
 20
-4.3211000000000004
 30
0.0
 10
-4.1806900000000002
 20
-4.3211000000000004
 30
0.0
 10
-4.1171899999999999
 20
-4.1864800000000004
 30
0.0
 10
-4.1171899999999999
 20
-4.1864800000000004
 30
0.0
  0
SPLINE
  5
34
100
AcDbEntity
  8
Ebene 1
 62
     7
100
AcDbSpline
210
0.0
220
0.0
230
1.0
 70
     1
 71
     3
 72
    16
 73
    12
 74
     0
 42
0.0000000001
 43
0.0000000001
 40
0.0
 40
0.0
 40
0.0
 40
0.0
 40
0.3333333333333333
 40
0.3333333333333333
 40
0.3333333333333333
 40
0.3333333333333333
 40
0.6666666666666666
 40
0.6666666666666666
 40
0.6666666666666666
 40
0.6666666666666666
 40
1.0
 40
1.0
 40
1.0
 40
1.0
 10
-4.3965900000000007
 20
-4.4354000000000005
 30
0.0
 10
-4.3584900000000006
 20
-4.4100000000000001
 30
0.0
 10
-4.3280099999999999
 20
-4.34396
 30
0.0
 10
-4.2975300000000001
 20
-4.3642799999999999
 30
0.0
 10
-4.2975300000000001
 20
-4.3642799999999999
 30
0.0
 10
-4.22133
 20
-4.5979600000000005
 30
0.0
 10
-4.0740100000000004
 20
-4.9764200000000001
 30
0.0
 10
-4.2746700000000004
 20
-5.1897800000000007
 30
0.0
 10
-4.2746700000000004
 20
-5.1897800000000007
 30
0.0
 10
-4.3432500000000003
 20
-4.9561000000000002
 30
0.0
 10
-4.4346900000000007
 20
-4.6970200000000002
 30
0.0
 10
-4.3965900000000007
 20
-4.4354000000000005
 30
0.0
  0
SPLINE
  5
35
100
AcDbEntity
  8
Ebene 1
 62
     7
100
AcDbSpline
210
0.0
220
0.0
230
1.0
 70
     1
 71
     3
 72
    12
 73
     8
 74
     0
 42
0.0000000001
 43
0.0000000001
 40
0.0
 40
0.0
 40
0.0
 40
0.0
 40
0.5
 40
0.5
 40
0.5
 40
0.5
 40
1.0
 40
1.0
 40
1.0
 40
1.0
 10
-4.6734500000000008
 20
-4.5065200000000001
 30
0.0
 10
-4.4981900000000001
 20
-4.6538400000000006
 30
0.0
 10
-4.4854900000000004
 20
-4.9916600000000004
 30
0.0
 10
-4.6175700000000006
 20
-5.1720000000000006
 30
0.0
 10
-4.6175700000000006
 20
-5.1720000000000006
 30
0.0
 10
-4.6607500000000002
 20
-4.94848
 30
0.0
 10
-4.6607500000000002
 20
-4.7249600000000003
 30
0.0
 10
-4.6734500000000008
 20
-4.5065200000000001
 30
0.0
  0
ENDSEC
  0
SECTION
  2
OBJECTS
  0
DICTIONARY
  5
19
100
AcDbDictionary
280
     0
281
     1
  3
ACAD_GROUP
350
1A
  3
ACAD_MLINESTYLE
350
1B
  3
ACAD_LAYOUT
350
1E
  3
ACAD_PLOTSETTINGS
350
22
  3
ACAD_PLOTSTYLENAME
350
1F
  3
ACAD_WIPEOUT_VARS
350
23
  0
DICTIONARY
  5
1A
102
{ACAD_REACTORS
330
19
102
}
100
AcDbDictionary
280
     0
281
     1
  0
DICTIONARY
  5
1B
102
{ACAD_REACTORS
330
19
102
}
100
AcDbDictionary
280
     0
281
     1
  3
Standard
350
1C
  0
MLINESTYLE
  5
1C
102
{ACAD_REACTORS
330
1B
102
}
100
AcDbMlineStyle
  2
Standard
 70
     0
  3

 62
     0
 51
90.0
 52
90.0
 71
     2
 49
0.5
 62
   256
  6
BYLAYER
 49
-0.5
 62
   256
  6
BYLAYER
  0
ACDBDICTIONARYWDFLT
  5
1F
102
{ACAD_REACTORS
330
19
102
}
100
AcDbDictionary
281
     1
  3
Normal
350
1D
100
AcDbDictionaryWithDefault
340
1D
  0
ACDBPLACEHOLDER
  5
1D
102
{ACAD_REACTORS
330
1F
102
}
  0
LAYOUT
  5
20
102
{ACAD_REACTORS
330
1E
102
}
100
AcDbPlotSettings
  1

  2

  4

  6

 40
0.0
 41
0.0
 42
0.0
 43
0.0
 44
0.0
 45
0.0
 46
0.0
 47
0.0
 48
0.0
 49
0.0
140
0.0
141
0.0
142
1.0
143
1.0
 70
  1024
 72
     0
 73
     0
 74
     0
  7

 75
     0
147
1.0
148
0.0
149
0.0
100
AcDbLayout
  1
Model
 70
     0
 71
     0
 10
0.0
 20
0.0
 11
0.0
 21
0.0
 12
0.0
 22
0.0
 32
0.0
 14
0.0
 24
0.0
 34
0.0
 15
0.0
 25
0.0
 35
0.0
146
0.0
 13
0.0
 23
0.0
 33
0.0
 16
0.0
 26
0.0
 36
0.0
 17
0.0
 27
0.0
 37
0.0
 76
     0
330
A
331
0
345
0
346
0
  0
LAYOUT
  5
21
102
{ACAD_REACTORS
330
1E
102
}
100
AcDbPlotSettings
  1

  2

  4

  6

 40
0.0
 41
0.0
 42
0.0
 43
0.0
 44
0.0
 45
0.0
 46
0.0
 47
0.0
 48
0.0
 49
0.0
140
0.0
141
0.0
142
1.0
143
1.0
 70
     0
 72
     0
 73
     0
 74
     0
  7

 75
     0
147
1.0
148
0.0
149
0.0
100
AcDbLayout
  1
Layout1
 70
     0
 71
     0
 10
0.0
 20
0.0
 11
0.0
 21
0.0
 12
0.0
 22
0.0
 32
0.0
 14
0.0
 24
0.0
 34
0.0
 15
0.0
 25
0.0
 35
0.0
146
0.0
 13
0.0
 23
0.0
 33
0.0
 16
0.0
 26
0.0
 36
0.0
 17
0.0
 27
0.0
 37
0.0
 76
     0
330
B
331
0
345
0
346
0
  0
DICTIONARY
  5
1E
102
{ACAD_REACTORS
330
19
102
}
100
AcDbDictionary
280
     0
281
     1
  3
Layout1
350
21
  3
Model
350
20
  0
DICTIONARY
  5
22
102
{ACAD_REACTORS
330
19
102
}
100
AcDbDictionary
280
     0
281
     1
  0
WIPEOUTVARIABLES
  5
23
100
AcDbWipeoutVariables
 70
     1
  0
ENDSEC
  0
EOF
