  0
SECTION
  2
HEADER
  9
$ACADVER
  1
AC1015
  9
$ACADMAINTVER
 70
     6
  9
$DWGCODEPAGE
  3
DOS850
  9
$INSBASE
 10
0.0
 20
0.0
 30
0.0
  9
$EXTMIN
 10
-4.07263
 20
-5.9848
 30
1.000000E+20
  9
$EXTMAX
 10
4.07847
 20
5.97868
 30
-1.000000E+20
  9
$LIMMIN
 10
0.0
 20
0.0
  9
$LIMMAX
 10
0.0
 20
0.0
  9
$ORTHOMODE
 70
     0
  9
$REGENMODE
 70
     1
  9
$FILLMODE
 70
     1
  9
$QTEXTMODE
 70
     0
  9
$MIRRTEXT
 70
     1
  9
$LTSCALE
 40
1.0
  9
$ATTMODE
 70
     1
  9
$TEXTSIZE
 40
0.2
  9
$TRACEWID
 40
0.05
  9
$TEXTSTYLE
  7
Standard
  9
$CLAYER
  8
0
  9
$CELTYPE
  6
Continuous
  9
$CECOLOR
 62
   256
  9
$CELTSCALE
 40
1.0
  9
$DISPSILH
 70
     0
  9
$DIMSCALE
 40
1.0
  9
$DIMASZ
 40
0.18
  9
$DIMEXO
 40
0.0625
  9
$DIMDLI
 40
0.38
  9
$DIMRND
 40
0.0
  9
$DIMDLE
 40
0.0
  9
$DIMEXE
 40
0.18
  9
$DIMTP
 40
0.0
  9
$DIMTM
 40
0.0
  9
$DIMTXT
 40
0.18
  9
$DIMCEN
 40
0.09
  9
$DIMTSZ
 40
0.0
  9
$DIMTOL
 70
     0
  9
$DIMLIM
 70
     0
  9
$DIMTIH
 70
     1
  9
$DIMTOH
 70
     1
  9
$DIMSE1
 70
     0
  9
$DIMSE2
 70
     0
  9
$DIMTAD
 70
     0
  9
$DIMZIN
 70
     0
  9
$DIMBLK
  1

  9
$DIMASO
 70
     1
  9
$DIMSHO
 70
     1
  9
$DIMPOST
  1

  9
$DIMAPOST
  1

  9
$DIMALT
 70
     0
  9
$DIMALTD
 70
     2
  9
$DIMALTF
 40
25.4
  9
$DIMLFAC
 40
1.0
  9
$DIMTOFL
 70
     0
  9
$DIMTVP
 40
0.0
  9
$DIMTIX
 70
     0
  9
$DIMSOXD
 70
     0
  9
$DIMSAH
 70
     0
  9
$DIMBLK1
  1

  9
$DIMBLK2
  1

  9
$DIMSTYLE
  2
Standard
  9
$DIMCLRD
 70
     0
  9
$DIMCLRE
 70
     0
  9
$DIMCLRT
 70
     0
  9
$DIMTFAC
 40
1.0
  9
$DIMGAP
 40
0.09
  9
$DIMJUST
 70
     0
  9
$DIMSD1
 70
     0
  9
$DIMSD2
 70
     0
  9
$DIMTOLJ
 70
     1
  9
$DIMTZIN
 70
     0
  9
$DIMALTZ
 70
     0
  9
$DIMALTTZ
 70
     0
  9
$DIMUPT
 70
     0
  9
$DIMDEC
 70
     4
  9
$DIMTDEC
 70
     4
  9
$DIMALTU
 70
     2
  9
$DIMALTTD
 70
     2
  9
$DIMTXSTY
  7
Standard
  9
$DIMAUNIT
 70
     0
  9
$DIMADEC
 70
     0
  9
$DIMALTRND
 40
0.0
  9
$DIMAZIN
 70
     0
  9
$DIMDSEP
 70
     0
  9
$DIMATFIT
 70
     3
  9
$DIMFRAC
 70
     0
  9
$DIMLDRBLK
  1

  9
$DIMLUNIT
 70
     2
  9
$DIMLWD
 70
     0
  9
$DIMLWE
 70
     0
  9
$DIMTMOVE
 70
     0
  9
$LUNITS
 70
     2
  9
$LUPREC
 70
     4
  9
$SKETCHINC
 40
0.1
  9
$FILLETRAD
 40
0.0
  9
$AUNITS
 70
     0
  9
$AUPREC
 70
     0
  9
$MENU
  1
acad
  9
$ELEVATION
 40
0.0
  9
$PELEVATION
 40
0.0
  9
$THICKNESS
 40
0.0
  9
$LIMCHECK
 70
     0
  9
$CHAMFERA
 40
0.0
  9
$CHAMFERB
 40
0.0
  9
$CHAMFERC
 40
0.0
  9
$CHAMFERD
 40
0.0
  9
$SKPOLY
 70
     0
  9
$TDCREATE
 40
0.000000000
  9
$TDUCREATE
 40
0.000000000
  9
$TDUPDATE
 40
0.000000000
  9
$TDUUPDATE
 40
0.000000000
  9
$TDINDWG
 40
0.0000000000
  9
$TDUSRTIMER
 40
0.0000000000
  9
$USRTIMER
 70
     1
  9
$ANGBASE
 50
0.0
  9
$ANGDIR
 70
     0
  9
$PDMODE
 70
     0
  9
$PDSIZE
 40
0.0
  9
$PLINEWID
 40
0.0
  9
$SPLFRAME
 70
     0
  9
$SPLINETYPE
 70
     6
  9
$SPLINESEGS
 70
     8
  9
$HANDSEED
  5
3B
  9
$SURFTAB1
 70
     6
  9
$SURFTAB2
 70
     6
  9
$SURFTYPE
 70
     6
  9
$SURFU
 70
     6
  9
$SURFV
 70
     6
  9
$UCSBASE
  2

  9
$UCSNAME
  2

  9
$UCSORG
 10
0.0
 20
0.0
 30
0.0
  9
$UCSXDIR
 10
1.0
 20
0.0
 30
0.0
  9
$UCSYDIR
 10
0.0
 20
1.0
 30
0.0
  9
$UCSORTHOREF
  2

  9
$UCSORTHOVIEW
 70
     0
  9
$UCSORGTOP
 10
0.0
 20
0.0
 30
0.0
  9
$UCSORGBOTTOM
 10
0.0
 20
0.0
 30
0.0
  9
$UCSORGLEFT
 10
0.0
 20
0.0
 30
0.0
  9
$UCSORGRIGHT
 10
0.0
 20
0.0
 30
0.0
  9
$UCSORGFRONT
 10
0.0
 20
0.0
 30
0.0
  9
$UCSORGBACK
 10
0.0
 20
0.0
 30
0.0
  9
$PUCSBASE
  2

  9
$PUCSNAME
  2

  9
$PUCSORG
 10
0.0
 20
0.0
 30
0.0
  9
$PUCSXDIR
 10
1.0
 20
0.0
 30
0.0
  9
$PUCSYDIR
 10
0.0
 20
1.0
 30
0.0
  9
$PUCSORTHOREF
  2

  9
$PUCSORTHOVIEW
 70
     0
  9
$PUCSORGTOP
 10
0.0
 20
0.0
 30
0.0
  9
$PUCSORGBOTTOM
 10
0.0
 20
0.0
 30
0.0
  9
$PUCSORGLEFT
 10
0.0
 20
0.0
 30
0.0
  9
$PUCSORGRIGHT
 10
0.0
 20
0.0
 30
0.0
  9
$PUCSORGFRONT
 10
0.0
 20
0.0
 30
0.0
  9
$PUCSORGBACK
 10
0.0
 20
0.0
 30
0.0
  9
$USERI1
 70
     0
  9
$USERI2
 70
     0
  9
$USERI3
 70
     0
  9
$USERI4
 70
     0
  9
$USERI5
 70
     0
  9
$USERR1
 40
0.0
  9
$USERR2
 40
0.0
  9
$USERR3
 40
0.0
  9
$USERR4
 40
0.0
  9
$USERR5
 40
0.0
  9
$WORLDVIEW
 70
     1
  9
$SHADEDGE
 70
     3
  9
$SHADEDIF
 70
    70
  9
$TILEMODE
 70
     1
  9
$MAXACTVP
 70
    16
  9
$PINSBASE
 10
0.0
 20
0.0
 30
0.0
  9
$PLIMCHECK
 70
     0
  9
$PEXTMIN
 10
1.000000E+20
 20
1.000000E+20
 30
1.000000E+20
  9
$PEXTMAX
 10
-1.000000E+20
 20
-1.000000E+20
 30
-1.000000E+20
  9
$PLIMMIN
 10
0.0
 20
0.0
  9
$PLIMMAX
 10
12.0
 20
9.0
  9
$UNITMODE
 70
     0
  9
$VISRETAIN
 70
     0
  9
$PLINEGEN
 70
     1
  9
$PSLTSCALE
 70
     0
  9
$TREEDEPTH
 70
  3020
  9
$CMLSTYLE
  2
Standard
  9
$CMLJUST
 70
     0
  9
$CMLSCALE
 40
1.0
  9
$PROXYGRAPHICS
 70
     0
  9
$MEASUREMENT
 70
     0
  9
$CELWEIGHT
370
     0
  9
$ENDCAPS
280
     0
  9
$JOINSTYLE
280
     0
  9
$LWDISPLAY
290
     0
  9
$INSUNITS
 70
     5
  9
$HYPERLINKBASE
  1

  9
$XEDIT
290
     1
  9
$CEPSNTYPE
380
     0
  9
$PSTYLEMODE
290
     1
  9
$FINGERPRINTGUID
  2

  9
$VERSIONGUID
  2

  9
$EXTNAMES
290
     1
  9
$PSVPSCALE
 40
0.0
  0
ENDSEC
  0
SECTION
  2
CLASSES
  0
CLASS
  1
LWPOLYLINE
  2
AcDbPolyline
  3
AutoCAD 2000
 90
    32768
280
     0
281
     1
  0
CLASS
  1
IMAGE
  2
AcDbRasterImage
  3
ISM
 90
    32895
280
     0
281
     1
  0
CLASS
  1
OLE2FRAME
  2
AcDbOle2Frame
  3
AutoCAD 2000
 90
    32768
280
     0
281
     1
  0
CLASS
  1
HATCH
  2
AcDbHatch
  3
AutoCAD 2000
 90
    32768
280
     0
281
     1
  0
CLASS
  1
DICTIONARYVAR
  2
AcDbDictionaryVar
  3
AutoCAD 2000
 90
    32768
280
     0
281
     0
  0
CLASS
  1
RASTERVARIABLES
  2
AcDbRasterVariables
  3
ISM
 90
    32768
280
     0
281
     0
  0
CLASS
  1
IMAGEDEF
  2
AcDbRasterImageDef
  3
ISM
 90
    32768
280
     0
281
     0
  0
CLASS
  1
IMAGEDEF_REACTOR
  2
AcDbRasterImageDefReactor
  3
ISM
 90
    32769
280
     0
281
     0
  0
CLASS
  1
IDBUFFER
  2
AcDbIdBuffer
  3
AutoCAD 2000
 90
    32768
280
     0
281
     0
  0
CLASS
  1
SPATIAL_FILTER
  2
AcDbSpatialFilter
  3
AutoCAD 2000
 90
    32768
280
     0
281
     0
  0
CLASS
  1
XRECORD
  2
AcDbXrecord
  3
AutoCAD 2000
 90
    32768
280
     0
281
     0
  0
CLASS
  1
SORTENTSTABLE
  2
AcDbSortentsTable
  3
AutoCAD 2000
 90
    32768
280
     0
281
     0
  0
CLASS
  1
LAYER_INDEX
  2
AcDbLayerIndex
  3
AutoCAD 2000
 90
    32768
280
     0
281
     0
  0
CLASS
  1
SPATIAL_INDEX
  2
AcDbSpatialIndex
  3
AutoCAD 2000
 90
    32768
280
     0
281
     0
  0
CLASS
  1
OBJECT_PTR
  2
CAseDLPNTableRecord
  3
"ASE-LPNTableRecord"
 90
    32769
280
     0
281
     0
  0
CLASS
  1
LAYOUT
  2
AcDbLayout
  3
AutoCAD 2000
 90
        0
280
     0
281
     0
  0
CLASS
  1
PLOTSETTINGS
  2
AcDbPlotSettings
  3
AutoCAD 2000
 90
    32768
280
     0
281
     0
  0
CLASS
  1
ACDBDICTIONARYWDFLT
  2
AcDbDictionaryWithDefault
  3
AutoCAD 2000
 90
        0
280
     0
281
     0
  0
CLASS
  1
ACDBPLACEHOLDER
  2
AcDbPlaceHolder
  3
AutoCAD 2000
 90
        0
280
     0
281
     0
  0
CLASS
  1
VBA_PROJECT
  2
AcDbVbaProject
  3
acadvba
 90
    32768
280
     0
281
     0
  0
CLASS
  1
WIPEOUT
  2
AcDbWipeout
  3
WipeOut|AutoCAD Express Tool|expresstools@autodesk.com
 90
    32895
280
     0
281
     1
  0
CLASS
  1
WIPEOUTVARIABLES
  2
AcDbWipeoutVariables
  3
WipeOut|AutoCAD Express Tool|expresstools@autodesk.com
 90
        0
280
     0
281
     0
  0
CLASS
  1
RTEXT
  2
RText
  3
RText|AutoCAD Express Tool|expresstools@autodesk.com
 90
    32768
280
     0
281
     1
  0
CLASS
  1
ARCALIGNEDTEXT
  2
AcDbArcAlignedText
  3
ATEXT|AutoCAD Express Tool|expresstools@autodesk.com
 90
    32768
280
     0
281
     1
  0
ENDSEC
  0
SECTION
  2
TABLES
  0
TABLE
  2
VPORT
  5
7
100
AcDbSymbolTable
 70
     1
  0
VPORT
  5
15
100
AcDbSymbolTableRecord
100
AcDbViewportTableRecord
  2
*ACTIVE
 70
     0
 10
0.0
 20
0.0
 11
1.0
 21
1.0
 12
6.591288
 22
4.579184
 13
0.0
 23
0.0
 14
1.0
 24
1.0
 15
0.0
 25
0.0
 16
0.0
 26
0.0
 36
1.0
 17
0.0
 27
0.0
 37
0.0
 40
9.158369
 41
0.688564
 42
50.0
 43
0.0
 44
0.0
 50
0.0
 51
0.0
 71
     0
 72
   100
 73
     1
 74
     1
 75
     0
 76
     0
 77
     0
 78
     0
281
     0
 65
     0
110
0.0
120
0.0
130
0.0
111
1.0
121
0.0
131
0.0
112
0.0
122
1.0
132
0.0
345
0
346
0
 79
     0
146
0.0
  0
ENDTAB
  0
TABLE
  2
LTYPE
  5
4
100
AcDbSymbolTable
 70
     3
  0
LTYPE
  5
11
100
AcDbSymbolTableRecord
100
AcDbLinetypeTableRecord
  2
ByBlock
 70
    64
  3

 72
    65
 73
     0
 40
0.0
  0
LTYPE
  5
12
100
AcDbSymbolTableRecord
100
AcDbLinetypeTableRecord
  2
ByLayer
 70
    64
  3

 72
    65
 73
     0
 40
0.0
  0
LTYPE
  5
13
100
AcDbSymbolTableRecord
100
AcDbLinetypeTableRecord
  2
Continuous
 70
    64
  3
Solid line
 72
    65
 73
     0
 40
0.0
  0
ENDTAB
  0
TABLE
  2
LAYER
  5
2
100
AcDbSymbolTable
 70
     2
  0
LAYER
  5
14
100
AcDbSymbolTableRecord
100
AcDbLayerTableRecord
  2
0
 70
     0
 62
     7
  6
Continuous
290
     1
370
    -3
390
1D
  0
LAYER
  5
24
100
AcDbSymbolTableRecord
100
AcDbLayerTableRecord
  2
Ebene 1
 70
     0
 62
     7
  6
Continuous
290
     1
370
    -3
390
1F
  0
ENDTAB
  0
TABLE
  2
STYLE
  5
3
100
AcDbSymbolTable
 70
     1
  0
STYLE
  5
17
100
AcDbSymbolTableRecord
100
AcDbTextStyleTableRecord
  2
Standard
 70
     0
 40
0.0
 41
1.0
 50
0.0
 71
     0
 42
0.0
  3
txt
  4

  0
ENDTAB
  0
TABLE
  2
VIEW
  5
5
100
AcDbSymbolTable
 70
     0
  0
ENDTAB
  0
TABLE
  2
UCS
  5
6
100
AcDbSymbolTable
 70
     0
  0
ENDTAB
  0
TABLE
  2
APPID
  5
8
100
AcDbSymbolTable
 70
     1
  0
APPID
  5
16
100
AcDbSymbolTableRecord
100
AcDbRegAppTableRecord
  2
ACAD
 70
     0
  0
ENDTAB
  0
TABLE
  2
DIMSTYLE
  5
9
100
AcDbSymbolTable
 70
     1
100
AcDbDimStyleTable
 71
     0
  0
DIMSTYLE
105
18
100
AcDbSymbolTableRecord
100
AcDbDimStyleTableRecord
  2
Standard
 70
     0
  3

  4

 40
1.0
 41
0.18
 42
0.0625
 43
0.38
 44
0.18
 45
0.0
 46
0.0
 47
0.0
 48
0.0
 71
     0
 72
     0
 73
     1
 74
     1
 75
     0
 76
     0
 77
     0
 78
     0
 79
     0
140
0.18
141
0.09
142
0.0
143
25.4
144
1.0
145
0.0
146
1.0
147
0.09
148
0.0
170
     0
171
     2
172
     0
173
     0
174
     0
175
     0
176
     0
177
     0
178
     0
179
     0
271
     4
272
     4
273
     2
274
     2
275
     0
276
     0
277
     2
278
    46
279
     0
280
     0
281
     0
282
     0
283
     1
284
     0
285
     0
286
     0
288
     0
340
17
341
0
342
0
343
0
344
0
371
    -2
372
    -2
  0
ENDTAB
  0
TABLE
  2
BLOCK_RECORD
  5
1
100
AcDbSymbolTable
 70
     0
  0
BLOCK_RECORD
  5
A
100
AcDbSymbolTableRecord
100
AcDbBlockTableRecord
  2
*MODEL_SPACE
340
20
  0
BLOCK_RECORD
  5
B
100
AcDbSymbolTableRecord
100
AcDbBlockTableRecord
  2
*PAPER_SPACE
340
21
  0
ENDTAB
  0
ENDSEC
  0
SECTION
  2
BLOCKS
  0
BLOCK
  5
D
100
AcDbEntity
  8
0
100
AcDbBlockBegin
  2
*MODEL_SPACE
 70
     0
 10
0.0
 20
0.0
 30
0.0
  3
*MODEL_SPACE
  1

  0
ENDBLK
  5
E
100
AcDbEntity
  8
0
100
AcDbBlockEnd
  0
BLOCK
  5
F
100
AcDbEntity
 67
     1
  8
0
100
AcDbBlockBegin
  2
*PAPER_SPACE
 70
     0
 10
0.0
 20
0.0
 30
0.0
  3
*PAPER_SPACE
  1

  0
ENDBLK
  5
10
100
AcDbEntity
 67
     1
  8
0
100
AcDbBlockEnd
  0
ENDSEC
  0
SECTION
  2
ENTITIES
  0
SPLINE
  5
25
100
AcDbEntity
  8
Ebene 1
100
AcDbSpline
210
0.0
220
0.0
230
1.0
 70
     1
 71
     3
 72
    72
 73
    68
 74
     0
 42
0.0000000001
 43
0.0000000001
 40
0.0
 40
0.0
 40
0.0
 40
0.0
 40
0.0588235294117647
 40
0.0588235294117647
 40
0.0588235294117647
 40
0.0588235294117647
 40
0.1176470588235294
 40
0.1176470588235294
 40
0.1176470588235294
 40
0.1176470588235294
 40
0.1764705882352941
 40
0.1764705882352941
 40
0.1764705882352941
 40
0.1764705882352941
 40
0.2352941176470588
 40
0.2352941176470588
 40
0.2352941176470588
 40
0.2352941176470588
 40
0.2941176470588235
 40
0.2941176470588235
 40
0.2941176470588235
 40
0.2941176470588235
 40
0.3529411764705883
 40
0.3529411764705883
 40
0.3529411764705883
 40
0.3529411764705883
 40
0.411764705882353
 40
0.411764705882353
 40
0.411764705882353
 40
0.411764705882353
 40
0.4705882352941177
 40
0.4705882352941177
 40
0.4705882352941177
 40
0.4705882352941177
 40
0.5294117647058824
 40
0.5294117647058824
 40
0.5294117647058824
 40
0.5294117647058824
 40
0.5882352941176471
 40
0.5882352941176471
 40
0.5882352941176471
 40
0.5882352941176471
 40
0.6470588235294118
 40
0.6470588235294118
 40
0.6470588235294118
 40
0.6470588235294118
 40
0.7058823529411765
 40
0.7058823529411765
 40
0.7058823529411765
 40
0.7058823529411765
 40
0.7647058823529412
 40
0.7647058823529412
 40
0.7647058823529412
 40
0.7647058823529412
 40
0.823529411764706
 40
0.823529411764706
 40
0.823529411764706
 40
0.823529411764706
 40
0.8823529411764707
 40
0.8823529411764707
 40
0.8823529411764707
 40
0.8823529411764707
 40
0.9411764705882354
 40
0.9411764705882354
 40
0.9411764705882354
 40
0.9411764705882354
 40
1.0
 40
1.0
 40
1.0
 40
1.0
 10
-1.4374900000000002
 20
5.9760500000000008
 30
0.0
 10
-1.0310900000000001
 20
5.9938300000000009
 30
0.0
 10
-0.6500900000000001
 20
5.9201700000000006
 30
0.0
 10
-0.27163
 20
5.8084100000000003
 30
0.0
 10
-0.27163
 20
5.8084100000000003
 30
0.0
 10
-0.27163
 20
5.8084100000000003
 30
0.0
 10
0.06364
 20
5.7906300000000002
 30
0.0
 10
0.06364
 20
5.7906300000000002
 30
0.0
 10
0.06364
 20
5.7906300000000002
 30
0.0
 10
1.8924400000000001
 20
6.3646700000000003
 30
0.0
 10
2.8932000000000002
 20
4.1167700000000007
 30
0.0
 10
2.8678000000000003
 20
2.6054700000000004
 30
0.0
 10
2.8678000000000003
 20
2.6054700000000004
 30
0.0
 10
2.9973400000000003
 20
2.2270100000000004
 30
0.0
 10
3.3123000000000005
 20
1.9349100000000001
 30
0.0
 10
3.4697800000000001
 20
1.57169
 30
0.0
 10
3.4697800000000001
 20
1.57169
 30
0.0
 10
3.3300800000000002
 20
1.10687
 30
0.0
 10
3.3656400000000004
 20
0.62173
 30
0.0
 10
3.2843600000000004
 20
0.13659
 30
0.0
 10
3.2843600000000004
 20
0.13659
 30
0.0
 10
3.4469200000000004
 20
-0.10724
 30
0.0
 10
3.5536000000000003
 20
-0.37902
 30
0.0
 10
3.6628200000000004
 20
-0.6482600000000001
 30
0.0
 10
3.6628200000000004
 20
-0.6482600000000001
 30
0.0
 10
3.7161600000000004
 20
-0.7066800000000001
 30
0.0
 10
3.8253800000000004
 20
-0.6279400000000001
 30
0.0
 10
3.8736400000000004
 20
-0.7066800000000001
 30
0.0
 10
3.8736400000000004
 20
-0.7066800000000001
 30
0.0
 10
4.4476800000000001
 20
-2.01986
 30
0.0
 10
3.6831400000000003
 20
-3.3279600000000005
 30
0.0
 10
3.1980000000000004
 20
-4.5471600000000008
 30
0.0
 10
3.1980000000000004
 20
-4.5471600000000008
 30
0.0
 10
3.1192600000000001
 20
-4.6005000000000003
 30
0.0
 10
3.0125800000000003
 20
-4.5522400000000003
 30
0.0
 10
2.9363800000000002
 20
-4.5395400000000006
 30
0.0
 10
2.9363800000000002
 20
-4.5395400000000006
 30
0.0
 10
2.8881200000000002
 20
-5.0831000000000008
 30
0.0
 10
2.5325200000000003
 20
-5.6469800000000001
 30
0.0
 10
2.1032600000000001
 20
-5.9848000000000008
 30
0.0
 10
2.1032600000000001
 20
-5.9848000000000008
 30
0.0
 10
0.74436
 20
-5.2685200000000005
 30
0.0
 10
-0.33005
 20
-3.6353000000000004
 30
0.0
 10
-2.02169
 20
-3.4498800000000003
 30
0.0
 10
-2.02169
 20
-3.4498800000000003
 30
0.0
 10
-2.2045700000000004
 20
-3.3838400000000002
 30
0.0
 10
-2.3874500000000003
 20
-3.3152600000000003
 30
0.0
 10
-2.5119100000000003
 20
-3.1450800000000001
 30
0.0
 10
-2.5119100000000003
 20
-3.1450800000000001
 30
0.0
 10
-2.8852900000000004
 20
-2.0757400000000001
 30
0.0
 10
-2.6338300000000001
 20
-0.8133600000000001
 30
0.0
 10
-3.3094700000000001
 20
0.15437
 30
0.0
 10
-3.3094700000000001
 20
0.15437
 30
0.0
 10
-3.3323300000000002
 20
0.33471
 30
0.0
 10
-3.2612100000000002
 20
0.49219
 30
0.0
 10
-3.2281900000000001
 20
0.65729
 30
0.0
 10
-3.2281900000000001
 20
0.65729
 30
0.0
 10
-3.5787100000000005
 20
0.8782700000000001
 30
0.0
 10
-3.8606500000000001
 20
1.1805300000000001
 30
0.0
 10
-4.0536900000000005
 20
1.5386700000000002
 30
0.0
 10
-4.0536900000000005
 20
1.5386700000000002
 30
0.0
 10
-4.1603700000000003
 20
1.9450700000000001
 30
0.0
 10
-3.7895300000000005
 20
2.1279500000000002
 30
0.0
 10
-3.6142700000000003
 20
2.3641700000000001
 30
0.0
 10
-3.6142700000000003
 20
2.3641700000000001
 30
0.0
 10
-4.2060900000000006
 20
3.8729300000000002
 30
0.0
 10
-3.1545300000000003
 20
5.9252500000000001
 30
0.0
 10
-1.4374900000000002
 20
5.9760500000000008
 30
0.0
  0
SPLINE
  5
26
100
AcDbEntity
  8
Ebene 1
100
AcDbSpline
210
0.0
220
0.0
230
1.0
 70
     1
 71
     3
 72
    72
 73
    68
 74
     0
 42
0.0000000001
 43
0.0000000001
 40
0.0
 40
0.0
 40
0.0
 40
0.0
 40
0.0588235294117647
 40
0.0588235294117647
 40
0.0588235294117647
 40
0.0588235294117647
 40
0.1176470588235294
 40
0.1176470588235294
 40
0.1176470588235294
 40
0.1176470588235294
 40
0.1764705882352941
 40
0.1764705882352941
 40
0.1764705882352941
 40
0.1764705882352941
 40
0.2352941176470588
 40
0.2352941176470588
 40
0.2352941176470588
 40
0.2352941176470588
 40
0.2941176470588235
 40
0.2941176470588235
 40
0.2941176470588235
 40
0.2941176470588235
 40
0.3529411764705883
 40
0.3529411764705883
 40
0.3529411764705883
 40
0.3529411764705883
 40
0.411764705882353
 40
0.411764705882353
 40
0.411764705882353
 40
0.411764705882353
 40
0.4705882352941177
 40
0.4705882352941177
 40
0.4705882352941177
 40
0.4705882352941177
 40
0.5294117647058824
 40
0.5294117647058824
 40
0.5294117647058824
 40
0.5294117647058824
 40
0.5882352941176471
 40
0.5882352941176471
 40
0.5882352941176471
 40
0.5882352941176471
 40
0.6470588235294118
 40
0.6470588235294118
 40
0.6470588235294118
 40
0.6470588235294118
 40
0.7058823529411765
 40
0.7058823529411765
 40
0.7058823529411765
 40
0.7058823529411765
 40
0.7647058823529412
 40
0.7647058823529412
 40
0.7647058823529412
 40
0.7647058823529412
 40
0.823529411764706
 40
0.823529411764706
 40
0.823529411764706
 40
0.823529411764706
 40
0.8823529411764707
 40
0.8823529411764707
 40
0.8823529411764707
 40
0.8823529411764707
 40
0.9411764705882354
 40
0.9411764705882354
 40
0.9411764705882354
 40
0.9411764705882354
 40
1.0
 40
1.0
 40
1.0
 40
1.0
 10
-1.1834900000000002
 20
-1.3975600000000001
 30
0.0
 10
-1.3054100000000002
 20
-1.67188
 30
0.0
 10
-1.2800100000000001
 20
-2.0020800000000003
 30
0.0
 10
-1.1961900000000001
 20
-2.2840200000000004
 30
0.0
 10
-1.1961900000000001
 20
-2.2840200000000004
 30
0.0
 10
-1.1428500000000001
 20
-2.2078200000000003
 30
0.0
 10
-1.2165100000000002
 20
-2.0452600000000003
 30
0.0
 10
-1.1174500000000001
 20
-1.9868400000000002
 30
0.0
 10
-1.1174500000000001
 20
-1.9868400000000002
 30
0.0
 10
-0.93203
 20
-2.1773400000000001
 30
0.0
 10
-0.7796300000000001
 20
-2.4110200000000002
 30
0.0
 10
-0.6907300000000001
 20
-2.6574000000000004
 30
0.0
 10
-0.6907300000000001
 20
-2.6574000000000004
 30
0.0
 10
-0.53325
 20
-2.6777200000000003
 30
0.0
 10
-0.45451
 20
-2.4948400000000004
 30
0.0
 10
-0.32497
 20
-2.4592800000000001
 30
0.0
 10
-0.32497
 20
-2.4592800000000001
 30
0.0
 10
-0.22337
 20
-2.5685000000000002
 30
0.0
 10
-0.21067
 20
-2.7894800000000002
 30
0.0
 10
-0.21575
 20
-2.94442
 30
0.0
 10
-0.21575
 20
-2.94442
 30
0.0
 10
-0.21575
 20
-2.94442
 30
0.0
 10
-0.07097
 20
-2.6777200000000003
 30
0.0
 10
-0.07097
 20
-2.6777200000000003
 30
0.0
 10
-0.07097
 20
-2.6777200000000003
 30
0.0
 10
0.1119
 20
-2.8682200000000004
 30
0.0
 10
0.09666
 20
-3.1730200000000002
 30
0.0
 10
0.23636
 20
-3.3990800000000001
 30
0.0
 10
0.23636
 20
-3.3990800000000001
 30
0.0
 10
0.87136
 20
-3.7902400000000003
 30
0.0
 10
1.40222
 20
-4.39222
 30
0.0
 10
1.8899000000000001
 20
-4.9357800000000003
 30
0.0
 10
1.8899000000000001
 20
-4.9357800000000003
 30
0.0
 10
2.0169000000000001
 20
-4.8849800000000005
 30
0.0
 10
2.1972400000000003
 20
-4.9738800000000003
 30
0.0
 10
2.3039200000000002
 20
-4.9180000000000001
 30
0.0
 10
2.3039200000000002
 20
-4.9180000000000001
 30
0.0
 10
2.3039200000000002
 20
-4.9180000000000001
 30
0.0
 10
2.6061800000000002
 20
-4.2855400000000001
 30
0.0
 10
2.6061800000000002
 20
-4.2855400000000001
 30
0.0
 10
2.6061800000000002
 20
-4.2855400000000001
 30
0.0
 10
1.7654400000000001
 20
-3.9045400000000003
 30
0.0
 10
0.8993000000000001
 20
-3.5540200000000004
 30
0.0
 10
0.21858
 20
-2.8606000000000003
 30
0.0
 10
0.21858
 20
-2.8606000000000003
 30
0.0
 10
0.14238
 20
-2.6828000000000003
 30
0.0
 10
0.15762
 20
-2.4821400000000002
 30
0.0
 10
0.12968
 20
-2.2916400000000001
 30
0.0
 10
0.12968
 20
-2.2916400000000001
 30
0.0
 10
0.08396
 20
-2.19258
 30
0.0
 10
0.07634
 20
-2.0732000000000004
 30
0.0
 10
-0.01509
 20
-1.9970000000000001
 30
0.0
 10
-0.01509
 20
-1.9970000000000001
 30
0.0
 10
-0.25385
 20
-1.7353800000000001
 30
0.0
 10
-0.38085
 20
-2.2256
 30
0.0
 10
-0.4291100000000001
 20
-2.4211800000000001
 30
0.0
 10
-0.4291100000000001
 20
-2.4211800000000001
 30
0.0
 10
-0.6297700000000001
 20
-2.30688
 30
0.0
 10
-0.6043700000000001
 20
-1.9893800000000001
 30
0.0
 10
-0.6475500000000001
 20
-1.7709400000000002
 30
0.0
 10
-0.6475500000000001
 20
-1.7709400000000002
 30
0.0
 10
-0.7313700000000001
 20
-1.5626600000000002
 30
0.0
 10
-0.7770900000000001
 20
-2.0554200000000002
 30
0.0
 10
-0.8126500000000001
 20
-2.13924
 30
0.0
 10
-0.8126500000000001
 20
-2.13924
 30
0.0
 10
-0.9828300000000001
 20
-1.9385800000000002
 30
0.0
 10
-1.0920500000000002
 20
-1.6439400000000002
 30
0.0
 10
-1.1834900000000002
 20
-1.3975600000000001
 30
0.0
  0
SPLINE
  5
27
100
AcDbEntity
  8
Ebene 1
100
AcDbSpline
210
0.0
220
0.0
230
1.0
 70
     1
 71
     3
 72
    12
 73
     8
 74
     0
 42
0.0000000001
 43
0.0000000001
 40
0.0
 40
0.0
 40
0.0
 40
0.0
 40
0.5
 40
0.5
 40
0.5
 40
0.5
 40
1.0
 40
1.0
 40
1.0
 40
1.0
 10
-2.4331700000000001
 20
-0.24948
 30
0.0
 10
-2.4915900000000004
 20
-0.7447800000000001
 30
0.0
 10
-2.31379
 20
-1.20706
 30
0.0
 10
-2.06487
 20
-1.5931400000000002
 30
0.0
 10
-2.06487
 20
-1.5931400000000002
 30
0.0
 10
-2.0343900000000001
 20
-1.1080000000000001
 30
0.0
 10
-2.15123
 20
-0.6279400000000001
 30
0.0
 10
-2.4331700000000001
 20
-0.24948
 30
0.0
  0
SPLINE
  5
28
100
AcDbEntity
  8
Ebene 1
 62
     7
100
AcDbSpline
210
0.0
220
0.0
230
1.0
 70
     1
 71
     3
 72
   248
 73
   244
 74
     0
 42
0.0000000001
 43
0.0000000001
 40
0.0
 40
0.0
 40
0.0
 40
0.0
 40
0.0163934426229508
 40
0.0163934426229508
 40
0.0163934426229508
 40
0.0163934426229508
 40
0.0327868852459016
 40
0.0327868852459016
 40
0.0327868852459016
 40
0.0327868852459016
 40
0.0491803278688525
 40
0.0491803278688525
 40
0.0491803278688525
 40
0.0491803278688525
 40
0.0655737704918033
 40
0.0655737704918033
 40
0.0655737704918033
 40
0.0655737704918033
 40
0.0819672131147541
 40
0.0819672131147541
 40
0.0819672131147541
 40
0.0819672131147541
 40
0.0983606557377049
 40
0.0983606557377049
 40
0.0983606557377049
 40
0.0983606557377049
 40
0.1147540983606558
 40
0.1147540983606558
 40
0.1147540983606558
 40
0.1147540983606558
 40
0.1311475409836066
 40
0.1311475409836066
 40
0.1311475409836066
 40
0.1311475409836066
 40
0.1475409836065574
 40
0.1475409836065574
 40
0.1475409836065574
 40
0.1475409836065574
 40
0.1639344262295082
 40
0.1639344262295082
 40
0.1639344262295082
 40
0.1639344262295082
 40
0.180327868852459
 40
0.180327868852459
 40
0.180327868852459
 40
0.180327868852459
 40
0.1967213114754098
 40
0.1967213114754098
 40
0.1967213114754098
 40
0.1967213114754098
 40
0.2131147540983606
 40
0.2131147540983606
 40
0.2131147540983606
 40
0.2131147540983606
 40
0.2295081967213114
 40
0.2295081967213114
 40
0.2295081967213114
 40
0.2295081967213114
 40
0.2459016393442622
 40
0.2459016393442622
 40
0.2459016393442622
 40
0.2459016393442622
 40
0.2622950819672131
 40
0.2622950819672131
 40
0.2622950819672131
 40
0.2622950819672131
 40
0.2786885245901639
 40
0.2786885245901639
 40
0.2786885245901639
 40
0.2786885245901639
 40
0.2950819672131148
 40
0.2950819672131148
 40
0.2950819672131148
 40
0.2950819672131148
 40
0.3114754098360656
 40
0.3114754098360656
 40
0.3114754098360656
 40
0.3114754098360656
 40
0.3278688524590164
 40
0.3278688524590164
 40
0.3278688524590164
 40
0.3278688524590164
 40
0.3442622950819673
 40
0.3442622950819673
 40
0.3442622950819673
 40
0.3442622950819673
 40
0.3606557377049181
 40
0.3606557377049181
 40
0.3606557377049181
 40
0.3606557377049181
 40
0.3770491803278689
 40
0.3770491803278689
 40
0.3770491803278689
 40
0.3770491803278689
 40
0.3934426229508198
 40
0.3934426229508198
 40
0.3934426229508198
 40
0.3934426229508198
 40
0.4098360655737706
 40
0.4098360655737706
 40
0.4098360655737706
 40
0.4098360655737706
 40
0.4262295081967215
 40
0.4262295081967215
 40
0.4262295081967215
 40
0.4262295081967215
 40
0.4426229508196723
 40
0.4426229508196723
 40
0.4426229508196723
 40
0.4426229508196723
 40
0.4590163934426231
 40
0.4590163934426231
 40
0.4590163934426231
 40
0.4590163934426231
 40
0.475409836065574
 40
0.475409836065574
 40
0.475409836065574
 40
0.475409836065574
 40
0.4918032786885248
 40
0.4918032786885248
 40
0.4918032786885248
 40
0.4918032786885248
 40
0.5081967213114756
 40
0.5081967213114756
 40
0.5081967213114756
 40
0.5081967213114756
 40
0.5245901639344265
 40
0.5245901639344265
 40
0.5245901639344265
 40
0.5245901639344265
 40
0.5409836065573773
 40
0.5409836065573773
 40
0.5409836065573773
 40
0.5409836065573773
 40
0.5573770491803282
 40
0.5573770491803282
 40
0.5573770491803282
 40
0.5573770491803282
 40
0.573770491803279
 40
0.573770491803279
 40
0.573770491803279
 40
0.573770491803279
 40
0.5901639344262298
 40
0.5901639344262298
 40
0.5901639344262298
 40
0.5901639344262298
 40
0.6065573770491807
 40
0.6065573770491807
 40
0.6065573770491807
 40
0.6065573770491807
 40
0.6229508196721315
 40
0.6229508196721315
 40
0.6229508196721315
 40
0.6229508196721315
 40
0.6393442622950823
 40
0.6393442622950823
 40
0.6393442622950823
 40
0.6393442622950823
 40
0.6557377049180332
 40
0.6557377049180332
 40
0.6557377049180332
 40
0.6557377049180332
 40
0.672131147540984
 40
0.672131147540984
 40
0.672131147540984
 40
0.672131147540984
 40
0.6885245901639349
 40
0.6885245901639349
 40
0.6885245901639349
 40
0.6885245901639349
 40
0.7049180327868857
 40
0.7049180327868857
 40
0.7049180327868857
 40
0.7049180327868857
 40
0.7213114754098365
 40
0.7213114754098365
 40
0.7213114754098365
 40
0.7213114754098365
 40
0.7377049180327874
 40
0.7377049180327874
 40
0.7377049180327874
 40
0.7377049180327874
 40
0.7540983606557382
 40
0.7540983606557382
 40
0.7540983606557382
 40
0.7540983606557382
 40
0.7704918032786891
 40
0.7704918032786891
 40
0.7704918032786891
 40
0.7704918032786891
 40
0.7868852459016399
 40
0.7868852459016399
 40
0.7868852459016399
 40
0.7868852459016399
 40
0.8032786885245907
 40
0.8032786885245907
 40
0.8032786885245907
 40
0.8032786885245907
 40
0.8196721311475416
 40
0.8196721311475416
 40
0.8196721311475416
 40
0.8196721311475416
 40
0.8360655737704924
 40
0.8360655737704924
 40
0.8360655737704924
 40
0.8360655737704924
 40
0.8524590163934432
 40
0.8524590163934432
 40
0.8524590163934432
 40
0.8524590163934432
 40
0.8688524590163941
 40
0.8688524590163941
 40
0.8688524590163941
 40
0.8688524590163941
 40
0.8852459016393449
 40
0.8852459016393449
 40
0.8852459016393449
 40
0.8852459016393449
 40
0.9016393442622958
 40
0.9016393442622958
 40
0.9016393442622958
 40
0.9016393442622958
 40
0.9180327868852466
 40
0.9180327868852466
 40
0.9180327868852466
 40
0.9180327868852466
 40
0.9344262295081974
 40
0.9344262295081974
 40
0.9344262295081974
 40
0.9344262295081974
 40
0.9508196721311483
 40
0.9508196721311483
 40
0.9508196721311483
 40
0.9508196721311483
 40
0.9672131147540991
 40
0.9672131147540991
 40
0.9672131147540991
 40
0.9672131147540991
 40
0.9836065573770499
 40
0.9836065573770499
 40
0.9836065573770499
 40
0.9836065573770499
 40
1.0
 40
1.0
 40
1.0
 40
1.0
 10
3.2513400000000003
 20
1.6885300000000001
 30
0.0
 10
3.5002600000000004
 20
1.2465700000000002
 30
0.0
 10
2.8220800000000001
 20
0.95701
 30
0.0
 10
2.8195400000000004
 20
1.5437500000000002
 30
0.0
 10
2.8195400000000004
 20
1.5437500000000002
 30
0.0
 10
2.6011000000000002
 20
1.9171300000000002
 30
0.0
 10
2.5376000000000003
 20
2.46069
 30
0.0
 10
2.1591400000000003
 20
2.6994500000000001
 30
0.0
 10
2.1591400000000003
 20
2.6994500000000001
 30
0.0
 10
1.9229200000000002
 20
1.6174100000000002
 30
0.0
 10
1.8695800000000002
 20
0.37789
 30
0.0
 10
1.1253600000000001
 20
-0.53396
 30
0.0
 10
1.1253600000000001
 20
-0.53396
 30
0.0
 10
0.8002400000000001
 20
-0.86416
 30
0.0
 10
1.05932
 20
-0.8082800000000001
 30
0.0
 10
1.27268
 20
-0.53142
 30
0.0
 10
1.27268
 20
-0.53142
 30
0.0
 10
1.27268
 20
-0.53142
 30
0.0
 10
1.5774800000000002
 20
-0.25202
 30
0.0
 10
1.5774800000000002
 20
-0.25202
 30
0.0
 10
1.5774800000000002
 20
-0.25202
 30
0.0
 10
1.5368400000000002
 20
-0.4882400000000001
 30
0.0
 10
1.5901800000000001
 20
-0.7346200000000001
 30
0.0
 10
1.6282800000000002
 20
-0.9606800000000001
 30
0.0
 10
1.6282800000000002
 20
-0.9606800000000001
 30
0.0
 10
1.7730600000000001
 20
-1.3950200000000001
 30
0.0
 10
1.6765400000000001
 20
-0.5212600000000001
 30
0.0
 10
1.7171800000000002
 20
-0.34854
 30
0.0
 10
1.7171800000000002
 20
-0.34854
 30
0.0
 10
1.7121000000000002
 20
0.02229
 30
0.0
 10
1.7730600000000001
 20
0.3905900000000001
 30
0.0
 10
1.9330800000000001
 20
0.7080900000000001
 30
0.0
 10
1.9330800000000001
 20
0.7080900000000001
 30
0.0
 10
1.9330800000000001
 20
0.7080900000000001
 30
0.0
 10
1.9813400000000001
 20
0.5048900000000001
 30
0.0
 10
1.9813400000000001
 20
0.5048900000000001
 30
0.0
 10
1.9813400000000001
 20
0.5048900000000001
 30
0.0
 10
2.0169000000000001
 20
0.39567
 30
0.0
 10
2.0245200000000003
 20
0.25851
 30
0.0
 10
2.1007200000000004
 20
0.17469
 30
0.0
 10
2.1007200000000004
 20
0.17469
 30
0.0
 10
2.0169000000000001
 20
0.9036700000000001
 30
0.0
 10
2.17692
 20
1.7240900000000001
 30
0.0
 10
2.2353400000000003
 20
2.4632300000000003
 30
0.0
 10
2.2353400000000003
 20
2.4632300000000003
 30
0.0
 10
2.6925400000000002
 20
1.7088500000000002
 30
0.0
 10
2.97194
 20
0.8604900000000001
 30
0.0
 10
3.0710000000000002
 20
-0.00564
 30
0.0
 10
3.0710000000000002
 20
-0.00564
 30
0.0
 10
3.0964
 20
-0.21646
 30
0.0
 10
3.0405200000000003
 20
-0.40696
 30
0.0
 10
3.05322
 20
-0.6228600000000001
 30
0.0
 10
3.05322
 20
-0.6228600000000001
 30
0.0
 10
3.0633800000000004
 20
-0.7524000000000001
 30
0.0
 10
3.1319600000000003
 20
-0.8946400000000001
 30
0.0
 10
3.1726000000000001
 20
-1.0241800000000001
 30
0.0
 10
3.1726000000000001
 20
-1.0241800000000001
 30
0.0
 10
3.1726000000000001
 20
-1.0241800000000001
 30
0.0
 10
3.1878400000000005
 20
0.01467
 30
0.0
 10
3.1878400000000005
 20
0.01467
 30
0.0
 10
3.1878400000000005
 20
0.01467
 30
0.0
 10
3.4062800000000002
 20
-0.3206000000000001
 30
0.0
 10
3.6247200000000004
 20
-0.69906
 30
0.0
 10
3.6729800000000004
 20
-1.1080000000000001
 30
0.0
 10
3.6729800000000004
 20
-1.1080000000000001
 30
0.0
 10
3.6729800000000004
 20
-1.1080000000000001
 30
0.0
 10
3.6907600000000005
 20
-1.4813800000000001
 30
0.0
 10
3.6907600000000005
 20
-1.4813800000000001
 30
0.0
 10
3.6907600000000005
 20
-1.4813800000000001
 30
0.0
 10
3.6907600000000005
 20
-1.4813800000000001
 30
0.0
 10
3.6907600000000005
 20
-1.7328400000000002
 30
0.0
 10
3.6907600000000005
 20
-1.7328400000000002
 30
0.0
 10
3.6907600000000005
 20
-1.7328400000000002
 30
0.0
 10
3.6907600000000005
 20
-1.7328400000000002
 30
0.0
 10
3.7136200000000001
 20
-1.9131800000000001
 30
0.0
 10
3.7136200000000001
 20
-1.9131800000000001
 30
0.0
 10
3.7136200000000001
 20
-1.9131800000000001
 30
0.0
 10
3.7796600000000002
 20
-1.58552
 30
0.0
 10
3.6856800000000005
 20
-1.1765800000000002
 30
0.0
 10
3.7745800000000003
 20
-0.8717800000000001
 30
0.0
 10
3.7745800000000003
 20
-0.8717800000000001
 30
0.0
 10
3.8431600000000001
 20
-0.9048000000000001
 30
0.0
 10
3.8584000000000005
 20
-0.9810000000000001
 30
0.0
 10
3.8914200000000001
 20
-1.04196
 30
0.0
 10
3.8914200000000001
 20
-1.04196
 30
0.0
 10
3.9320600000000003
 20
-1.2248400000000002
 30
0.0
 10
3.9981000000000004
 20
-1.4026400000000001
 30
0.0
 10
3.9955600000000002
 20
-1.5982200000000002
 30
0.0
 10
3.9955600000000002
 20
-1.5982200000000002
 30
0.0
 10
4.0260400000000001
 20
-1.7760200000000002
 30
0.0
 10
4.0920800000000002
 20
-1.9919200000000001
 30
0.0
 10
3.9269800000000004
 20
-2.1214600000000003
 30
0.0
 10
3.9269800000000004
 20
-2.1214600000000003
 30
0.0
 10
3.8304600000000004
 20
-1.4001000000000001
 30
0.0
 10
3.7288600000000005
 20
-3.5387800000000005
 30
0.0
 10
3.6577400000000004
 20
-2.8987000000000003
 30
0.0
 10
3.6577400000000004
 20
-2.8987000000000003
 30
0.0
 10
3.6577400000000004
 20
-2.8987000000000003
 30
0.0
 10
3.6399600000000003
 20
-2.5939000000000001
 30
0.0
 10
3.6399600000000003
 20
-2.5939000000000001
 30
0.0
 10
3.6399600000000003
 20
-2.5939000000000001
 30
0.0
 10
3.6348800000000003
 20
-2.5075400000000001
 30
0.0
 10
3.7390200000000005
 20
-2.2611600000000003
 30
0.0
 10
3.6272600000000002
 20
-2.2764000000000002
 30
0.0
 10
3.6272600000000002
 20
-2.2764000000000002
 30
0.0
 10
3.5663000000000005
 20
-3.0333200000000002
 30
0.0
 10
3.5053400000000003
 20
-3.7978600000000005
 30
0.0
 10
3.1472000000000002
 20
-4.4633400000000005
 30
0.0
 10
3.1472000000000002
 20
-4.4633400000000005
 30
0.0
 10
2.5528400000000002
 20
-4.2880800000000008
 30
0.0
 10
2.08548
 20
-3.6581600000000001
 30
0.0
 10
1.6486000000000001
 20
-3.2035000000000005
 30
0.0
 10
1.6486000000000001
 20
-3.2035000000000005
 30
0.0
 10
1.7451200000000002
 20
-3.4524200000000005
 30
0.0
 10
2.0042
 20
-3.7267400000000004
 30
0.0
 10
2.1845400000000001
 20
-3.9731200000000002
 30
0.0
 10
2.1845400000000001
 20
-3.9731200000000002
 30
0.0
 10
1.2879200000000002
 20
-3.7140400000000002
 30
0.0
 10
0.404
 20
-3.0765000000000002
 30
0.0
 10
0.2643
 20
-2.1367000000000003
 30
0.0
 10
0.2643
 20
-2.1367000000000003
 30
0.0
 10
0.24906
 20
-2.0325600000000001
 30
0.0
 10
0.30494
 20
-1.9385800000000002
 30
0.0
 10
0.30748
 20
-1.8242800000000001
 30
0.0
 10
0.30748
 20
-1.8242800000000001
 30
0.0
 10
0.31002
 20
-1.7582400000000002
 30
0.0
 10
0.30494
 20
-1.6388600000000002
 30
0.0
 10
0.22874
 20
-1.6185400000000001
 30
0.0
 10
0.22874
 20
-1.6185400000000001
 30
0.0
 10
0.35066
 20
-2.4161000000000001
 30
0.0
 10
-0.22591
 20
-1.5525000000000002
 30
0.0
 10
-0.57643
 20
-1.5144000000000002
 30
0.0
 10
-0.57643
 20
-1.5144000000000002
 30
0.0
 10
-0.57643
 20
-1.2781800000000001
 30
0.0
 10
-0.32497
 20
-1.1588000000000001
 30
0.0
 10
-0.17511
 20
-1.0292600000000001
 30
0.0
 10
-0.17511
 20
-1.0292600000000001
 30
0.0
 10
-0.38085
 20
-1.0648200000000001
 30
0.0
 10
-0.53071
 20
-1.1943600000000001
 30
0.0
 10
-0.67803
 20
-1.3467600000000002
 30
0.0
 10
-0.67803
 20
-1.3467600000000002
 30
0.0
 10
-0.9980700000000001
 20
-1.04196
 30
0.0
 10
-1.04379
 20
-0.9302
 30
0.0
 10
-0.6475500000000001
 20
-0.65588
 30
0.0
 10
-0.6475500000000001
 20
-0.65588
 30
0.0
 10
-0.8583700000000001
 20
-0.63556
 30
0.0
 10
-0.9828300000000001
 20
-0.80574
 30
0.0
 10
-1.1123700000000001
 20
-0.9530600000000001
 30
0.0
 10
-1.1123700000000001
 20
-0.9530600000000001
 30
0.0
 10
-1.3079500000000002
 20
-0.67874
 30
0.0
 10
-1.1022100000000001
 20
-0.63048
 30
0.0
 10
-0.86599
 20
-0.5390400000000001
 30
0.0
 10
-0.86599
 20
-0.5390400000000001
 30
0.0
 10
-0.8355100000000001
 20
-0.4603
 30
0.0
 10
-1.0133100000000002
 20
-0.5415800000000001
 30
0.0
 10
-1.1123700000000001
 20
-0.53396
 30
0.0
 10
-1.1123700000000001
 20
-0.53396
 30
0.0
 10
-1.5416300000000001
 20
-0.5009400000000001
 30
0.0
 10
-2.1207500000000001
 20
-0.06152
 30
0.0
 10
-1.5746500000000001
 20
0.03245
 30
0.0
 10
-1.5746500000000001
 20
0.03245
 30
0.0
 10
-1.5695700000000001
 20
0.07309
 30
0.0
 10
-1.71435
 20
0.05785
 30
0.0
 10
-1.7854700000000001
 20
0.04769
 30
0.0
 10
-1.7854700000000001
 20
0.04769
 30
0.0
 10
-2.1359900000000001
 20
-0.00564
 30
0.0
 10
-2.5271500000000002
 20
-0.04628
 30
0.0
 10
-2.81671
 20
0.14167
 30
0.0
 10
-2.81671
 20
0.14167
 30
0.0
 10
-3.3704300000000003
 20
0.4845700000000001
 30
0.0
 10
-2.7328900000000003
 20
0.8655700000000001
 30
0.0
 10
-2.48651
 20
1.11195
 30
0.0
 10
-2.48651
 20
1.11195
 30
0.0
 10
-2.6770100000000001
 20
1.02051
 30
0.0
 10
-2.9589500000000002
 20
0.8833500000000001
 30
0.0
 10
-3.1367500000000001
 20
0.70047
 30
0.0
 10
-3.1367500000000001
 20
0.70047
 30
0.0
 10
-3.4186900000000002
 20
0.8985900000000001
 30
0.0
 10
-3.6599900000000005
 20
1.1322700000000001
 30
0.0
 10
-3.7793700000000001
 20
1.4599300000000002
 30
0.0
 10
-3.7793700000000001
 20
1.4599300000000002
 30
0.0
 10
-4.0155900000000004
 20
2.1000100000000002
 30
0.0
 10
-3.1875500000000003
 20
2.2346300000000001
 30
0.0
 10
-2.8040100000000003
 20
2.01111
 30
0.0
 10
-2.8040100000000003
 20
2.01111
 30
0.0
 10
-3.5609300000000004
 20
2.9026500000000004
 30
0.0
 10
-3.2053300000000005
 20
4.2742500000000003
 30
0.0
 10
-2.6566900000000002
 20
5.1454700000000004
 30
0.0
 10
-2.6566900000000002
 20
5.1454700000000004
 30
0.0
 10
-2.8548100000000001
 20
5.0260900000000008
 30
0.0
 10
-2.9691100000000001
 20
4.7822500000000003
 30
0.0
 10
-3.0910300000000004
 20
4.5765100000000007
 30
0.0
 10
-3.0910300000000004
 20
4.5765100000000007
 30
0.0
 10
-3.2586700000000004
 20
4.2412300000000007
 30
0.0
 10
-3.3653500000000003
 20
3.8881700000000001
 30
0.0
 10
-3.3958300000000001
 20
3.5122500000000003
 30
0.0
 10
-3.3958300000000001
 20
3.5122500000000003
 30
0.0
 10
-3.4263100000000004
 20
3.3090500000000005
 30
0.0
 10
-3.4313900000000004
 20
3.0601300000000005
 30
0.0
 10
-3.4288500000000002
 20
2.8696300000000003
 30
0.0
 10
-3.4288500000000002
 20
2.8696300000000003
 30
0.0
 10
-3.9495500000000003
 20
4.3021900000000004
 30
0.0
 10
-2.69225
 20
5.8973100000000001
 30
0.0
 10
-1.2012700000000001
 20
5.8744500000000004
 30
0.0
 10
-1.2012700000000001
 20
5.8744500000000004
 30
0.0
 10
-0.28941
 20
5.8338100000000006
 30
0.0
 10
0.45988
 20
5.1480100000000002
 30
0.0
 10
1.0542400000000001
 20
4.5307900000000005
 30
0.0
 10
1.0542400000000001
 20
4.5307900000000005
 30
0.0
 10
0.9678800000000001
 20
4.9448100000000004
 30
0.0
 10
0.61736
 20
5.2775500000000006
 30
0.0
 10
0.3024
 20
5.5518700000000001
 30
0.0
 10
0.3024
 20
5.5518700000000001
 30
0.0
 10
0.7469
 20
5.7474500000000006
 30
0.0
 10
1.2930000000000001
 20
5.5645700000000007
 30
0.0
 10
1.6790800000000001
 20
5.2978700000000005
 30
0.0
 10
1.6790800000000001
 20
5.2978700000000005
 30
0.0
 10
2.5706200000000003
 20
4.5104700000000006
 30
0.0
 10
2.7509600000000001
 20
3.2201500000000003
 30
0.0
 10
2.6874600000000002
 20
2.13557
 30
0.0
 10
2.6874600000000002
 20
2.13557
 30
0.0
 10
2.6874600000000002
 20
2.13557
 30
0.0
 10
2.7789000000000001
 20
2.3971900000000002
 30
0.0
 10
2.7789000000000001
 20
2.3971900000000002
 30
0.0
 10
2.7789000000000001
 20
2.3971900000000002
 30
0.0
 10
2.7230200000000004
 20
2.6486500000000004
 30
0.0
 10
2.8043
 20
2.5267300000000001
 30
0.0
 10
2.8678000000000003
 20
2.3692500000000001
 30
0.0
 10
2.8678000000000003
 20
2.3692500000000001
 30
0.0
 10
2.8906600000000005
 20
2.3235300000000003
 30
0.0
 10
2.9008200000000004
 20
2.2625700000000002
 30
0.0
 10
2.9440000000000004
 20
2.2270100000000004
 30
0.0
 10
2.9440000000000004
 20
2.2270100000000004
 30
0.0
 10
2.9440000000000004
 20
2.2270100000000004
 30
0.0
 10
3.0633800000000004
 20
1.9907900000000001
 30
0.0
 10
3.0633800000000004
 20
1.9907900000000001
 30
0.0
 10
3.0633800000000004
 20
1.9907900000000001
 30
0.0
 10
3.0633800000000004
 20
1.9907900000000001
 30
0.0
 10
3.2259400000000005
 20
1.4599300000000002
 30
0.0
 10
3.2259400000000005
 20
1.4599300000000002
 30
0.0
 10
3.2259400000000005
 20
1.4599300000000002
 30
0.0
 10
3.2919800000000001
 20
1.5183500000000001
 30
0.0
 10
3.1980000000000004
 20
1.61487
 30
0.0
 10
3.2513400000000003
 20
1.6885300000000001
 30
0.0
  0
SPLINE
  5
29
100
AcDbEntity
  8
Ebene 1
100
AcDbSpline
210
0.0
220
0.0
230
1.0
 70
     1
 71
     3
 72
    20
 73
    16
 74
     0
 42
0.0000000001
 43
0.0000000001
 40
0.0
 40
0.0
 40
0.0
 40
0.0
 40
0.25
 40
0.25
 40
0.25
 40
0.25
 40
0.5
 40
0.5
 40
0.5
 40
0.5
 40
0.75
 40
0.75
 40
0.75
 40
0.75
 40
1.0
 40
1.0
 40
1.0
 40
1.0
 10
1.4301600000000001
 20
5.2673900000000007
 30
0.0
 10
2.0143600000000004
 20
4.9067100000000003
 30
0.0
 10
2.1947000000000001
 20
4.1828099999999999
 30
0.0
 10
2.3242400000000001
 20
3.5630500000000005
 30
0.0
 10
2.3242400000000001
 20
3.5630500000000005
 30
0.0
 10
2.3242400000000001
 20
3.5401900000000004
 30
0.0
 10
2.3115400000000004
 20
3.5071700000000003
 30
0.0
 10
2.2886800000000003
 20
3.4944700000000002
 30
0.0
 10
2.2886800000000003
 20
3.4944700000000002
 30
0.0
 10
2.0550000000000002
 20
4.0583499999999999
 30
0.0
 10
2.0143600000000004
 20
4.79495
 30
0.0
 10
1.4504800000000002
 20
5.18865
 30
0.0
 10
1.4504800000000002
 20
5.18865
 30
0.0
 10
1.4225400000000001
 20
5.2089700000000008
 30
0.0
 10
1.39968
 20
5.2369100000000008
 30
0.0
 10
1.4301600000000001
 20
5.2673900000000007
 30
0.0
  0
SPLINE
  5
2A
100
AcDbEntity
  8
Ebene 1
100
AcDbSpline
210
0.0
220
0.0
230
1.0
 70
     1
 71
     3
 72
   124
 73
   120
 74
     0
 42
0.0000000001
 43
0.0000000001
 40
0.0
 40
0.0
 40
0.0
 40
0.0
 40
0.0333333333333333
 40
0.0333333333333333
 40
0.0333333333333333
 40
0.0333333333333333
 40
0.0666666666666667
 40
0.0666666666666667
 40
0.0666666666666667
 40
0.0666666666666667
 40
0.1
 40
0.1
 40
0.1
 40
0.1
 40
0.1333333333333333
 40
0.1333333333333333
 40
0.1333333333333333
 40
0.1333333333333333
 40
0.1666666666666667
 40
0.1666666666666667
 40
0.1666666666666667
 40
0.1666666666666667
 40
0.2
 40
0.2
 40
0.2
 40
0.2
 40
0.2333333333333333
 40
0.2333333333333333
 40
0.2333333333333333
 40
0.2333333333333333
 40
0.2666666666666667
 40
0.2666666666666667
 40
0.2666666666666667
 40
0.2666666666666667
 40
0.3
 40
0.3
 40
0.3
 40
0.3
 40
0.3333333333333333
 40
0.3333333333333333
 40
0.3333333333333333
 40
0.3333333333333333
 40
0.3666666666666666
 40
0.3666666666666666
 40
0.3666666666666666
 40
0.3666666666666666
 40
0.4
 40
0.4
 40
0.4
 40
0.4
 40
0.4333333333333333
 40
0.4333333333333333
 40
0.4333333333333333
 40
0.4333333333333333
 40
0.4666666666666666
 40
0.4666666666666666
 40
0.4666666666666666
 40
0.4666666666666666
 40
0.4999999999999999
 40
0.4999999999999999
 40
0.4999999999999999
 40
0.4999999999999999
 40
0.5333333333333333
 40
0.5333333333333333
 40
0.5333333333333333
 40
0.5333333333333333
 40
0.5666666666666667
 40
0.5666666666666667
 40
0.5666666666666667
 40
0.5666666666666667
 40
0.6
 40
0.6
 40
0.6
 40
0.6
 40
0.6333333333333333
 40
0.6333333333333333
 40
0.6333333333333333
 40
0.6333333333333333
 40
0.6666666666666666
 40
0.6666666666666666
 40
0.6666666666666666
 40
0.6666666666666666
 40
0.7
 40
0.7
 40
0.7
 40
0.7
 40
0.7333333333333333
 40
0.7333333333333333
 40
0.7333333333333333
 40
0.7333333333333333
 40
0.7666666666666666
 40
0.7666666666666666
 40
0.7666666666666666
 40
0.7666666666666666
 40
0.7999999999999999
 40
0.7999999999999999
 40
0.7999999999999999
 40
0.7999999999999999
 40
0.8333333333333333
 40
0.8333333333333333
 40
0.8333333333333333
 40
0.8333333333333333
 40
0.8666666666666666
 40
0.8666666666666666
 40
0.8666666666666666
 40
0.8666666666666666
 40
0.8999999999999999
 40
0.8999999999999999
 40
0.8999999999999999
 40
0.8999999999999999
 40
0.9333333333333332
 40
0.9333333333333332
 40
0.9333333333333332
 40
0.9333333333333332
 40
0.9666666666666666
 40
0.9666666666666666
 40
0.9666666666666666
 40
0.9666666666666666
 40
1.0
 40
1.0
 40
1.0
 40
1.0
 10
-1.2342900000000001
 20
3.3776300000000004
 30
0.0
 10
-0.27671
 20
2.6842100000000002
 30
0.0
 10
-0.8812300000000001
 20
1.1856100000000001
 30
0.0
 10
0.2643
 20
0.6268100000000001
 30
0.0
 10
0.2643
 20
0.6268100000000001
 30
0.0
 10
0.42178
 20
0.6699900000000001
 30
0.0
 10
0.5843400000000001
 20
0.6903100000000001
 30
0.0
 10
0.7342000000000001
 20
0.76651
 30
0.0
 10
0.7342000000000001
 20
0.76651
 30
0.0
 10
0.7342000000000001
 20
0.76651
 30
0.0
 10
0.85104
 20
1.0001900000000001
 30
0.0
 10
0.85104
 20
1.0001900000000001
 30
0.0
 10
0.85104
 20
1.0001900000000001
 30
0.0
 10
0.85104
 20
1.0001900000000001
 30
0.0
 10
0.9221600000000001
 20
1.0484500000000001
 30
0.0
 10
0.9221600000000001
 20
1.0484500000000001
 30
0.0
 10
0.9221600000000001
 20
1.0484500000000001
 30
0.0
 10
0.7342000000000001
 20
0.59633
 30
0.0
 10
1.2803000000000002
 20
0.8858900000000001
 30
0.0
 10
1.5597000000000001
 20
0.9951100000000001
 30
0.0
 10
1.5597000000000001
 20
0.9951100000000001
 30
0.0
 10
1.2828400000000002
 20
0.7512700000000001
 30
0.0
 10
0.9399400000000001
 20
0.5887100000000001
 30
0.0
 10
0.6249800000000001
 20
0.30423
 30
0.0
 10
0.6249800000000001
 20
0.30423
 30
0.0
 10
0.5437000000000001
 20
0.23057
 30
0.0
 10
0.47512
 20
0.11881
 30
0.0
 10
0.32018
 20
0.05785
 30
0.0
 10
0.32018
 20
0.05785
 30
0.0
 10
0.32018
 20
0.05785
 30
0.0
 10
0.3786000000000001
 20
0.17469
 30
0.0
 10
0.3786000000000001
 20
0.17469
 30
0.0
 10
0.3786000000000001
 20
0.17469
 30
0.0
 10
0.47512
 20
0.28645
 30
0.0
 10
0.55894
 20
0.40583
 30
0.0
 10
0.61482
 20
0.53791
 30
0.0
 10
0.61482
 20
0.53791
 30
0.0
 10
0.3989200000000001
 20
0.57855
 30
0.0
 10
0.17794
 20
0.37535
 30
0.0
 10
0.10936
 20
0.17469
 30
0.0
 10
0.10936
 20
0.17469
 30
0.0
 10
0.10936
 20
0.17469
 30
0.0
 10
-0.06589
 20
-0.219
 30
0.0
 10
-0.06589
 20
-0.219
 30
0.0
 10
-0.06589
 20
-0.219
 30
0.0
 10
-0.10145
 20
-0.27488
 30
0.0
 10
-0.14971
 20
-0.3333
 30
0.0
 10
-0.20813
 20
-0.36124
 30
0.0
 10
-0.20813
 20
-0.36124
 30
0.0
 10
-0.6450100000000001
 20
-0.7016000000000001
 30
0.0
 10
0.13222
 20
0.05023
 30
0.0
 10
-0.14209
 20
0.05785
 30
0.0
 10
-0.14209
 20
0.05785
 30
0.0
 10
-0.22845
 20
0.03753
 30
0.0
 10
-0.29449
 20
-0.02342
 30
0.0
 10
-0.36053
 20
-0.07422
 30
0.0
 10
-0.36053
 20
-0.07422
 30
0.0
 10
-0.48499
 20
-0.16058
 30
0.0
 10
-0.6221500000000001
 20
-0.2444
 30
0.0
 10
-0.7796300000000001
 20
-0.2317
 30
0.0
 10
-0.7796300000000001
 20
-0.2317
 30
0.0
 10
-0.9066300000000001
 20
-0.28758
 30
0.0
 10
-1.17079
 20
-0.25202
 30
0.0
 10
-1.12761
 20
-0.08184
 30
0.0
 10
-1.12761
 20
-0.08184
 30
0.0
 10
-0.7059700000000001
 20
-0.39172
 30
0.0
 10
-0.35037
 20
0.19501
 30
0.0
 10
0.05856
 20
0.26105
 30
0.0
 10
0.05856
 20
0.26105
 30
0.0
 10
0.07634
 20
0.35249
 30
0.0
 10
0.1373
 20
0.4439300000000001
 30
0.0
 10
0.09158
 20
0.53791
 30
0.0
 10
0.09158
 20
0.53791
 30
0.0
 10
0.09158
 20
0.53791
 30
0.0
 10
-0.03795
 20
0.5252100000000001
 30
0.0
 10
-0.03795
 20
0.5252100000000001
 30
0.0
 10
-0.03795
 20
0.5252100000000001
 30
0.0
 10
-0.35291
 20
0.46679
 30
0.0
 10
-0.5611900000000001
 20
0.08071
 30
0.0
 10
-0.8964700000000001
 20
0.13659
 30
0.0
 10
-0.8964700000000001
 20
0.13659
 30
0.0
 10
-1.4349500000000002
 20
0.24581
 30
0.0
 10
-1.2190500000000002
 20
0.7131700000000001
 30
0.0
 10
-1.1174500000000001
 20
1.06623
 30
0.0
 10
-1.1174500000000001
 20
1.06623
 30
0.0
 10
-1.2698500000000001
 20
1.3278500000000002
 30
0.0
 10
-1.6635500000000001
 20
1.5234300000000001
 30
0.0
 10
-1.5086100000000002
 20
1.8891900000000001
 30
0.0
 10
-1.5086100000000002
 20
1.8891900000000001
 30
0.0
 10
-1.5086100000000002
 20
1.8891900000000001
 30
0.0
 10
-1.6406900000000002
 20
1.8764900000000002
 30
0.0
 10
-1.6406900000000002
 20
1.8764900000000002
 30
0.0
 10
-1.6406900000000002
 20
1.8764900000000002
 30
0.0
 10
-1.8464300000000002
 20
1.7977500000000002
 30
0.0
 10
-1.6787900000000002
 20
1.5462900000000002
 30
0.0
 10
-1.5746500000000001
 20
1.4345300000000001
 30
0.0
 10
-1.5746500000000001
 20
1.4345300000000001
 30
0.0
 10
-1.50607
 20
1.3329300000000002
 30
0.0
 10
-1.4679700000000002
 20
1.2135500000000001
 30
0.0
 10
-1.4908300000000001
 20
1.0865500000000001
 30
0.0
 10
-1.4908300000000001
 20
1.0865500000000001
 30
0.0
 10
-1.5086100000000002
 20
1.3913500000000001
 30
0.0
 10
-1.8921500000000002
 20
1.5234300000000001
 30
0.0
 10
-1.8794500000000001
 20
1.8561700000000001
 30
0.0
 10
-1.8794500000000001
 20
1.8561700000000001
 30
0.0
 10
-2.4407900000000002
 20
1.9298300000000002
 30
0.0
 10
-2.1613900000000004
 20
2.6359500000000002
 30
0.0
 10
-1.7753100000000002
 20
2.7858100000000001
 30
0.0
 10
-1.7753100000000002
 20
2.7858100000000001
 30
0.0
 10
-1.7194300000000002
 20
2.6257900000000003
 30
0.0
 10
-2.2350500000000002
 20
2.2143100000000002
 30
0.0
 10
-1.8921500000000002
 20
1.9755500000000001
 30
0.0
 10
-1.8921500000000002
 20
1.9755500000000001
 30
0.0
 10
-1.5187700000000002
 20
1.9806300000000001
 30
0.0
 10
-1.12761
 20
2.2193900000000002
 30
0.0
 10
-0.78217
 20
2.04921
 30
0.0
 10
-0.78217
 20
2.04921
 30
0.0
 10
-0.72375
 20
2.5495900000000002
 30
0.0
 10
-0.9599700000000001
 20
3.01187
 30
0.0
 10
-1.2342900000000001
 20
3.3776300000000004
 30
0.0
  0
SPLINE
  5
2B
100
AcDbEntity
  8
Ebene 1
100
AcDbSpline
210
0.0
220
0.0
230
1.0
 70
     1
 71
     3
 72
    28
 73
    24
 74
     0
 42
0.0000000001
 43
0.0000000001
 40
0.0
 40
0.0
 40
0.0
 40
0.0
 40
0.1666666666666667
 40
0.1666666666666667
 40
0.1666666666666667
 40
0.1666666666666667
 40
0.3333333333333333
 40
0.3333333333333333
 40
0.3333333333333333
 40
0.3333333333333333
 40
0.5
 40
0.5
 40
0.5
 40
0.5
 40
0.6666666666666666
 40
0.6666666666666666
 40
0.6666666666666666
 40
0.6666666666666666
 40
0.8333333333333333
 40
0.8333333333333333
 40
0.8333333333333333
 40
0.8333333333333333
 40
1.0
 40
1.0
 40
1.0
 40
1.0
 10
-0.13701
 20
3.14141
 30
0.0
 10
0.3252600000000001
 20
2.9686900000000001
 30
0.0
 10
0.6961000000000001
 20
2.5572100000000004
 30
0.0
 10
0.7088000000000001
 20
2.04921
 30
0.0
 10
0.7088000000000001
 20
2.04921
 30
0.0
 10
1.02376
 20
1.8739500000000002
 30
0.0
 10
1.3641200000000002
 20
1.5462900000000002
 30
0.0
 10
1.3412600000000001
 20
1.1729100000000001
 30
0.0
 10
1.3412600000000001
 20
1.1729100000000001
 30
0.0
 10
1.31332
 20
1.1652900000000002
 30
0.0
 10
1.2828400000000002
 20
1.1856100000000001
 30
0.0
 10
1.2650600000000001
 20
1.2059300000000002
 30
0.0
 10
1.2650600000000001
 20
1.2059300000000002
 30
0.0
 10
1.2472800000000002
 20
1.5183500000000001
 30
0.0
 10
0.8662800000000001
 20
1.8764900000000002
 30
0.0
 10
0.57418
 20
1.7621900000000001
 30
0.0
 10
0.57418
 20
1.7621900000000001
 30
0.0
 10
0.57926
 20
2.2625700000000002
 30
0.0
 10
0.41162
 20
2.8391500000000001
 30
0.0
 10
-0.09891
 20
3.0626700000000002
 30
0.0
 10
-0.09891
 20
3.0626700000000002
 30
0.0
 10
-0.12431
 20
3.0829900000000001
 30
0.0
 10
-0.14717
 20
3.1058500000000002
 30
0.0
 10
-0.13701
 20
3.14141
 30
0.0
  0
SPLINE
  5
2C
100
AcDbEntity
  8
Ebene 1
100
AcDbSpline
210
0.0
220
0.0
230
1.0
 70
     1
 71
     3
 72
    20
 73
    16
 74
     0
 42
0.0000000001
 43
0.0000000001
 40
0.0
 40
0.0
 40
0.0
 40
0.0
 40
0.25
 40
0.25
 40
0.25
 40
0.25
 40
0.5
 40
0.5
 40
0.5
 40
0.5
 40
0.75
 40
0.75
 40
0.75
 40
0.75
 40
1.0
 40
1.0
 40
1.0
 40
1.0
 10
-1.6813300000000002
 20
0.9239900000000001
 30
0.0
 10
-1.5187700000000002
 20
0.78937
 30
0.0
 10
-1.8438900000000003
 20
0.8884300000000001
 30
0.0
 10
-1.9861300000000002
 20
1.0789300000000002
 30
0.0
 10
-1.9861300000000002
 20
1.0789300000000002
 30
0.0
 10
-2.0724900000000002
 20
1.19577
 30
0.0
 10
-2.19441
 20
1.2440300000000002
 30
0.0
 10
-2.3442700000000003
 20
1.18815
 30
0.0
 10
-2.3442700000000003
 20
1.18815
 30
0.0
 10
-2.1969500000000002
 20
1.4319900000000001
 30
0.0
 10
-2.5042900000000001
 20
1.6097900000000001
 30
0.0
 10
-2.56271
 20
1.8206100000000001
 30
0.0
 10
-2.56271
 20
1.8206100000000001
 30
0.0
 10
-2.2579100000000003
 20
1.5894700000000002
 30
0.0
 10
-1.92517
 20
1.23895
 30
0.0
 10
-1.6813300000000002
 20
0.9239900000000001
 30
0.0
  0
SPLINE
  5
2D
100
AcDbEntity
  8
Ebene 1
 62
     7
100
AcDbSpline
210
0.0
220
0.0
230
1.0
 70
     1
 71
     3
 72
    12
 73
     8
 74
     0
 42
0.0000000001
 43
0.0000000001
 40
0.0
 40
0.0
 40
0.0
 40
0.0
 40
0.5
 40
0.5
 40
0.5
 40
0.5
 40
1.0
 40
1.0
 40
1.0
 40
1.0
 10
-0.76185
 20
0.9468500000000001
 30
0.0
 10
-0.76185
 20
0.9468500000000001
 30
0.0
 10
-0.39355
 20
0.6471300000000001
 30
0.0
 10
-0.39355
 20
0.6471300000000001
 30
0.0
 10
-0.39355
 20
0.6471300000000001
 30
0.0
 10
-0.5815100000000001
 20
0.6268100000000001
 30
0.0
 10
-0.70089
 20
0.7919100000000001
 30
0.0
 10
-0.76185
 20
0.9468500000000001
 30
0.0
  0
SPLINE
  5
2E
100
AcDbEntity
  8
Ebene 1
 62
     7
100
AcDbSpline
210
0.0
220
0.0
230
1.0
 70
     1
 71
     3
 72
    16
 73
    12
 74
     0
 42
0.0000000001
 43
0.0000000001
 40
0.0
 40
0.0
 40
0.0
 40
0.0
 40
0.3333333333333333
 40
0.3333333333333333
 40
0.3333333333333333
 40
0.3333333333333333
 40
0.6666666666666666
 40
0.6666666666666666
 40
0.6666666666666666
 40
0.6666666666666666
 40
1.0
 40
1.0
 40
1.0
 40
1.0
 10
3.0329000000000002
 20
0.9468500000000001
 30
0.0
 10
3.0329000000000002
 20
0.9468500000000001
 30
0.0
 10
3.1624400000000001
 20
0.9265300000000001
 30
0.0
 10
3.1624400000000001
 20
0.9265300000000001
 30
0.0
 10
3.1624400000000001
 20
0.9265300000000001
 30
0.0
 10
3.2462600000000004
 20
0.7538100000000001
 30
0.0
 10
3.2310200000000004
 20
0.55315
 30
0.0
 10
3.2132400000000003
 20
0.36265
 30
0.0
 10
3.2132400000000003
 20
0.36265
 30
0.0
 10
3.0710000000000002
 20
0.51251
 30
0.0
 10
3.0913200000000001
 20
0.7512700000000001
 30
0.0
 10
3.0329000000000002
 20
0.9468500000000001
 30
0.0
  0
SPLINE
  5
2F
100
AcDbEntity
  8
Ebene 1
100
AcDbSpline
210
0.0
220
0.0
230
1.0
 70
     1
 71
     3
 72
    24
 73
    20
 74
     0
 42
0.0000000001
 43
0.0000000001
 40
0.0
 40
0.0
 40
0.0
 40
0.0
 40
0.2
 40
0.2
 40
0.2
 40
0.2
 40
0.4
 40
0.4
 40
0.4
 40
0.4
 40
0.6000000000000001
 40
0.6000000000000001
 40
0.6000000000000001
 40
0.6000000000000001
 40
0.8
 40
0.8
 40
0.8
 40
0.8
 40
1.0
 40
1.0
 40
1.0
 40
1.0
 10
1.61304
 20
0.7614300000000001
 30
0.0
 10
1.6308200000000002
 20
0.7588900000000001
 30
0.0
 10
1.6638400000000002
 20
0.7715900000000001
 30
0.0
 10
1.6663800000000002
 20
0.74365
 30
0.0
 10
1.6663800000000002
 20
0.74365
 30
0.0
 10
1.6663800000000002
 20
0.74365
 30
0.0
 10
1.2447400000000002
 20
0.13659
 30
0.0
 10
1.2447400000000002
 20
0.13659
 30
0.0
 10
1.2447400000000002
 20
0.13659
 30
0.0
 10
1.2066400000000002
 20
0.21279
 30
0.0
 10
1.3641200000000002
 20
0.44647
 30
0.0
 10
1.1761600000000001
 20
0.42361
 30
0.0
 10
1.1761600000000001
 20
0.42361
 30
0.0
 10
1.1583800000000002
 20
0.4210700000000001
 30
0.0
 10
1.1558400000000002
 20
0.4439300000000001
 30
0.0
 10
1.1634600000000002
 20
0.4540900000000001
 30
0.0
 10
1.1634600000000002
 20
0.4540900000000001
 30
0.0
 10
1.3285600000000002
 20
0.5201300000000001
 30
0.0
 10
1.5165200000000001
 20
0.6242700000000001
 30
0.0
 10
1.61304
 20
0.7614300000000001
 30
0.0
  0
SPLINE
  5
30
100
AcDbEntity
  8
Ebene 1
 62
     7
100
AcDbSpline
210
0.0
220
0.0
230
1.0
 70
     1
 71
     3
 72
   100
 73
    96
 74
     0
 42
0.0000000001
 43
0.0000000001
 40
0.0
 40
0.0
 40
0.0
 40
0.0
 40
0.0416666666666667
 40
0.0416666666666667
 40
0.0416666666666667
 40
0.0416666666666667
 40
0.0833333333333333
 40
0.0833333333333333
 40
0.0833333333333333
 40
0.0833333333333333
 40
0.125
 40
0.125
 40
0.125
 40
0.125
 40
0.1666666666666667
 40
0.1666666666666667
 40
0.1666666666666667
 40
0.1666666666666667
 40
0.2083333333333333
 40
0.2083333333333333
 40
0.2083333333333333
 40
0.2083333333333333
 40
0.25
 40
0.25
 40
0.25
 40
0.25
 40
0.2916666666666666
 40
0.2916666666666666
 40
0.2916666666666666
 40
0.2916666666666666
 40
0.3333333333333333
 40
0.3333333333333333
 40
0.3333333333333333
 40
0.3333333333333333
 40
0.375
 40
0.375
 40
0.375
 40
0.375
 40
0.4166666666666667
 40
0.4166666666666667
 40
0.4166666666666667
 40
0.4166666666666667
 40
0.4583333333333334
 40
0.4583333333333334
 40
0.4583333333333334
 40
0.4583333333333334
 40
0.5
 40
0.5
 40
0.5
 40
0.5
 40
0.5416666666666666
 40
0.5416666666666666
 40
0.5416666666666666
 40
0.5416666666666666
 40
0.5833333333333333
 40
0.5833333333333333
 40
0.5833333333333333
 40
0.5833333333333333
 40
0.6249999999999999
 40
0.6249999999999999
 40
0.6249999999999999
 40
0.6249999999999999
 40
0.6666666666666665
 40
0.6666666666666665
 40
0.6666666666666665
 40
0.6666666666666665
 40
0.7083333333333332
 40
0.7083333333333332
 40
0.7083333333333332
 40
0.7083333333333332
 40
0.7499999999999998
 40
0.7499999999999998
 40
0.7499999999999998
 40
0.7499999999999998
 40
0.7916666666666664
 40
0.7916666666666664
 40
0.7916666666666664
 40
0.7916666666666664
 40
0.833333333333333
 40
0.833333333333333
 40
0.833333333333333
 40
0.833333333333333
 40
0.8749999999999997
 40
0.8749999999999997
 40
0.8749999999999997
 40
0.8749999999999997
 40
0.9166666666666663
 40
0.9166666666666663
 40
0.9166666666666663
 40
0.9166666666666663
 40
0.9583333333333329
 40
0.9583333333333329
 40
0.9583333333333329
 40
0.9583333333333329
 40
1.0
 40
1.0
 40
1.0
 40
1.0
 10
-3.1088100000000001
 20
0.23819
 30
0.0
 10
-2.9538700000000002
 20
0.07309
 30
0.0
 10
-2.7252700000000001
 20
0.00705
 30
0.0
 10
-2.5881100000000004
 20
-0.16566
 30
0.0
 10
-2.5881100000000004
 20
-0.16566
 30
0.0
 10
-2.5982700000000003
 20
-0.9733800000000001
 30
0.0
 10
-1.9962900000000001
 20
-1.6414000000000002
 30
0.0
 10
-2.14107
 20
-2.4542000000000002
 30
0.0
 10
-2.14107
 20
-2.4542000000000002
 30
0.0
 10
-1.8819900000000001
 20
-1.7887200000000001
 30
0.0
 10
-1.9302500000000002
 20
-0.8133600000000001
 30
0.0
 10
-2.3595100000000002
 20
-0.15042
 30
0.0
 10
-2.3595100000000002
 20
-0.15042
 30
0.0
 10
-2.01661
 20
-0.08438
 30
0.0
 10
-1.8184900000000002
 20
-0.3307600000000001
 30
0.0
 10
-1.7092700000000001
 20
-0.6228600000000001
 30
0.0
 10
-1.7092700000000001
 20
-0.6228600000000001
 30
0.0
 10
-1.5619500000000002
 20
-1.00132
 30
0.0
 10
-1.7473700000000001
 20
-1.7912600000000001
 30
0.0
 10
-1.42225
 20
-1.8344400000000001
 30
0.0
 10
-1.42225
 20
-1.8344400000000001
 30
0.0
 10
-1.3943100000000002
 20
-2.2281400000000002
 30
0.0
 10
-1.20635
 20
-2.7513800000000002
 30
0.0
 10
-0.7491500000000001
 20
-2.7818600000000004
 30
0.0
 10
-0.7491500000000001
 20
-2.7818600000000004
 30
0.0
 10
-0.6704100000000001
 20
-3.0231600000000003
 30
0.0
 10
-0.6856500000000001
 20
-3.3482800000000004
 30
0.0
 10
-0.4291100000000001
 20
-3.4829000000000003
 30
0.0
 10
-0.4291100000000001
 20
-3.4829000000000003
 30
0.0
 10
-0.49515
 20
-3.3584400000000003
 30
0.0
 10
-0.61453
 20
-3.2441400000000002
 30
0.0
 10
-0.6094500000000001
 20
-3.0841200000000004
 30
0.0
 10
-0.6094500000000001
 20
-3.0841200000000004
 30
0.0
 10
-0.61199
 20
-2.9647400000000004
 30
0.0
 10
-0.3859300000000001
 20
-3.0561800000000003
 30
0.0
 10
-0.29449
 20
-3.0536400000000001
 30
0.0
 10
-0.29449
 20
-3.0536400000000001
 30
0.0
 10
-0.21575
 20
-3.5489400000000004
 30
0.0
 10
0.3913
 20
-3.6429200000000002
 30
0.0
 10
0.5233800000000001
 20
-4.1255200000000007
 30
0.0
 10
0.5233800000000001
 20
-4.1255200000000007
 30
0.0
 10
0.63768
 20
-4.0010600000000007
 30
0.0
 10
0.35066
 20
-3.7623000000000002
 30
0.0
 10
0.25414
 20
-3.5591000000000004
 30
0.0
 10
0.25414
 20
-3.5591000000000004
 30
0.0
 10
0.99582
 20
-4.0112200000000007
 30
0.0
 10
1.7121000000000002
 20
-4.7554400000000001
 30
0.0
 10
2.0880200000000002
 20
-5.5301400000000003
 30
0.0
 10
2.0880200000000002
 20
-5.5301400000000003
 30
0.0
 10
2.0880200000000002
 20
-5.5301400000000003
 30
0.0
 10
2.1032600000000001
 20
-5.2609000000000004
 30
0.0
 10
2.1032600000000001
 20
-5.2609000000000004
 30
0.0
 10
2.1032600000000001
 20
-5.2609000000000004
 30
0.0
 10
2.1642200000000003
 20
-4.8265600000000006
 30
0.0
 10
2.20994
 20
-5.4488600000000007
 30
0.0
 10
2.20486
 20
-5.5809400000000009
 30
0.0
 10
2.20486
 20
-5.5809400000000009
 30
0.0
 10
2.3166200000000003
 20
-5.1923200000000005
 30
0.0
 10
2.4614000000000003
 20
-4.7833800000000002
 30
0.0
 10
2.7154000000000003
 20
-4.4379400000000002
 30
0.0
 10
2.7154000000000003
 20
-4.4379400000000002
 30
0.0
 10
2.7763600000000004
 20
-4.4582600000000001
 30
0.0
 10
2.7763600000000004
 20
-4.5217600000000004
 30
0.0
 10
2.7966800000000003
 20
-4.5700200000000004
 30
0.0
 10
2.7966800000000003
 20
-4.5700200000000004
 30
0.0
 10
2.7839800000000001
 20
-4.86212
 30
0.0
 10
2.6468200000000004
 20
-5.1694600000000008
 30
0.0
 10
2.4842600000000004
 20
-5.4437800000000003
 30
0.0
 10
2.4842600000000004
 20
-5.4437800000000003
 30
0.0
 10
2.3725000000000001
 20
-5.6292000000000009
 30
0.0
 10
2.2759800000000001
 20
-5.8120800000000008
 30
0.0
 10
2.0956400000000004
 20
-5.9086000000000007
 30
0.0
 10
2.0956400000000004
 20
-5.9086000000000007
 30
0.0
 10
1.0313800000000002
 20
-5.3015400000000001
 30
0.0
 10
0.2617600000000001
 20
-4.1433
 30
0.0
 10
-0.8761500000000001
 20
-3.6454600000000004
 30
0.0
 10
-0.8761500000000001
 20
-3.6454600000000004
 30
0.0
 10
-0.6653300000000001
 20
-3.6378400000000002
 30
0.0
 10
-0.30973
 20
-3.7927800000000005
 30
0.0
 10
-0.19035
 20
-3.7115000000000005
 30
0.0
 10
-0.19035
 20
-3.7115000000000005
 30
0.0
 10
-0.8913900000000001
 20
-3.4549600000000003
 30
0.0
 10
-1.7524500000000001
 20
-3.6302200000000004
 30
0.0
 10
-2.3595100000000002
 20
-3.1450800000000001
 30
0.0
 10
-2.3595100000000002
 20
-3.1450800000000001
 30
0.0
 10
-2.7938500000000004
 20
-2.5761200000000004
 30
0.0
 10
-2.5601700000000003
 20
-1.7734800000000002
 30
0.0
 10
-2.7151100000000001
 20
-1.1130800000000001
 30
0.0
 10
-2.7151100000000001
 20
-1.1130800000000001
 30
0.0
 10
-2.7151100000000001
 20
-1.1130800000000001
 30
0.0
 10
-2.4331700000000001
 20
-1.6490200000000002
 30
0.0
 10
-2.4331700000000001
 20
-1.6490200000000002
 30
0.0
 10
-2.4331700000000001
 20
-1.6490200000000002
 30
0.0
 10
-2.5373100000000002
 20
-0.9937
 30
0.0
 10
-3.0834100000000002
 20
-0.4095
 30
0.0
 10
-3.1088100000000001
 20
0.23819
 30
0.0
  0
SPLINE
  5
31
100
AcDbEntity
  8
Ebene 1
100
AcDbSpline
210
0.0
220
0.0
230
1.0
 70
     1
 71
     3
 72
    24
 73
    20
 74
     0
 42
0.0000000001
 43
0.0000000001
 40
0.0
 40
0.0
 40
0.0
 40
0.0
 40
0.2
 40
0.2
 40
0.2
 40
0.2
 40
0.4
 40
0.4
 40
0.4
 40
0.4
 40
0.6000000000000001
 40
0.6000000000000001
 40
0.6000000000000001
 40
0.6000000000000001
 40
0.8
 40
0.8
 40
0.8
 40
0.8
 40
1.0
 40
1.0
 40
1.0
 40
1.0
 10
0.9907400000000001
 20
0.13659
 30
0.0
 10
1.01868
 20
0.13659
 30
0.0
 10
1.06694
 20
0.14421
 30
0.0
 10
1.0720200000000002
 20
0.10865
 30
0.0
 10
1.0720200000000002
 20
0.10865
 30
0.0
 10
1.0720200000000002
 20
0.10865
 30
0.0
 10
1.02376
 20
0.07055
 30
0.0
 10
1.02376
 20
0.07055
 30
0.0
 10
1.02376
 20
0.07055
 30
0.0
 10
0.67832
 20
0.06547
 30
0.0
 10
0.59958
 20
-0.3333
 30
0.0
 10
0.37098
 20
-0.49586
 30
0.0
 10
0.37098
 20
-0.49586
 30
0.0
 10
0.37098
 20
-0.49586
 30
0.0
 10
0.5233800000000001
 20
-0.08184
 30
0.0
 10
0.5233800000000001
 20
-0.08184
 30
0.0
 10
0.5233800000000001
 20
-0.08184
 30
0.0
 10
0.6757800000000001
 20
0.00451
 30
0.0
 10
0.83072
 20
0.10865
 30
0.0
 10
0.9907400000000001
 20
0.13659
 30
0.0
  0
SPLINE
  5
32
100
AcDbEntity
  8
Ebene 1
 62
     7
100
AcDbSpline
210
0.0
220
0.0
230
1.0
 70
     1
 71
     3
 72
    16
 73
    12
 74
     0
 42
0.0000000001
 43
0.0000000001
 40
0.0
 40
0.0
 40
0.0
 40
0.0
 40
0.3333333333333333
 40
0.3333333333333333
 40
0.3333333333333333
 40
0.3333333333333333
 40
0.6666666666666666
 40
0.6666666666666666
 40
0.6666666666666666
 40
0.6666666666666666
 40
1.0
 40
1.0
 40
1.0
 40
1.0
 10
-1.42225
 20
-0.6711200000000001
 30
0.0
 10
-1.3231900000000001
 20
-0.7854200000000001
 30
0.0
 10
-1.25207
 20
-0.9860800000000001
 30
0.0
 10
-1.2190500000000002
 20
-1.1588000000000001
 30
0.0
 10
-1.2190500000000002
 20
-1.1588000000000001
 30
0.0
 10
-1.2190500000000002
 20
-1.1588000000000001
 30
0.0
 10
-1.50099
 20
-1.6439400000000002
 30
0.0
 10
-1.50099
 20
-1.6439400000000002
 30
0.0
 10
-1.50099
 20
-1.6439400000000002
 30
0.0
 10
-1.5721100000000001
 20
-1.33152
 30
0.0
 10
-1.5390900000000001
 20
-0.9784600000000001
 30
0.0
 10
-1.42225
 20
-0.6711200000000001
 30
0.0
  0
SPLINE
  5
33
100
AcDbEntity
  8
Ebene 1
100
AcDbSpline
210
0.0
220
0.0
230
1.0
 70
     1
 71
     3
 72
    32
 73
    28
 74
     0
 42
0.0000000001
 43
0.0000000001
 40
0.0
 40
0.0
 40
0.0
 40
0.0
 40
0.1428571428571429
 40
0.1428571428571429
 40
0.1428571428571429
 40
0.1428571428571429
 40
0.2857142857142857
 40
0.2857142857142857
 40
0.2857142857142857
 40
0.2857142857142857
 40
0.4285714285714286
 40
0.4285714285714286
 40
0.4285714285714286
 40
0.4285714285714286
 40
0.5714285714285714
 40
0.5714285714285714
 40
0.5714285714285714
 40
0.5714285714285714
 40
0.7142857142857142
 40
0.7142857142857142
 40
0.7142857142857142
 40
0.7142857142857142
 40
0.857142857142857
 40
0.857142857142857
 40
0.857142857142857
 40
0.857142857142857
 40
1.0
 40
1.0
 40
1.0
 40
1.0
 10
0.6707000000000001
 20
-0.8387600000000001
 30
0.0
 10
1.14568
 20
-0.8387600000000001
 30
0.0
 10
1.5216000000000001
 20
-1.20198
 30
0.0
 10
1.8391000000000002
 20
-1.5271000000000001
 30
0.0
 10
1.8391000000000002
 20
-1.5271000000000001
 30
0.0
 10
2.0346800000000003
 20
-1.7582400000000002
 30
0.0
 10
2.2328000000000001
 20
-2.2611600000000003
 30
0.0
 10
1.8899000000000001
 20
-2.43642
 30
0.0
 10
1.8899000000000001
 20
-2.43642
 30
0.0
 10
2.1439000000000004
 20
-1.7150600000000003
 30
0.0
 10
1.3031600000000001
 20
-0.9175000000000001
 30
0.0
 10
0.5691000000000001
 20
-0.9733800000000001
 30
0.0
 10
0.5691000000000001
 20
-0.9733800000000001
 30
0.0
 10
0.4802
 20
-1.0114800000000002
 30
0.0
 10
0.40654
 20
-1.07752
 30
0.0
 10
0.33796
 20
-1.1461000000000001
 30
0.0
 10
0.33796
 20
-1.1461000000000001
 30
0.0
 10
0.31764
 20
-1.2248400000000002
 30
0.0
 10
0.25922
 20
-1.29088
 30
0.0
 10
0.28208
 20
-1.37978
 30
0.0
 10
0.28208
 20
-1.37978
 30
0.0
 10
0.31002
 20
-1.5499600000000002
 30
0.0
 10
0.18048
 20
-1.5194800000000002
 30
0.0
 10
0.18556
 20
-1.3670800000000001
 30
0.0
 10
0.18556
 20
-1.3670800000000001
 30
0.0
 10
0.1754
 20
-1.08006
 30
0.0
 10
0.4548
 20
-0.9327400000000001
 30
0.0
 10
0.6707000000000001
 20
-0.8387600000000001
 30
0.0
  0
SPLINE
  5
34
100
AcDbEntity
  8
Ebene 1
 62
     7
100
AcDbSpline
210
0.0
220
0.0
230
1.0
 70
     1
 71
     3
 72
    20
 73
    16
 74
     0
 42
0.0000000001
 43
0.0000000001
 40
0.0
 40
0.0
 40
0.0
 40
0.0
 40
0.25
 40
0.25
 40
0.25
 40
0.25
 40
0.5
 40
0.5
 40
0.5
 40
0.5
 40
0.75
 40
0.75
 40
0.75
 40
0.75
 40
1.0
 40
1.0
 40
1.0
 40
1.0
 10
-1.0488700000000002
 20
-1.1080000000000001
 30
0.0
 10
-0.9980700000000001
 20
-1.1080000000000001
 30
0.0
 10
-0.9777500000000001
 20
-1.1461000000000001
 30
0.0
 10
-0.93203
 20
-1.1715
 30
0.0
 10
-0.93203
 20
-1.1715
 30
0.0
 10
-0.9015500000000001
 20
-1.2807200000000001
 30
0.0
 10
-0.82789
 20
-1.3442200000000002
 30
0.0
 10
-0.7796300000000001
 20
-1.4458200000000001
 30
0.0
 10
-0.7796300000000001
 20
-1.4458200000000001
 30
0.0
 10
-0.7796300000000001
 20
-1.4458200000000001
 30
0.0
 10
-0.8964700000000001
 20
-1.8014200000000002
 30
0.0
 10
-0.8964700000000001
 20
-1.8014200000000002
 30
0.0
 10
-0.8964700000000001
 20
-1.8014200000000002
 30
0.0
 10
-0.9980700000000001
 20
-1.6007600000000002
 30
0.0
 10
-1.17079
 20
-1.33152
 30
0.0
 10
-1.0488700000000002
 20
-1.1080000000000001
 30
0.0
  0
SPLINE
  5
35
100
AcDbEntity
  8
Ebene 1
100
AcDbSpline
210
0.0
220
0.0
230
1.0
 70
     1
 71
     3
 72
    24
 73
    20
 74
     0
 42
0.0000000001
 43
0.0000000001
 40
0.0
 40
0.0
 40
0.0
 40
0.0
 40
0.2
 40
0.2
 40
0.2
 40
0.2
 40
0.4
 40
0.4
 40
0.4
 40
0.4
 40
0.6000000000000001
 40
0.6000000000000001
 40
0.6000000000000001
 40
0.6000000000000001
 40
0.8
 40
0.8
 40
0.8
 40
0.8
 40
1.0
 40
1.0
 40
1.0
 40
1.0
 10
0.78754
 20
-1.3620000000000001
 30
0.0
 10
1.3361800000000001
 20
-1.3366
 30
0.0
 10
1.6181200000000002
 20
-1.8700000000000001
 30
0.0
 10
1.7298800000000001
 20
-2.3195800000000002
 30
0.0
 10
1.7298800000000001
 20
-2.3195800000000002
 30
0.0
 10
1.7298800000000001
 20
-2.3195800000000002
 30
0.0
 10
1.5978000000000001
 20
-2.3399000000000001
 30
0.0
 10
1.5978000000000001
 20
-2.3399000000000001
 30
0.0
 10
1.5978000000000001
 20
-2.3399000000000001
 30
0.0
 10
1.2472800000000002
 20
-2.14432
 30
0.0
 10
0.7367400000000001
 20
-2.0224000000000002
 30
0.0
 10
0.7367400000000001
 20
-1.54742
 30
0.0
 10
0.7367400000000001
 20
-1.54742
 30
0.0
 10
0.4497200000000001
 20
-1.6337800000000002
 30
0.0
 10
0.8129400000000001
 20
-2.0173200000000002
 30
0.0
 10
0.9018400000000001
 20
-2.2002000000000002
 30
0.0
 10
0.9018400000000001
 20
-2.2002000000000002
 30
0.0
 10
0.6275200000000001
 20
-2.0478000000000001
 30
0.0
 10
0.27446
 20
-1.4763000000000002
 30
0.0
 10
0.78754
 20
-1.3620000000000001
 30
0.0
  0
SPLINE
  5
36
100
AcDbEntity
  8
Ebene 1
 62
     7
100
AcDbSpline
210
0.0
220
0.0
230
1.0
 70
     1
 71
     3
 72
    16
 73
    12
 74
     0
 42
0.0000000001
 43
0.0000000001
 40
0.0
 40
0.0
 40
0.0
 40
0.0
 40
0.3333333333333333
 40
0.3333333333333333
 40
0.3333333333333333
 40
0.3333333333333333
 40
0.6666666666666666
 40
0.6666666666666666
 40
0.6666666666666666
 40
0.6666666666666666
 40
1.0
 40
1.0
 40
1.0
 40
1.0
 10
-0.5434100000000001
 20
-1.6668000000000001
 30
0.0
 10
-0.43165
 20
-1.6744200000000002
 30
0.0
 10
-0.34021
 20
-1.7582400000000002
 30
0.0
 10
-0.25893
 20
-1.8369800000000001
 30
0.0
 10
-0.25893
 20
-1.8369800000000001
 30
0.0
 10
-0.33767
 20
-1.9106400000000001
 30
0.0
 10
-0.37323
 20
-2.01478
 30
0.0
 10
-0.4291100000000001
 20
-2.10114
 30
0.0
 10
-0.4291100000000001
 20
-2.10114
 30
0.0
 10
-0.48753
 20
-1.9741400000000002
 30
0.0
 10
-0.53071
 20
-1.8166600000000002
 30
0.0
 10
-0.5434100000000001
 20
-1.6668000000000001
 30
0.0
  0
SPLINE
  5
37
100
AcDbEntity
  8
Ebene 1
 62
     7
100
AcDbSpline
210
0.0
220
0.0
230
1.0
 70
     1
 71
     3
 72
    12
 73
     8
 74
     0
 42
0.0000000001
 43
0.0000000001
 40
0.0
 40
0.0
 40
0.0
 40
0.0
 40
0.5
 40
0.5
 40
0.5
 40
0.5
 40
1.0
 40
1.0
 40
1.0
 40
1.0
 10
-1.0996700000000001
 20
-2.1570200000000002
 30
0.0
 10
-0.9421900000000001
 20
-2.2764000000000002
 30
0.0
 10
-0.9066300000000001
 20
-2.52278
 30
0.0
 10
-0.8507500000000001
 20
-2.7082000000000002
 30
0.0
 10
-0.8507500000000001
 20
-2.7082000000000002
 30
0.0
 10
-1.1098300000000001
 20
-2.7031200000000002
 30
0.0
 10
-1.1453900000000001
 20
-2.3526000000000002
 30
0.0
 10
-1.0996700000000001
 20
-2.1570200000000002
 30
0.0
  0
SPLINE
  5
38
100
AcDbEntity
  8
Ebene 1
100
AcDbSpline
210
0.0
220
0.0
230
1.0
 70
     1
 71
     3
 72
    16
 73
    12
 74
     0
 42
0.0000000001
 43
0.0000000001
 40
0.0
 40
0.0
 40
0.0
 40
0.0
 40
0.3333333333333333
 40
0.3333333333333333
 40
0.3333333333333333
 40
0.3333333333333333
 40
0.6666666666666666
 40
0.6666666666666666
 40
0.6666666666666666
 40
0.6666666666666666
 40
1.0
 40
1.0
 40
1.0
 40
1.0
 10
2.2734400000000003
 20
-2.2916400000000001
 30
0.0
 10
2.3115400000000004
 20
-2.27894
 30
0.0
 10
2.3191600000000001
 20
-2.3246600000000002
 30
0.0
 10
2.3369400000000002
 20
-2.3449800000000001
 30
0.0
 10
2.3369400000000002
 20
-2.3449800000000001
 30
0.0
 10
2.4563200000000003
 20
-2.8529800000000001
 30
0.0
 10
3.13958
 20
-3.1425400000000003
 30
0.0
 10
3.0633800000000004
 20
-3.7038800000000003
 30
0.0
 10
3.0633800000000004
 20
-3.7038800000000003
 30
0.0
 10
2.8551000000000002
 20
-3.2416000000000005
 30
0.0
 10
2.3267800000000003
 20
-2.8301200000000004
 30
0.0
 10
2.2734400000000003
 20
-2.2916400000000001
 30
0.0
  0
SPLINE
  5
39
100
AcDbEntity
  8
Ebene 1
 62
     7
100
AcDbSpline
210
0.0
220
0.0
230
1.0
 70
     1
 71
     3
 72
    20
 73
    16
 74
     0
 42
0.0000000001
 43
0.0000000001
 40
0.0
 40
0.0
 40
0.0
 40
0.0
 40
0.25
 40
0.25
 40
0.25
 40
0.25
 40
0.5
 40
0.5
 40
0.5
 40
0.5
 40
0.75
 40
0.75
 40
0.75
 40
0.75
 40
1.0
 40
1.0
 40
1.0
 40
1.0
 10
-0.37323
 20
-2.5431000000000004
 30
0.0
 10
-0.37323
 20
-2.5431000000000004
 30
0.0
 10
-0.3427500000000001
 20
-2.5481800000000003
 30
0.0
 10
-0.3427500000000001
 20
-2.5481800000000003
 30
0.0
 10
-0.3427500000000001
 20
-2.5481800000000003
 30
0.0
 10
-0.33005
 20
-2.6802600000000001
 30
0.0
 10
-0.3021100000000001
 20
-2.8783800000000004
 30
0.0
 10
-0.44181
 20
-2.9647400000000004
 30
0.0
 10
-0.44181
 20
-2.9647400000000004
 30
0.0
 10
-0.53579
 20
-2.9469600000000002
 30
0.0
 10
-0.65263
 20
-2.9190200000000002
 30
0.0
 10
-0.6450100000000001
 20
-2.7971000000000004
 30
0.0
 10
-0.6450100000000001
 20
-2.7971000000000004
 30
0.0
 10
-0.5992900000000001
 20
-2.6675600000000004
 30
0.0
 10
-0.43419
 20
-2.6624800000000004
 30
0.0
 10
-0.37323
 20
-2.5431000000000004
 30
0.0
  0
SPLINE
  5
3A
100
AcDbEntity
  8
Ebene 1
 62
     7
100
AcDbSpline
210
0.0
220
0.0
230
1.0
 70
     1
 71
     3
 72
    16
 73
    12
 74
     0
 42
0.0000000001
 43
0.0000000001
 40
0.0
 40
0.0
 40
0.0
 40
0.0
 40
0.3333333333333333
 40
0.3333333333333333
 40
0.3333333333333333
 40
0.3333333333333333
 40
0.6666666666666666
 40
0.6666666666666666
 40
0.6666666666666666
 40
0.6666666666666666
 40
1.0
 40
1.0
 40
1.0
 40
1.0
 10
-0.08621
 20
-2.7971000000000004
 30
0.0
 10
0.05094
 20
-2.9647400000000004
 30
0.0
 10
0.04586
 20
-3.2060400000000002
 30
0.0
 10
0.02554
 20
-3.4168600000000002
 30
0.0
 10
0.02554
 20
-3.4168600000000002
 30
0.0
 10
-0.10653
 20
-3.3686000000000003
 30
0.0
 10
-0.18527
 20
-3.2289000000000003
 30
0.0
 10
-0.22083
 20
-3.0993600000000003
 30
0.0
 10
-0.22083
 20
-3.0993600000000003
 30
0.0
 10
-0.14717
 20
-3.0130000000000003
 30
0.0
 10
-0.10907
 20
-2.9037800000000002
 30
0.0
 10
-0.08621
 20
-2.7971000000000004
 30
0.0
  0
ENDSEC
  0
SECTION
  2
OBJECTS
  0
DICTIONARY
  5
19
100
AcDbDictionary
280
     0
281
     1
  3
ACAD_GROUP
350
1A
  3
ACAD_MLINESTYLE
350
1B
  3
ACAD_LAYOUT
350
1E
  3
ACAD_PLOTSETTINGS
350
22
  3
ACAD_PLOTSTYLENAME
350
1F
  3
ACAD_WIPEOUT_VARS
350
23
  0
DICTIONARY
  5
1A
102
{ACAD_REACTORS
330
19
102
}
100
AcDbDictionary
280
     0
281
     1
  0
DICTIONARY
  5
1B
102
{ACAD_REACTORS
330
19
102
}
100
AcDbDictionary
280
     0
281
     1
  3
Standard
350
1C
  0
MLINESTYLE
  5
1C
102
{ACAD_REACTORS
330
1B
102
}
100
AcDbMlineStyle
  2
Standard
 70
     0
  3

 62
     0
 51
90.0
 52
90.0
 71
     2
 49
0.5
 62
   256
  6
BYLAYER
 49
-0.5
 62
   256
  6
BYLAYER
  0
ACDBDICTIONARYWDFLT
  5
1F
102
{ACAD_REACTORS
330
19
102
}
100
AcDbDictionary
281
     1
  3
Normal
350
1D
100
AcDbDictionaryWithDefault
340
1D
  0
ACDBPLACEHOLDER
  5
1D
102
{ACAD_REACTORS
330
1F
102
}
  0
LAYOUT
  5
20
102
{ACAD_REACTORS
330
1E
102
}
100
AcDbPlotSettings
  1

  2

  4

  6

 40
0.0
 41
0.0
 42
0.0
 43
0.0
 44
0.0
 45
0.0
 46
0.0
 47
0.0
 48
0.0
 49
0.0
140
0.0
141
0.0
142
1.0
143
1.0
 70
  1024
 72
     0
 73
     0
 74
     0
  7

 75
     0
147
1.0
148
0.0
149
0.0
100
AcDbLayout
  1
Model
 70
     0
 71
     0
 10
0.0
 20
0.0
 11
0.0
 21
0.0
 12
0.0
 22
0.0
 32
0.0
 14
0.0
 24
0.0
 34
0.0
 15
0.0
 25
0.0
 35
0.0
146
0.0
 13
0.0
 23
0.0
 33
0.0
 16
0.0
 26
0.0
 36
0.0
 17
0.0
 27
0.0
 37
0.0
 76
     0
330
A
331
0
345
0
346
0
  0
LAYOUT
  5
21
102
{ACAD_REACTORS
330
1E
102
}
100
AcDbPlotSettings
  1

  2

  4

  6

 40
0.0
 41
0.0
 42
0.0
 43
0.0
 44
0.0
 45
0.0
 46
0.0
 47
0.0
 48
0.0
 49
0.0
140
0.0
141
0.0
142
1.0
143
1.0
 70
     0
 72
     0
 73
     0
 74
     0
  7

 75
     0
147
1.0
148
0.0
149
0.0
100
AcDbLayout
  1
Layout1
 70
     0
 71
     0
 10
0.0
 20
0.0
 11
0.0
 21
0.0
 12
0.0
 22
0.0
 32
0.0
 14
0.0
 24
0.0
 34
0.0
 15
0.0
 25
0.0
 35
0.0
146
0.0
 13
0.0
 23
0.0
 33
0.0
 16
0.0
 26
0.0
 36
0.0
 17
0.0
 27
0.0
 37
0.0
 76
     0
330
B
331
0
345
0
346
0
  0
DICTIONARY
  5
1E
102
{ACAD_REACTORS
330
19
102
}
100
AcDbDictionary
280
     0
281
     1
  3
Layout1
350
21
  3
Model
350
20
  0
DICTIONARY
  5
22
102
{ACAD_REACTORS
330
19
102
}
100
AcDbDictionary
280
     0
281
     1
  0
WIPEOUTVARIABLES
  5
23
100
AcDbWipeoutVariables
 70
     1
  0
ENDSEC
  0
EOF
