  0
SECTION
  2
HEADER
  9
$ACADVER
  1
AC1015
  9
$ACADMAINTVER
 70
     6
  9
$DWGCODEPAGE
  3
DOS850
  9
$INSBASE
 10
0.0
 20
0.0
 30
0.0
  9
$EXTMIN
 10
-5.57007
 20
-5.64698
 30
1.000000E+20
  9
$EXTMAX
 10
5.57544
 20
5.64077
 30
-1.000000E+20
  9
$LIMMIN
 10
0.0
 20
0.0
  9
$LIMMAX
 10
0.0
 20
0.0
  9
$ORTHOMODE
 70
     0
  9
$REGENMODE
 70
     1
  9
$FILLMODE
 70
     1
  9
$QTEXTMODE
 70
     0
  9
$MIRRTEXT
 70
     1
  9
$LTSCALE
 40
1.0
  9
$ATTMODE
 70
     1
  9
$TEXTSIZE
 40
0.2
  9
$TRACEWID
 40
0.05
  9
$TEXTSTYLE
  7
Standard
  9
$CLAYER
  8
0
  9
$CELTYPE
  6
Continuous
  9
$CECOLOR
 62
   256
  9
$CELTSCALE
 40
1.0
  9
$DISPSILH
 70
     0
  9
$DIMSCALE
 40
1.0
  9
$DIMASZ
 40
0.18
  9
$DIMEXO
 40
0.0625
  9
$DIMDLI
 40
0.38
  9
$DIMRND
 40
0.0
  9
$DIMDLE
 40
0.0
  9
$DIMEXE
 40
0.18
  9
$DIMTP
 40
0.0
  9
$DIMTM
 40
0.0
  9
$DIMTXT
 40
0.18
  9
$DIMCEN
 40
0.09
  9
$DIMTSZ
 40
0.0
  9
$DIMTOL
 70
     0
  9
$DIMLIM
 70
     0
  9
$DIMTIH
 70
     1
  9
$DIMTOH
 70
     1
  9
$DIMSE1
 70
     0
  9
$DIMSE2
 70
     0
  9
$DIMTAD
 70
     0
  9
$DIMZIN
 70
     0
  9
$DIMBLK
  1

  9
$DIMASO
 70
     1
  9
$DIMSHO
 70
     1
  9
$DIMPOST
  1

  9
$DIMAPOST
  1

  9
$DIMALT
 70
     0
  9
$DIMALTD
 70
     2
  9
$DIMALTF
 40
25.4
  9
$DIMLFAC
 40
1.0
  9
$DIMTOFL
 70
     0
  9
$DIMTVP
 40
0.0
  9
$DIMTIX
 70
     0
  9
$DIMSOXD
 70
     0
  9
$DIMSAH
 70
     0
  9
$DIMBLK1
  1

  9
$DIMBLK2
  1

  9
$DIMSTYLE
  2
Standard
  9
$DIMCLRD
 70
     0
  9
$DIMCLRE
 70
     0
  9
$DIMCLRT
 70
     0
  9
$DIMTFAC
 40
1.0
  9
$DIMGAP
 40
0.09
  9
$DIMJUST
 70
     0
  9
$DIMSD1
 70
     0
  9
$DIMSD2
 70
     0
  9
$DIMTOLJ
 70
     1
  9
$DIMTZIN
 70
     0
  9
$DIMALTZ
 70
     0
  9
$DIMALTTZ
 70
     0
  9
$DIMUPT
 70
     0
  9
$DIMDEC
 70
     4
  9
$DIMTDEC
 70
     4
  9
$DIMALTU
 70
     2
  9
$DIMALTTD
 70
     2
  9
$DIMTXSTY
  7
Standard
  9
$DIMAUNIT
 70
     0
  9
$DIMADEC
 70
     0
  9
$DIMALTRND
 40
0.0
  9
$DIMAZIN
 70
     0
  9
$DIMDSEP
 70
     0
  9
$DIMATFIT
 70
     3
  9
$DIMFRAC
 70
     0
  9
$DIMLDRBLK
  1

  9
$DIMLUNIT
 70
     2
  9
$DIMLWD
 70
     0
  9
$DIMLWE
 70
     0
  9
$DIMTMOVE
 70
     0
  9
$LUNITS
 70
     2
  9
$LUPREC
 70
     4
  9
$SKETCHINC
 40
0.1
  9
$FILLETRAD
 40
0.0
  9
$AUNITS
 70
     0
  9
$AUPREC
 70
     0
  9
$MENU
  1
acad
  9
$ELEVATION
 40
0.0
  9
$PELEVATION
 40
0.0
  9
$THICKNESS
 40
0.0
  9
$LIMCHECK
 70
     0
  9
$CHAMFERA
 40
0.0
  9
$CHAMFERB
 40
0.0
  9
$CHAMFERC
 40
0.0
  9
$CHAMFERD
 40
0.0
  9
$SKPOLY
 70
     0
  9
$TDCREATE
 40
0.000000000
  9
$TDUCREATE
 40
0.000000000
  9
$TDUPDATE
 40
0.000000000
  9
$TDUUPDATE
 40
0.000000000
  9
$TDINDWG
 40
0.0000000000
  9
$TDUSRTIMER
 40
0.0000000000
  9
$USRTIMER
 70
     1
  9
$ANGBASE
 50
0.0
  9
$ANGDIR
 70
     0
  9
$PDMODE
 70
     0
  9
$PDSIZE
 40
0.0
  9
$PLINEWID
 40
0.0
  9
$SPLFRAME
 70
     0
  9
$SPLINETYPE
 70
     6
  9
$SPLINESEGS
 70
     8
  9
$HANDSEED
  5
43
  9
$SURFTAB1
 70
     6
  9
$SURFTAB2
 70
     6
  9
$SURFTYPE
 70
     6
  9
$SURFU
 70
     6
  9
$SURFV
 70
     6
  9
$UCSBASE
  2

  9
$UCSNAME
  2

  9
$UCSORG
 10
0.0
 20
0.0
 30
0.0
  9
$UCSXDIR
 10
1.0
 20
0.0
 30
0.0
  9
$UCSYDIR
 10
0.0
 20
1.0
 30
0.0
  9
$UCSORTHOREF
  2

  9
$UCSORTHOVIEW
 70
     0
  9
$UCSORGTOP
 10
0.0
 20
0.0
 30
0.0
  9
$UCSORGBOTTOM
 10
0.0
 20
0.0
 30
0.0
  9
$UCSORGLEFT
 10
0.0
 20
0.0
 30
0.0
  9
$UCSORGRIGHT
 10
0.0
 20
0.0
 30
0.0
  9
$UCSORGFRONT
 10
0.0
 20
0.0
 30
0.0
  9
$UCSORGBACK
 10
0.0
 20
0.0
 30
0.0
  9
$PUCSBASE
  2

  9
$PUCSNAME
  2

  9
$PUCSORG
 10
0.0
 20
0.0
 30
0.0
  9
$PUCSXDIR
 10
1.0
 20
0.0
 30
0.0
  9
$PUCSYDIR
 10
0.0
 20
1.0
 30
0.0
  9
$PUCSORTHOREF
  2

  9
$PUCSORTHOVIEW
 70
     0
  9
$PUCSORGTOP
 10
0.0
 20
0.0
 30
0.0
  9
$PUCSORGBOTTOM
 10
0.0
 20
0.0
 30
0.0
  9
$PUCSORGLEFT
 10
0.0
 20
0.0
 30
0.0
  9
$PUCSORGRIGHT
 10
0.0
 20
0.0
 30
0.0
  9
$PUCSORGFRONT
 10
0.0
 20
0.0
 30
0.0
  9
$PUCSORGBACK
 10
0.0
 20
0.0
 30
0.0
  9
$USERI1
 70
     0
  9
$USERI2
 70
     0
  9
$USERI3
 70
     0
  9
$USERI4
 70
     0
  9
$USERI5
 70
     0
  9
$USERR1
 40
0.0
  9
$USERR2
 40
0.0
  9
$USERR3
 40
0.0
  9
$USERR4
 40
0.0
  9
$USERR5
 40
0.0
  9
$WORLDVIEW
 70
     1
  9
$SHADEDGE
 70
     3
  9
$SHADEDIF
 70
    70
  9
$TILEMODE
 70
     1
  9
$MAXACTVP
 70
    16
  9
$PINSBASE
 10
0.0
 20
0.0
 30
0.0
  9
$PLIMCHECK
 70
     0
  9
$PEXTMIN
 10
1.000000E+20
 20
1.000000E+20
 30
1.000000E+20
  9
$PEXTMAX
 10
-1.000000E+20
 20
-1.000000E+20
 30
-1.000000E+20
  9
$PLIMMIN
 10
0.0
 20
0.0
  9
$PLIMMAX
 10
12.0
 20
9.0
  9
$UNITMODE
 70
     0
  9
$VISRETAIN
 70
     0
  9
$PLINEGEN
 70
     1
  9
$PSLTSCALE
 70
     0
  9
$TREEDEPTH
 70
  3020
  9
$CMLSTYLE
  2
Standard
  9
$CMLJUST
 70
     0
  9
$CMLSCALE
 40
1.0
  9
$PROXYGRAPHICS
 70
     0
  9
$MEASUREMENT
 70
     0
  9
$CELWEIGHT
370
     0
  9
$ENDCAPS
280
     0
  9
$JOINSTYLE
280
     0
  9
$LWDISPLAY
290
     0
  9
$INSUNITS
 70
     5
  9
$HYPERLINKBASE
  1

  9
$XEDIT
290
     1
  9
$CEPSNTYPE
380
     0
  9
$PSTYLEMODE
290
     1
  9
$FINGERPRINTGUID
  2

  9
$VERSIONGUID
  2

  9
$EXTNAMES
290
     1
  9
$PSVPSCALE
 40
0.0
  0
ENDSEC
  0
SECTION
  2
CLASSES
  0
CLASS
  1
LWPOLYLINE
  2
AcDbPolyline
  3
AutoCAD 2000
 90
    32768
280
     0
281
     1
  0
CLASS
  1
IMAGE
  2
AcDbRasterImage
  3
ISM
 90
    32895
280
     0
281
     1
  0
CLASS
  1
OLE2FRAME
  2
AcDbOle2Frame
  3
AutoCAD 2000
 90
    32768
280
     0
281
     1
  0
CLASS
  1
HATCH
  2
AcDbHatch
  3
AutoCAD 2000
 90
    32768
280
     0
281
     1
  0
CLASS
  1
DICTIONARYVAR
  2
AcDbDictionaryVar
  3
AutoCAD 2000
 90
    32768
280
     0
281
     0
  0
CLASS
  1
RASTERVARIABLES
  2
AcDbRasterVariables
  3
ISM
 90
    32768
280
     0
281
     0
  0
CLASS
  1
IMAGEDEF
  2
AcDbRasterImageDef
  3
ISM
 90
    32768
280
     0
281
     0
  0
CLASS
  1
IMAGEDEF_REACTOR
  2
AcDbRasterImageDefReactor
  3
ISM
 90
    32769
280
     0
281
     0
  0
CLASS
  1
IDBUFFER
  2
AcDbIdBuffer
  3
AutoCAD 2000
 90
    32768
280
     0
281
     0
  0
CLASS
  1
SPATIAL_FILTER
  2
AcDbSpatialFilter
  3
AutoCAD 2000
 90
    32768
280
     0
281
     0
  0
CLASS
  1
XRECORD
  2
AcDbXrecord
  3
AutoCAD 2000
 90
    32768
280
     0
281
     0
  0
CLASS
  1
SORTENTSTABLE
  2
AcDbSortentsTable
  3
AutoCAD 2000
 90
    32768
280
     0
281
     0
  0
CLASS
  1
LAYER_INDEX
  2
AcDbLayerIndex
  3
AutoCAD 2000
 90
    32768
280
     0
281
     0
  0
CLASS
  1
SPATIAL_INDEX
  2
AcDbSpatialIndex
  3
AutoCAD 2000
 90
    32768
280
     0
281
     0
  0
CLASS
  1
OBJECT_PTR
  2
CAseDLPNTableRecord
  3
"ASE-LPNTableRecord"
 90
    32769
280
     0
281
     0
  0
CLASS
  1
LAYOUT
  2
AcDbLayout
  3
AutoCAD 2000
 90
        0
280
     0
281
     0
  0
CLASS
  1
PLOTSETTINGS
  2
AcDbPlotSettings
  3
AutoCAD 2000
 90
    32768
280
     0
281
     0
  0
CLASS
  1
ACDBDICTIONARYWDFLT
  2
AcDbDictionaryWithDefault
  3
AutoCAD 2000
 90
        0
280
     0
281
     0
  0
CLASS
  1
ACDBPLACEHOLDER
  2
AcDbPlaceHolder
  3
AutoCAD 2000
 90
        0
280
     0
281
     0
  0
CLASS
  1
VBA_PROJECT
  2
AcDbVbaProject
  3
acadvba
 90
    32768
280
     0
281
     0
  0
CLASS
  1
WIPEOUT
  2
AcDbWipeout
  3
WipeOut|AutoCAD Express Tool|expresstools@autodesk.com
 90
    32895
280
     0
281
     1
  0
CLASS
  1
WIPEOUTVARIABLES
  2
AcDbWipeoutVariables
  3
WipeOut|AutoCAD Express Tool|expresstools@autodesk.com
 90
        0
280
     0
281
     0
  0
CLASS
  1
RTEXT
  2
RText
  3
RText|AutoCAD Express Tool|expresstools@autodesk.com
 90
    32768
280
     0
281
     1
  0
CLASS
  1
ARCALIGNEDTEXT
  2
AcDbArcAlignedText
  3
ATEXT|AutoCAD Express Tool|expresstools@autodesk.com
 90
    32768
280
     0
281
     1
  0
ENDSEC
  0
SECTION
  2
TABLES
  0
TABLE
  2
VPORT
  5
7
100
AcDbSymbolTable
 70
     1
  0
VPORT
  5
15
100
AcDbSymbolTableRecord
100
AcDbViewportTableRecord
  2
*ACTIVE
 70
     0
 10
0.0
 20
0.0
 11
1.0
 21
1.0
 12
6.591288
 22
4.579184
 13
0.0
 23
0.0
 14
1.0
 24
1.0
 15
0.0
 25
0.0
 16
0.0
 26
0.0
 36
1.0
 17
0.0
 27
0.0
 37
0.0
 40
9.158369
 41
0.688564
 42
50.0
 43
0.0
 44
0.0
 50
0.0
 51
0.0
 71
     0
 72
   100
 73
     1
 74
     1
 75
     0
 76
     0
 77
     0
 78
     0
281
     0
 65
     0
110
0.0
120
0.0
130
0.0
111
1.0
121
0.0
131
0.0
112
0.0
122
1.0
132
0.0
345
0
346
0
 79
     0
146
0.0
  0
ENDTAB
  0
TABLE
  2
LTYPE
  5
4
100
AcDbSymbolTable
 70
     3
  0
LTYPE
  5
11
100
AcDbSymbolTableRecord
100
AcDbLinetypeTableRecord
  2
ByBlock
 70
    64
  3

 72
    65
 73
     0
 40
0.0
  0
LTYPE
  5
12
100
AcDbSymbolTableRecord
100
AcDbLinetypeTableRecord
  2
ByLayer
 70
    64
  3

 72
    65
 73
     0
 40
0.0
  0
LTYPE
  5
13
100
AcDbSymbolTableRecord
100
AcDbLinetypeTableRecord
  2
Continuous
 70
    64
  3
Solid line
 72
    65
 73
     0
 40
0.0
  0
ENDTAB
  0
TABLE
  2
LAYER
  5
2
100
AcDbSymbolTable
 70
     2
  0
LAYER
  5
14
100
AcDbSymbolTableRecord
100
AcDbLayerTableRecord
  2
0
 70
     0
 62
     7
  6
Continuous
290
     1
370
    -3
390
1D
  0
LAYER
  5
24
100
AcDbSymbolTableRecord
100
AcDbLayerTableRecord
  2
Ebene 1
 70
     0
 62
     7
  6
Continuous
290
     1
370
    -3
390
1F
  0
ENDTAB
  0
TABLE
  2
STYLE
  5
3
100
AcDbSymbolTable
 70
     1
  0
STYLE
  5
17
100
AcDbSymbolTableRecord
100
AcDbTextStyleTableRecord
  2
Standard
 70
     0
 40
0.0
 41
1.0
 50
0.0
 71
     0
 42
0.0
  3
txt
  4

  0
ENDTAB
  0
TABLE
  2
VIEW
  5
5
100
AcDbSymbolTable
 70
     0
  0
ENDTAB
  0
TABLE
  2
UCS
  5
6
100
AcDbSymbolTable
 70
     0
  0
ENDTAB
  0
TABLE
  2
APPID
  5
8
100
AcDbSymbolTable
 70
     1
  0
APPID
  5
16
100
AcDbSymbolTableRecord
100
AcDbRegAppTableRecord
  2
ACAD
 70
     0
  0
ENDTAB
  0
TABLE
  2
DIMSTYLE
  5
9
100
AcDbSymbolTable
 70
     1
100
AcDbDimStyleTable
 71
     0
  0
DIMSTYLE
105
18
100
AcDbSymbolTableRecord
100
AcDbDimStyleTableRecord
  2
Standard
 70
     0
  3

  4

 40
1.0
 41
0.18
 42
0.0625
 43
0.38
 44
0.18
 45
0.0
 46
0.0
 47
0.0
 48
0.0
 71
     0
 72
     0
 73
     1
 74
     1
 75
     0
 76
     0
 77
     0
 78
     0
 79
     0
140
0.18
141
0.09
142
0.0
143
25.4
144
1.0
145
0.0
146
1.0
147
0.09
148
0.0
170
     0
171
     2
172
     0
173
     0
174
     0
175
     0
176
     0
177
     0
178
     0
179
     0
271
     4
272
     4
273
     2
274
     2
275
     0
276
     0
277
     2
278
    46
279
     0
280
     0
281
     0
282
     0
283
     1
284
     0
285
     0
286
     0
288
     0
340
17
341
0
342
0
343
0
344
0
371
    -2
372
    -2
  0
ENDTAB
  0
TABLE
  2
BLOCK_RECORD
  5
1
100
AcDbSymbolTable
 70
     0
  0
BLOCK_RECORD
  5
A
100
AcDbSymbolTableRecord
100
AcDbBlockTableRecord
  2
*MODEL_SPACE
340
20
  0
BLOCK_RECORD
  5
B
100
AcDbSymbolTableRecord
100
AcDbBlockTableRecord
  2
*PAPER_SPACE
340
21
  0
ENDTAB
  0
ENDSEC
  0
SECTION
  2
BLOCKS
  0
BLOCK
  5
D
100
AcDbEntity
  8
0
100
AcDbBlockBegin
  2
*MODEL_SPACE
 70
     0
 10
0.0
 20
0.0
 30
0.0
  3
*MODEL_SPACE
  1

  0
ENDBLK
  5
E
100
AcDbEntity
  8
0
100
AcDbBlockEnd
  0
BLOCK
  5
F
100
AcDbEntity
 67
     1
  8
0
100
AcDbBlockBegin
  2
*PAPER_SPACE
 70
     0
 10
0.0
 20
0.0
 30
0.0
  3
*PAPER_SPACE
  1

  0
ENDBLK
  5
10
100
AcDbEntity
 67
     1
  8
0
100
AcDbBlockEnd
  0
ENDSEC
  0
SECTION
  2
ENTITIES
  0
SPLINE
  5
25
100
AcDbEntity
  8
Ebene 1
100
AcDbSpline
210
0.0
220
0.0
230
1.0
 70
     1
 71
     3
 72
   192
 73
   188
 74
     0
 42
0.0000000001
 43
0.0000000001
 40
0.0
 40
0.0
 40
0.0
 40
0.0
 40
0.0212765957446809
 40
0.0212765957446809
 40
0.0212765957446809
 40
0.0212765957446809
 40
0.0425531914893617
 40
0.0425531914893617
 40
0.0425531914893617
 40
0.0425531914893617
 40
0.0638297872340425
 40
0.0638297872340425
 40
0.0638297872340425
 40
0.0638297872340425
 40
0.0851063829787234
 40
0.0851063829787234
 40
0.0851063829787234
 40
0.0851063829787234
 40
0.1063829787234043
 40
0.1063829787234043
 40
0.1063829787234043
 40
0.1063829787234043
 40
0.1276595744680851
 40
0.1276595744680851
 40
0.1276595744680851
 40
0.1276595744680851
 40
0.148936170212766
 40
0.148936170212766
 40
0.148936170212766
 40
0.148936170212766
 40
0.1702127659574468
 40
0.1702127659574468
 40
0.1702127659574468
 40
0.1702127659574468
 40
0.1914893617021277
 40
0.1914893617021277
 40
0.1914893617021277
 40
0.1914893617021277
 40
0.2127659574468085
 40
0.2127659574468085
 40
0.2127659574468085
 40
0.2127659574468085
 40
0.2340425531914894
 40
0.2340425531914894
 40
0.2340425531914894
 40
0.2340425531914894
 40
0.2553191489361702
 40
0.2553191489361702
 40
0.2553191489361702
 40
0.2553191489361702
 40
0.276595744680851
 40
0.276595744680851
 40
0.276595744680851
 40
0.276595744680851
 40
0.2978723404255319
 40
0.2978723404255319
 40
0.2978723404255319
 40
0.2978723404255319
 40
0.3191489361702127
 40
0.3191489361702127
 40
0.3191489361702127
 40
0.3191489361702127
 40
0.3404255319148935
 40
0.3404255319148935
 40
0.3404255319148935
 40
0.3404255319148935
 40
0.3617021276595743
 40
0.3617021276595743
 40
0.3617021276595743
 40
0.3617021276595743
 40
0.3829787234042552
 40
0.3829787234042552
 40
0.3829787234042552
 40
0.3829787234042552
 40
0.404255319148936
 40
0.404255319148936
 40
0.404255319148936
 40
0.404255319148936
 40
0.4255319148936168
 40
0.4255319148936168
 40
0.4255319148936168
 40
0.4255319148936168
 40
0.4468085106382976
 40
0.4468085106382976
 40
0.4468085106382976
 40
0.4468085106382976
 40
0.4680851063829785
 40
0.4680851063829785
 40
0.4680851063829785
 40
0.4680851063829785
 40
0.4893617021276593
 40
0.4893617021276593
 40
0.4893617021276593
 40
0.4893617021276593
 40
0.5106382978723402
 40
0.5106382978723402
 40
0.5106382978723402
 40
0.5106382978723402
 40
0.5319148936170211
 40
0.5319148936170211
 40
0.5319148936170211
 40
0.5319148936170211
 40
0.5531914893617019
 40
0.5531914893617019
 40
0.5531914893617019
 40
0.5531914893617019
 40
0.5744680851063828
 40
0.5744680851063828
 40
0.5744680851063828
 40
0.5744680851063828
 40
0.5957446808510637
 40
0.5957446808510637
 40
0.5957446808510637
 40
0.5957446808510637
 40
0.6170212765957446
 40
0.6170212765957446
 40
0.6170212765957446
 40
0.6170212765957446
 40
0.6382978723404255
 40
0.6382978723404255
 40
0.6382978723404255
 40
0.6382978723404255
 40
0.6595744680851063
 40
0.6595744680851063
 40
0.6595744680851063
 40
0.6595744680851063
 40
0.6808510638297872
 40
0.6808510638297872
 40
0.6808510638297872
 40
0.6808510638297872
 40
0.7021276595744681
 40
0.7021276595744681
 40
0.7021276595744681
 40
0.7021276595744681
 40
0.723404255319149
 40
0.723404255319149
 40
0.723404255319149
 40
0.723404255319149
 40
0.7446808510638299
 40
0.7446808510638299
 40
0.7446808510638299
 40
0.7446808510638299
 40
0.7659574468085107
 40
0.7659574468085107
 40
0.7659574468085107
 40
0.7659574468085107
 40
0.7872340425531916
 40
0.7872340425531916
 40
0.7872340425531916
 40
0.7872340425531916
 40
0.8085106382978725
 40
0.8085106382978725
 40
0.8085106382978725
 40
0.8085106382978725
 40
0.8297872340425534
 40
0.8297872340425534
 40
0.8297872340425534
 40
0.8297872340425534
 40
0.8510638297872343
 40
0.8510638297872343
 40
0.8510638297872343
 40
0.8510638297872343
 40
0.8723404255319152
 40
0.8723404255319152
 40
0.8723404255319152
 40
0.8723404255319152
 40
0.893617021276596
 40
0.893617021276596
 40
0.893617021276596
 40
0.893617021276596
 40
0.9148936170212769
 40
0.9148936170212769
 40
0.9148936170212769
 40
0.9148936170212769
 40
0.9361702127659578
 40
0.9361702127659578
 40
0.9361702127659578
 40
0.9361702127659578
 40
0.9574468085106387
 40
0.9574468085106387
 40
0.9574468085106387
 40
0.9574468085106387
 40
0.9787234042553196
 40
0.9787234042553196
 40
0.9787234042553196
 40
0.9787234042553196
 40
1.0
 40
1.0
 40
1.0
 40
1.0
 10
0.31256
 20
-5.3447200000000006
 30
0.0
 10
0.0992
 20
-5.3345600000000006
 30
0.0
 10
-0.15987
 20
-5.3802800000000008
 30
0.0
 10
-0.32751
 20
-5.2990000000000004
 30
0.0
 10
-0.32751
 20
-5.2990000000000004
 30
0.0
 10
-0.05319
 20
-5.1262800000000004
 30
0.0
 10
0.31256
 20
-5.0450000000000008
 30
0.0
 10
0.5868800000000001
 20
-4.8214800000000002
 30
0.0
 10
0.5868800000000001
 20
-4.8214800000000002
 30
0.0
 10
0.5868800000000001
 20
-4.8214800000000002
 30
0.0
 10
0.6326000000000001
 20
-4.6767000000000003
 30
0.0
 10
0.6326000000000001
 20
-4.6767000000000003
 30
0.0
 10
0.6326000000000001
 20
-4.6767000000000003
 30
0.0
 10
0.4954400000000001
 20
-4.6589200000000002
 30
0.0
 10
0.28208
 20
-4.5878000000000005
 30
0.0
 10
0.28208
 20
-4.4328600000000007
 30
0.0
 10
0.28208
 20
-4.4328600000000007
 30
0.0
 10
0.43448
 20
-4.3338000000000001
 30
0.0
 10
0.6478400000000001
 20
-4.2626800000000005
 30
0.0
 10
0.6326000000000001
 20
-4.04678
 30
0.0
 10
0.6326000000000001
 20
-4.04678
 30
0.0
 10
0.4192400000000001
 20
-4.0213800000000006
 30
0.0
 10
0.1754
 20
-3.8283400000000003
 30
0.0
 10
0.1754
 20
-3.5895800000000002
 30
0.0
 10
0.1754
 20
-3.5895800000000002
 30
0.0
 10
0.34304
 20
-3.5794200000000003
 30
0.0
 10
0.57164
 20
-3.5641800000000003
 30
0.0
 10
0.7088000000000001
 20
-3.4168600000000002
 30
0.0
 10
0.7088000000000001
 20
-3.4168600000000002
 30
0.0
 10
0.67832
 20
-3.0384000000000002
 30
0.0
 10
0.89168
 20
-2.65232
 30
0.0
 10
0.4954400000000001
 20
-2.4618200000000003
 30
0.0
 10
0.4954400000000001
 20
-2.4618200000000003
 30
0.0
 10
0.57164
 20
-2.35514
 30
0.0
 10
0.7088000000000001
 20
-2.35514
 30
0.0
 10
0.8154800000000001
 20
-2.3043400000000003
 30
0.0
 10
0.8154800000000001
 20
-2.3043400000000003
 30
0.0
 10
0.8154800000000001
 20
-2.0046200000000001
 30
0.0
 10
0.8459600000000001
 20
-1.6744200000000002
 30
0.0
 10
0.8002400000000001
 20
-1.37978
 30
0.0
 10
0.8002400000000001
 20
-1.37978
 30
0.0
 10
0.5868800000000001
 20
-1.2604000000000002
 30
0.0
 10
0.31256
 20
-1.0445
 30
0.0
 10
0.3887600000000001
 20
-0.7524000000000001
 30
0.0
 10
0.3887600000000001
 20
-0.7524000000000001
 30
0.0
 10
0.46496
 20
-0.7498600000000001
 30
0.0
 10
0.7545200000000001
 20
-0.8819400000000001
 30
0.0
 10
0.7392800000000001
 20
-0.6482600000000001
 30
0.0
 10
0.7392800000000001
 20
-0.6482600000000001
 30
0.0
 10
0.4802
 20
-0.59238
 30
0.0
 10
0.23636
 20
-0.36886
 30
0.0
 10
0.19064
 20
-0.10978
 30
0.0
 10
0.19064
 20
-0.10978
 30
0.0
 10
0.29732
 20
-0.10978
 30
0.0
 10
0.4954400000000001
 20
-0.26726
 30
0.0
 10
0.6478400000000001
 20
-0.21392
 30
0.0
 10
0.6478400000000001
 20
-0.21392
 30
0.0
 10
0.6935600000000001
 20
-0.1555
 30
0.0
 10
0.72404
 20
-0.09454
 30
0.0
 10
0.7392800000000001
 20
-0.01834
 30
0.0
 10
0.7392800000000001
 20
-0.01834
 30
0.0
 10
0.6326000000000001
 20
0.6115700000000001
 30
0.0
 10
0.08396
 20
1.10433
 30
0.0
 10
0.19064
 20
1.7799700000000001
 30
0.0
 10
0.19064
 20
1.7799700000000001
 30
0.0
 10
0.2008
 20
1.9069700000000001
 30
0.0
 10
0.08396
 20
1.8688700000000003
 30
0.0
 10
0.11444
 20
1.8714100000000002
 30
0.0
 10
0.11444
 20
1.8714100000000002
 30
0.0
 10
0.11444
 20
1.7037700000000002
 30
0.0
 10
0.1754
 20
1.5005700000000002
 30
0.0
 10
0.05348
 20
1.3659500000000002
 30
0.0
 10
0.05348
 20
1.3659500000000002
 30
0.0
 10
0.01538
 20
1.5564500000000001
 30
0.0
 10
-0.12177
 20
1.5208900000000001
 30
0.0
 10
-0.21321
 20
1.7672700000000001
 30
0.0
 10
-0.21321
 20
1.7672700000000001
 30
0.0
 10
-0.44689
 20
2.3870300000000002
 30
0.0
 10
-1.3460500000000002
 20
2.2803500000000003
 30
0.0
 10
-2.01661
 20
2.0212700000000003
 30
0.0
 10
-2.01661
 20
2.0212700000000003
 30
0.0
 10
-1.9607300000000001
 20
1.9120500000000002
 30
0.0
 10
-1.9556500000000001
 20
1.8002900000000002
 30
0.0
 10
-1.9632700000000001
 20
1.6758300000000002
 30
0.0
 10
-1.9632700000000001
 20
1.6758300000000002
 30
0.0
 10
-2.1232900000000003
 20
1.78251
 30
0.0
 10
-2.2553700000000001
 20
2.0847700000000002
 30
0.0
 10
-2.4738100000000003
 20
1.8841100000000002
 30
0.0
 10
-2.4738100000000003
 20
1.8841100000000002
 30
0.0
 10
-2.40523
 20
1.7063100000000002
 30
0.0
 10
-2.2579100000000003
 20
1.4650100000000001
 30
0.0
 10
-2.4026900000000002
 20
1.2922900000000002
 30
0.0
 10
-2.4026900000000002
 20
1.2922900000000002
 30
0.0
 10
-2.6135100000000002
 20
1.7647300000000001
 30
0.0
 10
-3.0529300000000004
 20
2.0238100000000001
 30
0.0
 10
-3.5253700000000001
 20
1.69869
 30
0.0
 10
-3.5253700000000001
 20
1.69869
 30
0.0
 10
-4.0384500000000001
 20
1.6021700000000001
 30
0.0
 10
-4.3762700000000008
 20
1.2059300000000002
 30
0.0
 10
-4.6785300000000003
 20
0.7919100000000001
 30
0.0
 10
-4.6785300000000003
 20
0.7919100000000001
 30
0.0
 10
-4.7928300000000004
 20
0.8604900000000001
 30
0.0
 10
-4.7699700000000007
 20
1.0560700000000001
 30
0.0
 10
-4.7547300000000003
 20
1.1805300000000001
 30
0.0
 10
-4.7547300000000003
 20
1.1805300000000001
 30
0.0
 10
-4.9299900000000001
 20
0.8858900000000001
 30
0.0
 10
-5.0595300000000005
 20
0.5429900000000001
 30
0.0
 10
-5.1585900000000002
 20
0.22803
 30
0.0
 10
-5.1585900000000002
 20
0.22803
 30
0.0
 10
-5.3313100000000002
 20
0.46679
 30
0.0
 10
-5.3033700000000001
 20
0.8604900000000001
 30
0.0
 10
-5.2119300000000006
 20
1.1424300000000001
 30
0.0
 10
-5.2119300000000006
 20
1.1424300000000001
 30
0.0
 10
-5.3567100000000005
 20
1.15259
 30
0.0
 10
-5.4303700000000008
 20
0.7131700000000001
 30
0.0
 10
-5.5700700000000003
 20
0.6090300000000001
 30
0.0
 10
-5.5700700000000003
 20
0.6090300000000001
 30
0.0
 10
-5.2830500000000002
 20
1.6707500000000002
 30
0.0
 10
-5.0722300000000002
 20
2.9966300000000001
 30
0.0
 10
-4.2340300000000006
 20
3.8246700000000002
 30
0.0
 10
-4.2340300000000006
 20
3.8246700000000002
 30
0.0
 10
-4.18323
 20
3.7052900000000002
 30
0.0
 10
-4.3280099999999999
 20
3.3090500000000005
 30
0.0
 10
-3.9901900000000001
 20
3.4741500000000003
 30
0.0
 10
-3.9901900000000001
 20
3.4741500000000003
 30
0.0
 10
-3.9901900000000001
 20
3.4741500000000003
 30
0.0
 10
-3.6117300000000001
 20
3.8145100000000003
 30
0.0
 10
-3.6117300000000001
 20
3.8145100000000003
 30
0.0
 10
-3.6117300000000001
 20
3.8145100000000003
 30
0.0
 10
-3.3551900000000003
 20
4.1167700000000007
 30
0.0
 10
-3.2662900000000001
 20
4.5231700000000004
 30
0.0
 10
-3.0275300000000001
 20
4.8305100000000003
 30
0.0
 10
-3.0275300000000001
 20
4.8305100000000003
 30
0.0
 10
-3.0961100000000004
 20
4.0151700000000003
 30
0.0
 10
-2.3899900000000001
 20
3.9948500000000005
 30
0.0
 10
-1.8261100000000001
 20
4.3555300000000008
 30
0.0
 10
-1.8261100000000001
 20
4.3555300000000008
 30
0.0
 10
-1.8464300000000002
 20
4.2285300000000001
 30
0.0
 10
-1.8972300000000002
 20
4.0329500000000005
 30
0.0
 10
-1.7168900000000002
 20
3.9923100000000002
 30
0.0
 10
-1.7168900000000002
 20
3.9923100000000002
 30
0.0
 10
-1.7168900000000002
 20
3.9923100000000002
 30
0.0
 10
-1.37907
 20
3.9923100000000002
 30
0.0
 10
-1.37907
 20
3.9923100000000002
 30
0.0
 10
-1.37907
 20
3.9923100000000002
 30
0.0
 10
-0.6018300000000001
 20
5.09213
 30
0.0
 10
1.0136000000000001
 20
5.2369100000000008
 30
0.0
 10
2.2353400000000003
 20
5.6407700000000007
 30
0.0
 10
2.2353400000000003
 20
5.6407700000000007
 30
0.0
 10
2.4182200000000003
 20
5.5899700000000001
 30
0.0
 10
2.6163400000000001
 20
5.5467900000000006
 30
0.0
 10
2.7535000000000003
 20
5.4274100000000001
 30
0.0
 10
2.7535000000000003
 20
5.4274100000000001
 30
0.0
 10
3.4240600000000003
 20
5.5772700000000004
 30
0.0
 10
4.1733600000000006
 20
5.5696500000000002
 30
0.0
 10
4.8286800000000003
 20
5.3766100000000003
 30
0.0
 10
4.8286800000000003
 20
5.3766100000000003
 30
0.0
 10
5.5322600000000008
 20
5.0083100000000007
 30
0.0
 10
5.4865400000000006
 20
4.2336100000000005
 30
0.0
 10
5.5754400000000004
 20
3.5808300000000002
 30
0.0
 10
5.5754400000000004
 20
3.5808300000000002
 30
0.0
 10
5.5754400000000004
 20
3.0753700000000004
 30
0.0
 10
5.1792000000000007
 20
2.6943700000000002
 30
0.0
 10
4.8134400000000008
 20
2.3717900000000003
 30
0.0
 10
4.8134400000000008
 20
2.3717900000000003
 30
0.0
 10
4.7829600000000001
 20
1.6453500000000001
 30
0.0
 10
3.8380800000000002
 20
1.5158100000000001
 30
0.0
 10
3.7161600000000004
 20
0.8325500000000001
 30
0.0
 10
3.7161600000000004
 20
0.8325500000000001
 30
0.0
 10
3.7161600000000004
 20
0.8325500000000001
 30
0.0
 10
3.5637600000000003
 20
-0.06406
 30
0.0
 10
3.5637600000000003
 20
-0.06406
 30
0.0
 10
3.5637600000000003
 20
-0.06406
 30
0.0
 10
4.4476800000000001
 20
-1.7506200000000001
 30
0.0
 10
2.4334600000000002
 20
-3.1146000000000003
 30
0.0
 10
2.3267800000000003
 20
-4.77576
 30
0.0
 10
2.3267800000000003
 20
-4.77576
 30
0.0
 10
1.5927200000000001
 20
-5.1186600000000002
 30
0.0
 10
0.83072
 20
-5.5174400000000006
 30
0.0
 10
0.00776
 20
-5.6469800000000001
 30
0.0
 10
0.00776
 20
-5.6469800000000001
 30
0.0
 10
0.07888
 20
-5.5555400000000006
 30
0.0
 10
0.10682
 20
-5.5022000000000002
 30
0.0
 10
0.20334
 20
-5.4437800000000003
 30
0.0
 10
0.20334
 20
-5.4437800000000003
 30
0.0
 10
0.2617600000000001
 20
-5.4107600000000007
 30
0.0
 10
0.31256
 20
-5.3447200000000006
 30
0.0
 10
0.31256
 20
-5.3447200000000006
 30
0.0
  0
SPLINE
  5
26
100
AcDbEntity
  8
Ebene 1
100
AcDbSpline
210
0.0
220
0.0
230
1.0
 70
     1
 71
     3
 72
    16
 73
    12
 74
     0
 42
0.0000000001
 43
0.0000000001
 40
0.0
 40
0.0
 40
0.0
 40
0.0
 40
0.3333333333333333
 40
0.3333333333333333
 40
0.3333333333333333
 40
0.3333333333333333
 40
0.6666666666666666
 40
0.6666666666666666
 40
0.6666666666666666
 40
0.6666666666666666
 40
1.0
 40
1.0
 40
1.0
 40
1.0
 10
0.9221600000000001
 20
2.0847700000000002
 30
0.0
 10
0.8002400000000001
 20
1.8028300000000002
 30
0.0
 10
0.785
 20
1.40405
 30
0.0
 10
0.9831200000000001
 20
1.1703700000000001
 30
0.0
 10
0.9831200000000001
 20
1.1703700000000001
 30
0.0
 10
1.1202800000000002
 20
1.3888100000000001
 30
0.0
 10
1.1202800000000002
 20
1.6783700000000001
 30
0.0
 10
1.2422000000000002
 20
1.9120500000000002
 30
0.0
 10
1.2422000000000002
 20
1.9120500000000002
 30
0.0
 10
1.1202800000000002
 20
1.9603100000000002
 30
0.0
 10
1.0440800000000001
 20
2.0847700000000002
 30
0.0
 10
0.9221600000000001
 20
2.0847700000000002
 30
0.0
  0
SPLINE
  5
27
100
AcDbEntity
  8
Ebene 1
100
AcDbSpline
210
0.0
220
0.0
230
1.0
 70
     1
 71
     3
 72
    24
 73
    20
 74
     0
 42
0.0000000001
 43
0.0000000001
 40
0.0
 40
0.0
 40
0.0
 40
0.0
 40
0.2
 40
0.2
 40
0.2
 40
0.2
 40
0.4
 40
0.4
 40
0.4
 40
0.4
 40
0.6000000000000001
 40
0.6000000000000001
 40
0.6000000000000001
 40
0.6000000000000001
 40
0.8
 40
0.8
 40
0.8
 40
0.8
 40
1.0
 40
1.0
 40
1.0
 40
1.0
 10
3.0735400000000004
 20
2.03905
 30
0.0
 10
2.8449400000000002
 20
1.9603100000000002
 30
0.0
 10
2.5858600000000003
 20
1.8383900000000002
 30
0.0
 10
2.4944200000000003
 20
1.5615300000000001
 30
0.0
 10
2.4944200000000003
 20
1.5615300000000001
 30
0.0
 10
2.4487000000000001
 20
1.4167500000000002
 30
0.0
 10
2.2201
 20
1.10687
 30
0.0
 10
2.5096600000000002
 20
1.0967100000000001
 30
0.0
 10
2.5096600000000002
 20
1.0967100000000001
 30
0.0
 10
2.63158
 20
1.27197
 30
0.0
 10
2.63158
 20
1.4954900000000002
 30
0.0
 10
2.6773000000000002
 20
1.69869
 30
0.0
 10
2.6773000000000002
 20
1.69869
 30
0.0
 10
2.8906600000000005
 20
1.8079100000000001
 30
0.0
 10
3.2411800000000004
 20
1.7367900000000001
 30
0.0
 10
3.3631000000000002
 20
2.00603
 30
0.0
 10
3.3631000000000002
 20
2.00603
 30
0.0
 10
3.3631000000000002
 20
2.00603
 30
0.0
 10
3.0735400000000004
 20
2.03905
 30
0.0
 10
3.0735400000000004
 20
2.03905
 30
0.0
  0
SPLINE
  5
28
100
AcDbEntity
  8
Ebene 1
 62
     7
100
AcDbSpline
210
0.0
220
0.0
230
1.0
 70
     1
 71
     3
 72
   296
 73
   292
 74
     0
 42
0.0000000001
 43
0.0000000001
 40
0.0
 40
0.0
 40
0.0
 40
0.0
 40
0.0136986301369863
 40
0.0136986301369863
 40
0.0136986301369863
 40
0.0136986301369863
 40
0.0273972602739726
 40
0.0273972602739726
 40
0.0273972602739726
 40
0.0273972602739726
 40
0.0410958904109589
 40
0.0410958904109589
 40
0.0410958904109589
 40
0.0410958904109589
 40
0.0547945205479452
 40
0.0547945205479452
 40
0.0547945205479452
 40
0.0547945205479452
 40
0.0684931506849315
 40
0.0684931506849315
 40
0.0684931506849315
 40
0.0684931506849315
 40
0.0821917808219178
 40
0.0821917808219178
 40
0.0821917808219178
 40
0.0821917808219178
 40
0.0958904109589041
 40
0.0958904109589041
 40
0.0958904109589041
 40
0.0958904109589041
 40
0.1095890410958904
 40
0.1095890410958904
 40
0.1095890410958904
 40
0.1095890410958904
 40
0.1232876712328767
 40
0.1232876712328767
 40
0.1232876712328767
 40
0.1232876712328767
 40
0.136986301369863
 40
0.136986301369863
 40
0.136986301369863
 40
0.136986301369863
 40
0.1506849315068493
 40
0.1506849315068493
 40
0.1506849315068493
 40
0.1506849315068493
 40
0.1643835616438356
 40
0.1643835616438356
 40
0.1643835616438356
 40
0.1643835616438356
 40
0.1780821917808219
 40
0.1780821917808219
 40
0.1780821917808219
 40
0.1780821917808219
 40
0.1917808219178082
 40
0.1917808219178082
 40
0.1917808219178082
 40
0.1917808219178082
 40
0.2054794520547945
 40
0.2054794520547945
 40
0.2054794520547945
 40
0.2054794520547945
 40
0.2191780821917808
 40
0.2191780821917808
 40
0.2191780821917808
 40
0.2191780821917808
 40
0.2328767123287671
 40
0.2328767123287671
 40
0.2328767123287671
 40
0.2328767123287671
 40
0.2465753424657534
 40
0.2465753424657534
 40
0.2465753424657534
 40
0.2465753424657534
 40
0.2602739726027397
 40
0.2602739726027397
 40
0.2602739726027397
 40
0.2602739726027397
 40
0.273972602739726
 40
0.273972602739726
 40
0.273972602739726
 40
0.273972602739726
 40
0.2876712328767123
 40
0.2876712328767123
 40
0.2876712328767123
 40
0.2876712328767123
 40
0.3013698630136986
 40
0.3013698630136986
 40
0.3013698630136986
 40
0.3013698630136986
 40
0.3150684931506849
 40
0.3150684931506849
 40
0.3150684931506849
 40
0.3150684931506849
 40
0.3287671232876712
 40
0.3287671232876712
 40
0.3287671232876712
 40
0.3287671232876712
 40
0.3424657534246575
 40
0.3424657534246575
 40
0.3424657534246575
 40
0.3424657534246575
 40
0.3561643835616438
 40
0.3561643835616438
 40
0.3561643835616438
 40
0.3561643835616438
 40
0.3698630136986301
 40
0.3698630136986301
 40
0.3698630136986301
 40
0.3698630136986301
 40
0.3835616438356164
 40
0.3835616438356164
 40
0.3835616438356164
 40
0.3835616438356164
 40
0.3972602739726027
 40
0.3972602739726027
 40
0.3972602739726027
 40
0.3972602739726027
 40
0.410958904109589
 40
0.410958904109589
 40
0.410958904109589
 40
0.410958904109589
 40
0.4246575342465753
 40
0.4246575342465753
 40
0.4246575342465753
 40
0.4246575342465753
 40
0.4383561643835616
 40
0.4383561643835616
 40
0.4383561643835616
 40
0.4383561643835616
 40
0.4520547945205479
 40
0.4520547945205479
 40
0.4520547945205479
 40
0.4520547945205479
 40
0.4657534246575342
 40
0.4657534246575342
 40
0.4657534246575342
 40
0.4657534246575342
 40
0.4794520547945205
 40
0.4794520547945205
 40
0.4794520547945205
 40
0.4794520547945205
 40
0.4931506849315068
 40
0.4931506849315068
 40
0.4931506849315068
 40
0.4931506849315068
 40
0.5068493150684932
 40
0.5068493150684932
 40
0.5068493150684932
 40
0.5068493150684932
 40
0.5205479452054795
 40
0.5205479452054795
 40
0.5205479452054795
 40
0.5205479452054795
 40
0.5342465753424659
 40
0.5342465753424659
 40
0.5342465753424659
 40
0.5342465753424659
 40
0.5479452054794523
 40
0.5479452054794523
 40
0.5479452054794523
 40
0.5479452054794523
 40
0.5616438356164386
 40
0.5616438356164386
 40
0.5616438356164386
 40
0.5616438356164386
 40
0.575342465753425
 40
0.575342465753425
 40
0.575342465753425
 40
0.575342465753425
 40
0.5890410958904113
 40
0.5890410958904113
 40
0.5890410958904113
 40
0.5890410958904113
 40
0.6027397260273977
 40
0.6027397260273977
 40
0.6027397260273977
 40
0.6027397260273977
 40
0.616438356164384
 40
0.616438356164384
 40
0.616438356164384
 40
0.616438356164384
 40
0.6301369863013704
 40
0.6301369863013704
 40
0.6301369863013704
 40
0.6301369863013704
 40
0.6438356164383567
 40
0.6438356164383567
 40
0.6438356164383567
 40
0.6438356164383567
 40
0.6575342465753431
 40
0.6575342465753431
 40
0.6575342465753431
 40
0.6575342465753431
 40
0.6712328767123295
 40
0.6712328767123295
 40
0.6712328767123295
 40
0.6712328767123295
 40
0.6849315068493158
 40
0.6849315068493158
 40
0.6849315068493158
 40
0.6849315068493158
 40
0.6986301369863022
 40
0.6986301369863022
 40
0.6986301369863022
 40
0.6986301369863022
 40
0.7123287671232885
 40
0.7123287671232885
 40
0.7123287671232885
 40
0.7123287671232885
 40
0.7260273972602749
 40
0.7260273972602749
 40
0.7260273972602749
 40
0.7260273972602749
 40
0.7397260273972612
 40
0.7397260273972612
 40
0.7397260273972612
 40
0.7397260273972612
 40
0.7534246575342476
 40
0.7534246575342476
 40
0.7534246575342476
 40
0.7534246575342476
 40
0.7671232876712339
 40
0.7671232876712339
 40
0.7671232876712339
 40
0.7671232876712339
 40
0.7808219178082203
 40
0.7808219178082203
 40
0.7808219178082203
 40
0.7808219178082203
 40
0.7945205479452067
 40
0.7945205479452067
 40
0.7945205479452067
 40
0.7945205479452067
 40
0.808219178082193
 40
0.808219178082193
 40
0.808219178082193
 40
0.808219178082193
 40
0.8219178082191794
 40
0.8219178082191794
 40
0.8219178082191794
 40
0.8219178082191794
 40
0.8356164383561657
 40
0.8356164383561657
 40
0.8356164383561657
 40
0.8356164383561657
 40
0.8493150684931521
 40
0.8493150684931521
 40
0.8493150684931521
 40
0.8493150684931521
 40
0.8630136986301384
 40
0.8630136986301384
 40
0.8630136986301384
 40
0.8630136986301384
 40
0.8767123287671248
 40
0.8767123287671248
 40
0.8767123287671248
 40
0.8767123287671248
 40
0.8904109589041112
 40
0.8904109589041112
 40
0.8904109589041112
 40
0.8904109589041112
 40
0.9041095890410975
 40
0.9041095890410975
 40
0.9041095890410975
 40
0.9041095890410975
 40
0.9178082191780839
 40
0.9178082191780839
 40
0.9178082191780839
 40
0.9178082191780839
 40
0.9315068493150702
 40
0.9315068493150702
 40
0.9315068493150702
 40
0.9315068493150702
 40
0.9452054794520566
 40
0.9452054794520566
 40
0.9452054794520566
 40
0.9452054794520566
 40
0.9589041095890429
 40
0.9589041095890429
 40
0.9589041095890429
 40
0.9589041095890429
 40
0.9726027397260293
 40
0.9726027397260293
 40
0.9726027397260293
 40
0.9726027397260293
 40
0.9863013698630156
 40
0.9863013698630156
 40
0.9863013698630156
 40
0.9863013698630156
 40
1.0
 40
1.0
 40
1.0
 40
1.0
 10
-0.40371
 20
2.22193
 30
0.0
 10
-0.61707
 20
2.3133700000000004
 30
0.0
 10
-0.8609100000000001
 20
2.3311500000000001
 30
0.0
 10
-1.08951
 20
2.3184500000000003
 30
0.0
 10
-1.08951
 20
2.3184500000000003
 30
0.0
 10
-1.08951
 20
2.3184500000000003
 30
0.0
 10
-0.9675900000000001
 20
2.3590900000000001
 30
0.0
 10
-0.9675900000000001
 20
2.3590900000000001
 30
0.0
 10
-0.9675900000000001
 20
2.3590900000000001
 30
0.0
 10
-0.9218700000000001
 20
2.3768700000000003
 30
0.0
 10
-0.78471
 20
2.3870300000000002
 30
0.0
 10
-0.8151900000000001
 20
2.4352900000000002
 30
0.0
 10
-0.8151900000000001
 20
2.4352900000000002
 30
0.0
 10
-1.2571500000000002
 20
2.3667100000000003
 30
0.0
 10
-1.6660900000000001
 20
2.1711300000000002
 30
0.0
 10
-2.1232900000000003
 20
2.1508100000000003
 30
0.0
 10
-2.1232900000000003
 20
2.1508100000000003
 30
0.0
 10
-2.1232900000000003
 20
2.1508100000000003
 30
0.0
 10
-2.5957300000000001
 20
2.3870300000000002
 30
0.0
 10
-2.5957300000000001
 20
2.3870300000000002
 30
0.0
 10
-2.5957300000000001
 20
2.3870300000000002
 30
0.0
 10
-2.6135100000000002
 20
2.2295500000000001
 30
0.0
 10
-2.23251
 20
2.24987
 30
0.0
 10
-2.31379
 20
2.0415900000000002
 30
0.0
 10
-2.31379
 20
2.0415900000000002
 30
0.0
 10
-2.6338300000000001
 20
2.00095
 30
0.0
 10
-2.9106900000000002
 20
2.0415900000000002
 30
0.0
 10
-3.1748500000000002
 20
2.1584300000000001
 30
0.0
 10
-3.1748500000000002
 20
2.1584300000000001
 30
0.0
 10
-3.1951700000000001
 20
2.08223
 30
0.0
 10
-2.9919700000000002
 20
2.0619100000000001
 30
0.0
 10
-3.0148300000000003
 20
1.9526900000000003
 30
0.0
 10
-3.0148300000000003
 20
1.9526900000000003
 30
0.0
 10
-3.3145500000000001
 20
1.8688700000000003
 30
0.0
 10
-3.6041100000000004
 20
1.73933
 30
0.0
 10
-3.9241500000000005
 20
1.73933
 30
0.0
 10
-3.9241500000000005
 20
1.73933
 30
0.0
 10
-3.9317700000000002
 20
1.8434700000000002
 30
0.0
 10
-3.7412700000000001
 20
1.9196700000000002
 30
0.0
 10
-3.8174700000000001
 20
2.0212700000000003
 30
0.0
 10
-3.8174700000000001
 20
2.0212700000000003
 30
0.0
 10
-4.01051
 20
1.4548500000000002
 30
0.0
 10
-4.5108900000000007
 20
2.00603
 30
0.0
 10
-4.43215
 20
2.3133700000000004
 30
0.0
 10
-4.43215
 20
2.3133700000000004
 30
0.0
 10
-4.4956500000000004
 20
2.0746100000000003
 30
0.0
 10
-4.4702500000000001
 20
1.61487
 30
0.0
 10
-4.7928300000000004
 20
1.6758300000000002
 30
0.0
 10
-4.7928300000000004
 20
1.6758300000000002
 30
0.0
 10
-4.9147500000000006
 20
1.8790300000000002
 30
0.0
 10
-4.7420300000000006
 20
2.13049
 30
0.0
 10
-4.7674300000000001
 20
2.3286100000000003
 30
0.0
 10
-4.7674300000000001
 20
2.3286100000000003
 30
0.0
 10
-4.7674300000000001
 20
2.3286100000000003
 30
0.0
 10
-5.0214300000000005
 20
1.6301100000000002
 30
0.0
 10
-5.0214300000000005
 20
1.6301100000000002
 30
0.0
 10
-5.0214300000000005
 20
1.6301100000000002
 30
0.0
 10
-5.0138100000000003
 20
2.0695300000000003
 30
0.0
 10
-4.9985700000000008
 20
2.5216500000000002
 30
0.0
 10
-4.73949
 20
2.8899500000000002
 30
0.0
 10
-4.73949
 20
2.8899500000000002
 30
0.0
 10
-4.7902900000000006
 20
2.7248500000000004
 30
0.0
 10
-4.82585
 20
2.5673700000000004
 30
0.0
 10
-4.8309300000000004
 20
2.3946500000000004
 30
0.0
 10
-4.8309300000000004
 20
2.3946500000000004
 30
0.0
 10
-4.6480500000000005
 20
2.42259
 30
0.0
 10
-4.7039300000000006
 20
3.1642700000000001
 30
0.0
 10
-4.3661099999999999
 20
3.3623900000000004
 30
0.0
 10
-4.3661099999999999
 20
3.3623900000000004
 30
0.0
 10
-3.8911300000000004
 20
3.1185500000000004
 30
0.0
 10
-3.6244300000000003
 20
3.8373700000000004
 30
0.0
 10
-3.2002500000000005
 20
3.9643700000000002
 30
0.0
 10
-3.2002500000000005
 20
3.9643700000000002
 30
0.0
 10
-3.2561300000000002
 20
4.0558100000000001
 30
0.0
 10
-3.2739100000000003
 20
4.3326700000000002
 30
0.0
 10
-3.1215100000000002
 20
4.50793
 30
0.0
 10
-3.1215100000000002
 20
4.50793
 30
0.0
 10
-3.0859500000000004
 20
4.4139500000000007
 30
0.0
 10
-3.0961100000000004
 20
4.2945700000000002
 30
0.0
 10
-3.0554700000000001
 20
4.1980500000000003
 30
0.0
 10
-3.0554700000000001
 20
4.1980500000000003
 30
0.0
 10
-3.0173700000000001
 20
4.1040700000000001
 30
0.0
 10
-2.9310100000000001
 20
4.0354900000000002
 30
0.0
 10
-2.8776700000000002
 20
3.9516700000000005
 30
0.0
 10
-2.8776700000000002
 20
3.9516700000000005
 30
0.0
 10
-3.2713700000000001
 20
3.6748100000000004
 30
0.0
 10
-3.7031700000000005
 20
3.4944700000000002
 30
0.0
 10
-4.0917900000000005
 20
3.1185500000000004
 30
0.0
 10
-4.0917900000000005
 20
3.1185500000000004
 30
0.0
 10
-4.3280099999999999
 20
2.8772500000000001
 30
0.0
 10
-4.6937700000000007
 20
2.54705
 30
0.0
 10
-4.5997900000000005
 20
2.2371700000000003
 30
0.0
 10
-4.5997900000000005
 20
2.2371700000000003
 30
0.0
 10
-4.5820100000000004
 20
2.4835500000000001
 30
0.0
 10
-4.3762700000000008
 20
2.68167
 30
0.0
 10
-4.1883100000000004
 20
2.8467700000000002
 30
0.0
 10
-4.1883100000000004
 20
2.8467700000000002
 30
0.0
 10
-4.1883100000000004
 20
2.8467700000000002
 30
0.0
 10
-4.2873700000000001
 20
2.6486500000000004
 30
0.0
 10
-4.2873700000000001
 20
2.6486500000000004
 30
0.0
 10
-4.2873700000000001
 20
2.6486500000000004
 30
0.0
 10
-4.2873700000000001
 20
2.6486500000000004
 30
0.0
 10
-4.2746700000000004
 20
2.5318100000000001
 30
0.0
 10
-4.2746700000000004
 20
2.5318100000000001
 30
0.0
 10
-4.2746700000000004
 20
2.5318100000000001
 30
0.0
 10
-4.05877
 20
2.9788500000000004
 30
0.0
 10
-3.7692100000000002
 20
3.4157300000000004
 30
0.0
 10
-3.2510500000000002
 20
3.5909900000000001
 30
0.0
 10
-3.2510500000000002
 20
3.5909900000000001
 30
0.0
 10
-2.7735300000000001
 20
3.6163900000000004
 30
0.0
 10
-2.23251
 20
3.3700100000000002
 30
0.0
 10
-1.7753100000000002
 20
3.5960700000000001
 30
0.0
 10
-1.7753100000000002
 20
3.5960700000000001
 30
0.0
 10
-2.0394700000000001
 20
3.6443300000000005
 30
0.0
 10
-2.4128500000000002
 20
3.5249500000000005
 30
0.0
 10
-2.6770100000000001
 20
3.6544900000000005
 30
0.0
 10
-2.6770100000000001
 20
3.6544900000000005
 30
0.0
 10
-2.22743
 20
3.8932500000000001
 30
0.0
 10
-1.6584700000000001
 20
3.7865700000000002
 30
0.0
 10
-1.1809500000000002
 20
3.9618300000000004
 30
0.0
 10
-1.1809500000000002
 20
3.9618300000000004
 30
0.0
 10
-0.6018300000000001
 20
3.6417900000000003
 30
0.0
 10
0.05348
 20
3.4893900000000002
 30
0.0
 10
0.6478400000000001
 20
3.2023700000000002
 30
0.0
 10
0.6478400000000001
 20
3.2023700000000002
 30
0.0
 10
0.5411600000000001
 20
3.4385900000000005
 30
0.0
 10
-0.02017
 20
3.4538300000000004
 30
0.0
 10
0.023
 20
3.6316300000000004
 30
0.0
 10
0.023
 20
3.6316300000000004
 30
0.0
 10
0.12968
 20
3.6646500000000004
 30
0.0
 10
0.23636
 20
3.7357700000000005
 30
0.0
 10
0.35828
 20
3.7179900000000004
 30
0.0
 10
0.35828
 20
3.7179900000000004
 30
0.0
 10
1.05932
 20
3.0652100000000004
 30
0.0
 10
1.7933800000000002
 20
3.5655900000000003
 30
0.0
 10
2.3115400000000004
 20
4.1878900000000003
 30
0.0
 10
2.3115400000000004
 20
4.1878900000000003
 30
0.0
 10
1.8518000000000001
 20
4.0431100000000004
 30
0.0
 10
1.5165200000000001
 20
3.4665300000000001
 30
0.0
 10
0.9678800000000001
 20
3.5249500000000005
 30
0.0
 10
0.9678800000000001
 20
3.5249500000000005
 30
0.0
 10
0.8459600000000001
 20
3.5300300000000004
 30
0.0
 10
0.7392800000000001
 20
3.6189300000000002
 30
0.0
 10
0.6326000000000001
 20
3.6824300000000001
 30
0.0
 10
0.6326000000000001
 20
3.6824300000000001
 30
0.0
 10
1.2117200000000001
 20
3.5859100000000002
 30
0.0
 10
1.7451200000000002
 20
3.8145100000000003
 30
0.0
 10
2.0677000000000003
 20
4.3098100000000006
 30
0.0
 10
2.0677000000000003
 20
4.3098100000000006
 30
0.0
 10
2.0219800000000001
 20
4.3809300000000002
 30
0.0
 10
1.9457800000000001
 20
4.3682300000000005
 30
0.0
 10
1.8670400000000003
 20
4.3860100000000006
 30
0.0
 10
1.8670400000000003
 20
4.3860100000000006
 30
0.0
 10
1.8670400000000003
 20
4.3860100000000006
 30
0.0
 10
1.2422000000000002
 20
4.3885500000000004
 30
0.0
 10
1.2422000000000002
 20
4.3885500000000004
 30
0.0
 10
1.2422000000000002
 20
4.3885500000000004
 30
0.0
 10
0.6935600000000001
 20
4.1853500000000006
 30
0.0
 10
0.9374000000000001
 20
4.4545900000000005
 30
0.0
 10
1.3336400000000002
 20
4.5257100000000001
 30
0.0
 10
1.3336400000000002
 20
4.5257100000000001
 30
0.0
 10
1.8086200000000001
 20
4.7644700000000002
 30
0.0
 10
2.1439000000000004
 20
4.1802700000000002
 30
0.0
 10
2.6163400000000001
 20
4.3580700000000006
 30
0.0
 10
2.6163400000000001
 20
4.3580700000000006
 30
0.0
 10
2.2353400000000003
 20
4.3682300000000005
 30
0.0
 10
1.9457800000000001
 20
4.6857300000000004
 30
0.0
 10
1.5647800000000001
 20
4.6781100000000002
 30
0.0
 10
1.5647800000000001
 20
4.6781100000000002
 30
0.0
 10
2.2658200000000002
 20
5.0616500000000002
 30
0.0
 10
1.3031600000000001
 20
4.7746300000000002
 30
0.0
 10
1.0136000000000001
 20
4.5307900000000005
 30
0.0
 10
1.0136000000000001
 20
4.5307900000000005
 30
0.0
 10
0.5411600000000001
 20
4.3148900000000001
 30
0.0
 10
0.26684
 20
3.6265500000000004
 30
0.0
 10
-0.29703
 20
3.6824300000000001
 30
0.0
 10
-0.29703
 20
3.6824300000000001
 30
0.0
 10
-0.51039
 20
3.7332300000000003
 30
0.0
 10
-0.7085100000000001
 20
3.8221300000000005
 30
0.0
 10
-0.8609100000000001
 20
3.9923100000000002
 30
0.0
 10
-0.8609100000000001
 20
3.9923100000000002
 30
0.0
 10
-0.4799100000000001
 20
5.1708700000000007
 30
0.0
 10
1.02884
 20
5.0794300000000003
 30
0.0
 10
1.9889600000000001
 20
5.3918500000000007
 30
0.0
 10
1.9889600000000001
 20
5.3918500000000007
 30
0.0
 10
1.9889600000000001
 20
5.3918500000000007
 30
0.0
 10
1.7451200000000002
 20
5.3918500000000007
 30
0.0
 10
1.7451200000000002
 20
5.3918500000000007
 30
0.0
 10
1.7451200000000002
 20
5.3918500000000007
 30
0.0
 10
1.5495400000000001
 20
5.3588300000000002
 30
0.0
 10
1.8391000000000002
 20
5.5163100000000007
 30
0.0
 10
1.9305400000000001
 20
5.5061500000000008
 30
0.0
 10
1.9305400000000001
 20
5.5061500000000008
 30
0.0
 10
1.9305400000000001
 20
5.5061500000000008
 30
0.0
 10
2.0677000000000003
 20
5.5493300000000003
 30
0.0
 10
2.0677000000000003
 20
5.5493300000000003
 30
0.0
 10
2.0677000000000003
 20
5.5493300000000003
 30
0.0
 10
2.2353400000000003
 20
5.5518700000000001
 30
0.0
 10
2.38774
 20
5.5594900000000003
 30
0.0
 10
2.5249000000000001
 20
5.4680500000000007
 30
0.0
 10
2.5249000000000001
 20
5.4680500000000007
 30
0.0
 10
2.6925400000000002
 20
5.2699300000000004
 30
0.0
 10
2.7687400000000002
 20
4.9854500000000002
 30
0.0
 10
2.63158
 20
4.7517700000000005
 30
0.0
 10
2.63158
 20
4.7517700000000005
 30
0.0
 10
2.6468200000000004
 20
4.5714300000000003
 30
0.0
 10
2.7687400000000002
 20
4.8203500000000004
 30
0.0
 10
2.7687400000000002
 20
4.8889300000000002
 30
0.0
 10
2.7687400000000002
 20
4.8889300000000002
 30
0.0
 10
3.2132400000000003
 20
5.6407700000000007
 30
0.0
 10
4.4019600000000008
 20
5.5264700000000007
 30
0.0
 10
5.0268000000000006
 20
5.0260900000000008
 30
0.0
 10
5.0268000000000006
 20
5.0260900000000008
 30
0.0
 10
5.2579400000000005
 20
4.8787700000000003
 30
0.0
 10
5.4103400000000006
 20
4.1269300000000007
 30
0.0
 10
5.0877600000000003
 20
4.3631500000000001
 30
0.0
 10
5.0877600000000003
 20
4.3631500000000001
 30
0.0
 10
5.2579400000000005
 20
4.0786700000000007
 30
0.0
 10
5.4535200000000001
 20
3.7560900000000004
 30
0.0
 10
5.34938
 20
3.4157300000000004
 30
0.0
 10
5.34938
 20
3.4157300000000004
 30
0.0
 10
5.2096800000000005
 20
3.2226900000000001
 30
0.0
 10
5.0115600000000002
 20
3.1058500000000002
 30
0.0
 10
4.8134400000000008
 20
2.9991700000000003
 30
0.0
 10
4.8134400000000008
 20
2.9991700000000003
 30
0.0
 10
4.4324400000000006
 20
3.4944700000000002
 30
0.0
 10
3.3631000000000002
 20
3.2658700000000001
 30
0.0
 10
3.2869000000000002
 20
2.5927700000000002
 30
0.0
 10
3.2869000000000002
 20
2.5927700000000002
 30
0.0
 10
2.9821000000000004
 20
2.4200500000000003
 30
0.0
 10
1.8518000000000001
 20
2.59531
 30
0.0
 10
2.3572600000000001
 20
3.0601300000000005
 30
0.0
 10
2.3572600000000001
 20
3.0601300000000005
 30
0.0
 10
2.3115400000000004
 20
3.1007700000000002
 30
0.0
 10
2.2353400000000003
 20
3.0702900000000004
 30
0.0
 10
2.1743800000000002
 20
3.0423500000000003
 30
0.0
 10
2.1743800000000002
 20
3.0423500000000003
 30
0.0
 10
2.05246
 20
2.9407500000000004
 30
0.0
 10
1.8391000000000002
 20
2.7959700000000001
 30
0.0
 10
1.9762600000000001
 20
2.6232500000000001
 30
0.0
 10
1.9762600000000001
 20
2.6232500000000001
 30
0.0
 10
2.2810600000000001
 20
2.3667100000000003
 30
0.0
 10
2.7839800000000001
 20
2.5775300000000003
 30
0.0
 10
3.0278200000000002
 20
2.20669
 30
0.0
 10
3.0278200000000002
 20
2.20669
 30
0.0
 10
2.6011000000000002
 20
2.12541
 30
0.0
 10
1.3793600000000001
 20
1.1221100000000002
 30
0.0
 10
1.5647800000000001
 20
2.2371700000000003
 30
0.0
 10
1.5647800000000001
 20
2.2371700000000003
 30
0.0
 10
1.5343000000000002
 20
2.0263500000000003
 30
0.0
 10
0.72404
 20
2.0517500000000002
 30
0.0
 10
0.89168
 20
2.3743300000000001
 30
0.0
 10
0.89168
 20
2.3743300000000001
 30
0.0
 10
0.9043800000000001
 20
2.5394300000000003
 30
0.0
 10
0.8129400000000001
 20
2.30321
 30
0.0
 10
0.7926200000000001
 20
2.2727300000000001
 30
0.0
 10
0.7926200000000001
 20
2.2727300000000001
 30
0.0
 10
0.5640200000000001
 20
1.9095100000000003
 30
0.0
 10
0.21604
 20
2.5318100000000001
 30
0.0
 10
0.1754
 20
2.8289900000000001
 30
0.0
 10
0.1754
 20
2.8289900000000001
 30
0.0
 10
0.08396
 20
2.7045300000000001
 30
0.0
 10
0.19064
 20
2.5597500000000002
 30
0.0
 10
0.2516000000000001
 20
2.4479900000000003
 30
0.0
 10
0.2516000000000001
 20
2.4479900000000003
 30
0.0
 10
0.404
 20
2.12033
 30
0.0
 10
-0.00493
 20
2.29305
 30
0.0
 10
-0.12685
 20
2.47085
 30
0.0
 10
-0.12685
 20
2.47085
 30
0.0
 10
-0.12685
 20
2.47085
 30
0.0
 10
-0.29703
 20
2.7096100000000001
 30
0.0
 10
-0.29703
 20
2.7096100000000001
 30
0.0
 10
-0.29703
 20
2.7096100000000001
 30
0.0
 10
-0.3427500000000001
 20
2.7604100000000003
 30
0.0
 10
-0.38847
 20
2.8112100000000004
 30
0.0
 10
-0.41895
 20
2.8772500000000001
 30
0.0
 10
-0.41895
 20
2.8772500000000001
 30
0.0
 10
-0.73899
 20
3.1617300000000004
 30
0.0
 10
0.20588
 20
1.8688700000000003
 30
0.0
 10
-0.3427500000000001
 20
2.3489300000000002
 30
0.0
 10
-0.3427500000000001
 20
2.3489300000000002
 30
0.0
 10
-0.3427500000000001
 20
2.3489300000000002
 30
0.0
 10
-0.4799100000000001
 20
2.5241900000000004
 30
0.0
 10
-0.4799100000000001
 20
2.5241900000000004
 30
0.0
 10
-0.4799100000000001
 20
2.5241900000000004
 30
0.0
 10
-0.4799100000000001
 20
2.5241900000000004
 30
0.0
 10
-0.4494300000000001
 20
2.3133700000000004
 30
0.0
 10
-0.4494300000000001
 20
2.3133700000000004
 30
0.0
 10
-0.4494300000000001
 20
2.3133700000000004
 30
0.0
 10
-0.4494300000000001
 20
2.3133700000000004
 30
0.0
 10
-0.40371
 20
2.22193
 30
0.0
 10
-0.40371
 20
2.22193
 30
0.0
  0
SPLINE
  5
29
100
AcDbEntity
  8
Ebene 1
100
AcDbSpline
210
0.0
220
0.0
230
1.0
 70
     1
 71
     3
 72
    40
 73
    36
 74
     0
 42
0.0000000001
 43
0.0000000001
 40
0.0
 40
0.0
 40
0.0
 40
0.0
 40
0.1111111111111111
 40
0.1111111111111111
 40
0.1111111111111111
 40
0.1111111111111111
 40
0.2222222222222222
 40
0.2222222222222222
 40
0.2222222222222222
 40
0.2222222222222222
 40
0.3333333333333333
 40
0.3333333333333333
 40
0.3333333333333333
 40
0.3333333333333333
 40
0.4444444444444444
 40
0.4444444444444444
 40
0.4444444444444444
 40
0.4444444444444444
 40
0.5555555555555556
 40
0.5555555555555556
 40
0.5555555555555556
 40
0.5555555555555556
 40
0.6666666666666667
 40
0.6666666666666667
 40
0.6666666666666667
 40
0.6666666666666667
 40
0.7777777777777779
 40
0.7777777777777779
 40
0.7777777777777779
 40
0.7777777777777779
 40
0.8888888888888891
 40
0.8888888888888891
 40
0.8888888888888891
 40
0.8888888888888891
 40
1.0
 40
1.0
 40
1.0
 40
1.0
 10
3.7618800000000001
 20
4.9524300000000006
 30
0.0
 10
3.8685600000000004
 20
4.9854500000000002
 30
0.0
 10
3.9447600000000005
 20
4.8990900000000002
 30
0.0
 10
3.7923600000000004
 20
4.9041700000000006
 30
0.0
 10
3.7923600000000004
 20
4.9041700000000006
 30
0.0
 10
3.2564200000000003
 20
4.7720900000000004
 30
0.0
 10
2.8906600000000005
 20
4.1269300000000007
 30
0.0
 10
3.2869000000000002
 20
3.6544900000000005
 30
0.0
 10
3.2869000000000002
 20
3.6544900000000005
 30
0.0
 10
3.3021400000000001
 20
3.5782900000000004
 30
0.0
 10
3.3021400000000001
 20
3.4944700000000002
 30
0.0
 10
3.3021400000000001
 20
3.4106500000000004
 30
0.0
 10
3.3021400000000001
 20
3.4106500000000004
 30
0.0
 10
3.1954600000000002
 20
3.1261700000000001
 30
0.0
 10
2.8144600000000004
 20
3.0423500000000003
 30
0.0
 10
2.5553800000000004
 20
3.0804500000000004
 30
0.0
 10
2.5553800000000004
 20
3.0804500000000004
 30
0.0
 10
2.6011000000000002
 20
3.1210900000000001
 30
0.0
 10
2.6620600000000003
 20
3.1236300000000004
 30
0.0
 10
2.7230200000000004
 20
3.1363300000000001
 30
0.0
 10
2.7230200000000004
 20
3.1363300000000001
 30
0.0
 10
2.8754200000000001
 20
3.1947500000000004
 30
0.0
 10
3.0125800000000003
 20
3.2861900000000004
 30
0.0
 10
3.1040200000000002
 20
3.4309700000000003
 30
0.0
 10
3.1040200000000002
 20
3.4309700000000003
 30
0.0
 10
3.1040200000000002
 20
3.4309700000000003
 30
0.0
 10
3.1649800000000003
 20
3.6697300000000004
 30
0.0
 10
3.1649800000000003
 20
3.6697300000000004
 30
0.0
 10
3.1649800000000003
 20
3.6697300000000004
 30
0.0
 10
3.1192600000000001
 20
3.7332300000000003
 30
0.0
 10
3.1040200000000002
 20
3.8068900000000001
 30
0.0
 10
3.0735400000000004
 20
3.8830900000000002
 30
0.0
 10
3.0735400000000004
 20
3.8830900000000002
 30
0.0
 10
2.6011000000000002
 20
4.4037900000000008
 30
0.0
 10
3.2259400000000005
 20
4.9549700000000003
 30
0.0
 10
3.7618800000000001
 20
4.9524300000000006
 30
0.0
  0
SPLINE
  5
2A
100
AcDbEntity
  8
Ebene 1
 62
     7
100
AcDbSpline
210
0.0
220
0.0
230
1.0
 70
     1
 71
     3
 72
    12
 73
     8
 74
     0
 42
0.0000000001
 43
0.0000000001
 40
0.0
 40
0.0
 40
0.0
 40
0.0
 40
0.5
 40
0.5
 40
0.5
 40
0.5
 40
1.0
 40
1.0
 40
1.0
 40
1.0
 10
-0.8609100000000001
 20
4.4495100000000001
 30
0.0
 10
-0.8609100000000001
 20
4.4495100000000001
 30
0.0
 10
-1.21143
 20
4.0431100000000004
 30
0.0
 10
-1.21143
 20
4.0431100000000004
 30
0.0
 10
-1.21143
 20
4.0431100000000004
 30
0.0
 10
-1.1504700000000001
 20
4.2183700000000002
 30
0.0
 10
-1.04379
 20
4.38347
 30
0.0
 10
-0.8609100000000001
 20
4.4495100000000001
 30
0.0
  0
SPLINE
  5
2B
100
AcDbEntity
  8
Ebene 1
 62
     7
100
AcDbSpline
210
0.0
220
0.0
230
1.0
 70
     1
 71
     3
 72
    20
 73
    16
 74
     0
 42
0.0000000001
 43
0.0000000001
 40
0.0
 40
0.0
 40
0.0
 40
0.0
 40
0.25
 40
0.25
 40
0.25
 40
0.25
 40
0.5
 40
0.5
 40
0.5
 40
0.5
 40
0.75
 40
0.75
 40
0.75
 40
0.75
 40
1.0
 40
1.0
 40
1.0
 40
1.0
 10
1.2422000000000002
 20
4.1751900000000006
 30
0.0
 10
1.2422000000000002
 20
4.1751900000000006
 30
0.0
 10
1.3641200000000002
 20
4.17265
 30
0.0
 10
1.3641200000000002
 20
4.17265
 30
0.0
 10
1.3641200000000002
 20
4.17265
 30
0.0
 10
1.1202800000000002
 20
4.0050100000000004
 30
0.0
 10
0.8459600000000001
 20
3.8754700000000004
 30
0.0
 10
0.5259200000000001
 20
3.9211900000000002
 30
0.0
 10
0.5259200000000001
 20
3.9211900000000002
 30
0.0
 10
0.61736
 20
3.9897700000000005
 30
0.0
 10
0.72404
 20
4.0456500000000002
 30
0.0
 10
0.83072
 20
4.0888300000000006
 30
0.0
 10
0.83072
 20
4.0888300000000006
 30
0.0
 10
0.83072
 20
4.0888300000000006
 30
0.0
 10
1.2422000000000002
 20
4.1751900000000006
 30
0.0
 10
1.2422000000000002
 20
4.1751900000000006
 30
0.0
  0
SPLINE
  5
2C
100
AcDbEntity
  8
Ebene 1
 62
     7
100
AcDbSpline
210
0.0
220
0.0
230
1.0
 70
     1
 71
     3
 72
    12
 73
     8
 74
     0
 42
0.0000000001
 43
0.0000000001
 40
0.0
 40
0.0
 40
0.0
 40
0.0
 40
0.5
 40
0.5
 40
0.5
 40
0.5
 40
1.0
 40
1.0
 40
1.0
 40
1.0
 10
-2.2782300000000002
 20
4.0685100000000007
 30
0.0
 10
-2.5423900000000001
 20
3.9008700000000003
 30
0.0
 10
-2.8319500000000004
 20
3.7205300000000001
 30
0.0
 10
-3.1443700000000003
 20
3.7205300000000001
 30
0.0
 10
-3.1443700000000003
 20
3.7205300000000001
 30
0.0
 10
-3.1443700000000003
 20
3.7205300000000001
 30
0.0
 10
-2.2782300000000002
 20
4.0685100000000007
 30
0.0
 10
-2.2782300000000002
 20
4.0685100000000007
 30
0.0
  0
SPLINE
  5
2D
100
AcDbEntity
  8
Ebene 1
100
AcDbSpline
210
0.0
220
0.0
230
1.0
 70
     1
 71
     3
 72
    32
 73
    28
 74
     0
 42
0.0000000001
 43
0.0000000001
 40
0.0
 40
0.0
 40
0.0
 40
0.0
 40
0.1428571428571429
 40
0.1428571428571429
 40
0.1428571428571429
 40
0.1428571428571429
 40
0.2857142857142857
 40
0.2857142857142857
 40
0.2857142857142857
 40
0.2857142857142857
 40
0.4285714285714286
 40
0.4285714285714286
 40
0.4285714285714286
 40
0.4285714285714286
 40
0.5714285714285714
 40
0.5714285714285714
 40
0.5714285714285714
 40
0.5714285714285714
 40
0.7142857142857142
 40
0.7142857142857142
 40
0.7142857142857142
 40
0.7142857142857142
 40
0.857142857142857
 40
0.857142857142857
 40
0.857142857142857
 40
0.857142857142857
 40
1.0
 40
1.0
 40
1.0
 40
1.0
 10
-0.8304300000000001
 20
3.5655900000000003
 30
0.0
 10
-0.73899
 20
3.5401900000000004
 30
0.0
 10
-0.6627900000000001
 20
3.4487500000000004
 30
0.0
 10
-0.63231
 20
3.3674700000000004
 30
0.0
 10
-0.63231
 20
3.3674700000000004
 30
0.0
 10
-0.72375
 20
2.8797900000000003
 30
0.0
 10
-1.4476500000000001
 20
2.5216500000000002
 30
0.0
 10
-1.8616700000000002
 20
2.8213700000000004
 30
0.0
 10
-1.8616700000000002
 20
2.8213700000000004
 30
0.0
 10
-1.8616700000000002
 20
2.8213700000000004
 30
0.0
 10
-1.9124700000000001
 20
2.9839300000000004
 30
0.0
 10
-1.9124700000000001
 20
2.9839300000000004
 30
0.0
 10
-1.9124700000000001
 20
2.9839300000000004
 30
0.0
 10
-1.9124700000000001
 20
2.9839300000000004
 30
0.0
 10
-1.8108700000000002
 20
3.2023700000000002
 30
0.0
 10
-1.8108700000000002
 20
3.2023700000000002
 30
0.0
 10
-1.8108700000000002
 20
3.2023700000000002
 30
0.0
 10
-1.7295900000000002
 20
3.3369900000000001
 30
0.0
 10
-1.6102100000000001
 20
3.4792300000000003
 30
0.0
 10
-1.4425700000000001
 20
3.4843100000000002
 30
0.0
 10
-1.4425700000000001
 20
3.4843100000000002
 30
0.0
 10
-1.5721100000000001
 20
3.3293700000000004
 30
0.0
 10
-1.8489700000000002
 20
3.1363300000000001
 30
0.0
 10
-1.6940300000000001
 20
2.8823300000000001
 30
0.0
 10
-1.6940300000000001
 20
2.8823300000000001
 30
0.0
 10
-1.3028700000000002
 20
2.7172300000000003
 30
0.0
 10
-0.4799100000000001
 20
3.09823
 30
0.0
 10
-0.8304300000000001
 20
3.5655900000000003
 30
0.0
  0
SPLINE
  5
2E
100
AcDbEntity
  8
Ebene 1
100
AcDbSpline
210
0.0
220
0.0
230
1.0
 70
     1
 71
     3
 72
    56
 73
    52
 74
     0
 42
0.0000000001
 43
0.0000000001
 40
0.0
 40
0.0
 40
0.0
 40
0.0
 40
0.0769230769230769
 40
0.0769230769230769
 40
0.0769230769230769
 40
0.0769230769230769
 40
0.1538461538461539
 40
0.1538461538461539
 40
0.1538461538461539
 40
0.1538461538461539
 40
0.2307692307692308
 40
0.2307692307692308
 40
0.2307692307692308
 40
0.2307692307692308
 40
0.3076923076923077
 40
0.3076923076923077
 40
0.3076923076923077
 40
0.3076923076923077
 40
0.3846153846153846
 40
0.3846153846153846
 40
0.3846153846153846
 40
0.3846153846153846
 40
0.4615384615384616
 40
0.4615384615384616
 40
0.4615384615384616
 40
0.4615384615384616
 40
0.5384615384615386
 40
0.5384615384615386
 40
0.5384615384615386
 40
0.5384615384615386
 40
0.6153846153846154
 40
0.6153846153846154
 40
0.6153846153846154
 40
0.6153846153846154
 40
0.6923076923076923
 40
0.6923076923076923
 40
0.6923076923076923
 40
0.6923076923076923
 40
0.7692307692307692
 40
0.7692307692307692
 40
0.7692307692307692
 40
0.7692307692307692
 40
0.846153846153846
 40
0.846153846153846
 40
0.846153846153846
 40
0.846153846153846
 40
0.9230769230769229
 40
0.9230769230769229
 40
0.9230769230769229
 40
0.9230769230769229
 40
1.0
 40
1.0
 40
1.0
 40
1.0
 10
-2.9513300000000005
 20
3.2303100000000002
 30
0.0
 10
-2.9513300000000005
 20
3.2303100000000002
 30
0.0
 10
-2.3442700000000003
 20
3.2607900000000001
 30
0.0
 10
-2.3442700000000003
 20
3.2607900000000001
 30
0.0
 10
-2.3442700000000003
 20
3.2607900000000001
 30
0.0
 10
-2.3442700000000003
 20
3.2607900000000001
 30
0.0
 10
-2.10297
 20
3.2201500000000003
 30
0.0
 10
-2.10297
 20
3.2201500000000003
 30
0.0
 10
-2.10297
 20
3.2201500000000003
 30
0.0
 10
-2.4128500000000002
 20
3.1515700000000004
 30
0.0
 10
-2.51953
 20
2.9382100000000002
 30
0.0
 10
-2.7252700000000001
 20
2.7604100000000003
 30
0.0
 10
-2.7252700000000001
 20
2.7604100000000003
 30
0.0
 10
-2.7506700000000004
 20
2.8366100000000003
 30
0.0
 10
-2.5398500000000004
 20
2.9839300000000004
 30
0.0
 10
-2.5576300000000001
 20
3.1185500000000004
 30
0.0
 10
-2.5576300000000001
 20
3.1185500000000004
 30
0.0
 10
-2.9970500000000002
 20
3.0067900000000001
 30
0.0
 10
-3.3145500000000001
 20
2.5622900000000004
 30
0.0
 10
-3.7692100000000002
 20
2.4784700000000002
 30
0.0
 10
-3.7692100000000002
 20
2.4784700000000002
 30
0.0
 10
-3.8098500000000004
 20
2.2244700000000002
 30
0.0
 10
-3.4415500000000003
 20
2.3133700000000004
 30
0.0
 10
-3.3018500000000004
 20
2.3590900000000001
 30
0.0
 10
-3.3018500000000004
 20
2.3590900000000001
 30
0.0
 10
-3.3018500000000004
 20
2.3590900000000001
 30
0.0
 10
-3.2129500000000002
 20
2.3717900000000003
 30
0.0
 10
-3.2129500000000002
 20
2.3717900000000003
 30
0.0
 10
-3.2129500000000002
 20
2.3717900000000003
 30
0.0
 10
-3.4364700000000004
 20
2.1939900000000003
 30
0.0
 10
-3.9901900000000001
 20
2.1533500000000001
 30
0.0
 10
-3.9139900000000005
 20
2.5876900000000003
 30
0.0
 10
-3.9139900000000005
 20
2.5876900000000003
 30
0.0
 10
-3.9139900000000005
 20
2.5876900000000003
 30
0.0
 10
-3.9012900000000004
 20
2.6613500000000001
 30
0.0
 10
-3.9012900000000004
 20
2.6613500000000001
 30
0.0
 10
-3.9012900000000004
 20
2.6613500000000001
 30
0.0
 10
-4.0714700000000006
 20
2.5826100000000003
 30
0.0
 10
-4.1298900000000005
 20
2.3819500000000002
 30
0.0
 10
-4.1425900000000002
 20
2.22193
 30
0.0
 10
-4.1425900000000002
 20
2.22193
 30
0.0
 10
-4.1883100000000004
 20
2.1711300000000002
 30
0.0
 10
-4.1248100000000001
 20
2.0669900000000001
 30
0.0
 10
-4.1756100000000007
 20
2.0136500000000002
 30
0.0
 10
-4.1756100000000007
 20
2.0136500000000002
 30
0.0
 10
-4.2899100000000008
 20
2.3006700000000002
 30
0.0
 10
-4.1400500000000005
 20
2.6283300000000001
 30
0.0
 10
-3.8555700000000002
 20
2.7604100000000003
 30
0.0
 10
-3.8555700000000002
 20
2.7604100000000003
 30
0.0
 10
-3.7107900000000003
 20
3.1312500000000001
 30
0.0
 10
-3.2916900000000004
 20
3.2150700000000003
 30
0.0
 10
-2.9513300000000005
 20
3.2303100000000002
 30
0.0
  0
SPLINE
  5
2F
100
AcDbEntity
  8
Ebene 1
 62
     7
100
AcDbSpline
210
0.0
220
0.0
230
1.0
 70
     1
 71
     3
 72
   188
 73
   184
 74
     0
 42
0.0000000001
 43
0.0000000001
 40
0.0
 40
0.0
 40
0.0
 40
0.0
 40
0.0217391304347826
 40
0.0217391304347826
 40
0.0217391304347826
 40
0.0217391304347826
 40
0.0434782608695652
 40
0.0434782608695652
 40
0.0434782608695652
 40
0.0434782608695652
 40
0.0652173913043478
 40
0.0652173913043478
 40
0.0652173913043478
 40
0.0652173913043478
 40
0.0869565217391304
 40
0.0869565217391304
 40
0.0869565217391304
 40
0.0869565217391304
 40
0.108695652173913
 40
0.108695652173913
 40
0.108695652173913
 40
0.108695652173913
 40
0.1304347826086957
 40
0.1304347826086957
 40
0.1304347826086957
 40
0.1304347826086957
 40
0.1521739130434783
 40
0.1521739130434783
 40
0.1521739130434783
 40
0.1521739130434783
 40
0.1739130434782609
 40
0.1739130434782609
 40
0.1739130434782609
 40
0.1739130434782609
 40
0.1956521739130435
 40
0.1956521739130435
 40
0.1956521739130435
 40
0.1956521739130435
 40
0.2173913043478261
 40
0.2173913043478261
 40
0.2173913043478261
 40
0.2173913043478261
 40
0.2391304347826087
 40
0.2391304347826087
 40
0.2391304347826087
 40
0.2391304347826087
 40
0.2608695652173912
 40
0.2608695652173912
 40
0.2608695652173912
 40
0.2608695652173912
 40
0.2826086956521738
 40
0.2826086956521738
 40
0.2826086956521738
 40
0.2826086956521738
 40
0.3043478260869564
 40
0.3043478260869564
 40
0.3043478260869564
 40
0.3043478260869564
 40
0.326086956521739
 40
0.326086956521739
 40
0.326086956521739
 40
0.326086956521739
 40
0.3478260869565216
 40
0.3478260869565216
 40
0.3478260869565216
 40
0.3478260869565216
 40
0.3695652173913042
 40
0.3695652173913042
 40
0.3695652173913042
 40
0.3695652173913042
 40
0.3913043478260868
 40
0.3913043478260868
 40
0.3913043478260868
 40
0.3913043478260868
 40
0.4130434782608694
 40
0.4130434782608694
 40
0.4130434782608694
 40
0.4130434782608694
 40
0.434782608695652
 40
0.434782608695652
 40
0.434782608695652
 40
0.434782608695652
 40
0.4565217391304346
 40
0.4565217391304346
 40
0.4565217391304346
 40
0.4565217391304346
 40
0.4782608695652172
 40
0.4782608695652172
 40
0.4782608695652172
 40
0.4782608695652172
 40
0.4999999999999998
 40
0.4999999999999998
 40
0.4999999999999998
 40
0.4999999999999998
 40
0.5217391304347824
 40
0.5217391304347824
 40
0.5217391304347824
 40
0.5217391304347824
 40
0.543478260869565
 40
0.543478260869565
 40
0.543478260869565
 40
0.543478260869565
 40
0.5652173913043476
 40
0.5652173913043476
 40
0.5652173913043476
 40
0.5652173913043476
 40
0.5869565217391302
 40
0.5869565217391302
 40
0.5869565217391302
 40
0.5869565217391302
 40
0.6086956521739128
 40
0.6086956521739128
 40
0.6086956521739128
 40
0.6086956521739128
 40
0.6304347826086953
 40
0.6304347826086953
 40
0.6304347826086953
 40
0.6304347826086953
 40
0.6521739130434779
 40
0.6521739130434779
 40
0.6521739130434779
 40
0.6521739130434779
 40
0.6739130434782605
 40
0.6739130434782605
 40
0.6739130434782605
 40
0.6739130434782605
 40
0.6956521739130431
 40
0.6956521739130431
 40
0.6956521739130431
 40
0.6956521739130431
 40
0.7173913043478257
 40
0.7173913043478257
 40
0.7173913043478257
 40
0.7173913043478257
 40
0.7391304347826083
 40
0.7391304347826083
 40
0.7391304347826083
 40
0.7391304347826083
 40
0.7608695652173909
 40
0.7608695652173909
 40
0.7608695652173909
 40
0.7608695652173909
 40
0.7826086956521735
 40
0.7826086956521735
 40
0.7826086956521735
 40
0.7826086956521735
 40
0.8043478260869561
 40
0.8043478260869561
 40
0.8043478260869561
 40
0.8043478260869561
 40
0.8260869565217387
 40
0.8260869565217387
 40
0.8260869565217387
 40
0.8260869565217387
 40
0.8478260869565213
 40
0.8478260869565213
 40
0.8478260869565213
 40
0.8478260869565213
 40
0.8695652173913039
 40
0.8695652173913039
 40
0.8695652173913039
 40
0.8695652173913039
 40
0.8913043478260865
 40
0.8913043478260865
 40
0.8913043478260865
 40
0.8913043478260865
 40
0.9130434782608691
 40
0.9130434782608691
 40
0.9130434782608691
 40
0.9130434782608691
 40
0.9347826086956517
 40
0.9347826086956517
 40
0.9347826086956517
 40
0.9347826086956517
 40
0.9565217391304343
 40
0.9565217391304343
 40
0.9565217391304343
 40
0.9565217391304343
 40
0.9782608695652169
 40
0.9782608695652169
 40
0.9782608695652169
 40
0.9782608695652169
 40
1.0
 40
1.0
 40
1.0
 40
1.0
 10
1.5774800000000002
 20
-3.1171400000000005
 30
0.0
 10
1.7933800000000002
 20
-2.9063200000000005
 30
0.0
 10
2.0981800000000002
 20
-2.7793200000000002
 30
0.0
 10
2.3420200000000002
 20
-2.6294600000000004
 30
0.0
 10
2.3420200000000002
 20
-2.6294600000000004
 30
0.0
 10
2.0829400000000002
 20
-2.6218400000000002
 30
0.0
 10
1.8238600000000003
 20
-2.8377400000000002
 30
0.0
 10
1.5927200000000001
 20
-2.9749000000000003
 30
0.0
 10
1.5927200000000001
 20
-2.9749000000000003
 30
0.0
 10
1.48604
 20
-2.60914
 30
0.0
 10
2.0067400000000002
 20
-2.7158200000000003
 30
0.0
 10
2.1743800000000002
 20
-2.5075400000000001
 30
0.0
 10
2.1743800000000002
 20
-2.5075400000000001
 30
0.0
 10
1.9889600000000001
 20
-2.5761200000000004
 30
0.0
 10
1.7298800000000001
 20
-2.5913600000000003
 30
0.0
 10
1.5495400000000001
 20
-2.7463000000000002
 30
0.0
 10
1.5495400000000001
 20
-2.7463000000000002
 30
0.0
 10
1.7298800000000001
 20
-2.1697200000000003
 30
0.0
 10
1.5495400000000001
 20
-1.42042
 30
0.0
 10
1.9153000000000002
 20
-0.9378200000000001
 30
0.0
 10
1.9153000000000002
 20
-0.9378200000000001
 30
0.0
 10
1.9000600000000001
 20
-1.1918200000000001
 30
0.0
 10
1.7933800000000002
 20
-1.4559800000000001
 30
0.0
 10
1.8518000000000001
 20
-1.7074400000000001
 30
0.0
 10
1.8518000000000001
 20
-1.7074400000000001
 30
0.0
 10
1.8670400000000003
 20
-1.28834
 30
0.0
 10
2.1108800000000003
 20
-0.90988
 30
0.0
 10
2.3928200000000004
 20
-0.63556
 30
0.0
 10
2.3928200000000004
 20
-0.63556
 30
0.0
 10
2.4385400000000002
 20
-0.59238
 30
0.0
 10
2.5782400000000001
 20
-0.45522
 30
0.0
 10
2.4944200000000003
 20
-0.4806200000000001
 30
0.0
 10
2.4944200000000003
 20
-0.4806200000000001
 30
0.0
 10
2.4944200000000003
 20
-0.4806200000000001
 30
0.0
 10
1.9762600000000001
 20
-0.8082800000000001
 30
0.0
 10
1.9762600000000001
 20
-0.8082800000000001
 30
0.0
 10
1.9762600000000001
 20
-0.8082800000000001
 30
0.0
 10
1.8238600000000003
 20
-0.4171200000000001
 30
0.0
 10
2.2810600000000001
 20
-0.41966
 30
0.0
 10
2.5401400000000001
 20
-0.2063
 30
0.0
 10
2.5401400000000001
 20
-0.2063
 30
0.0
 10
2.5401400000000001
 20
-0.2063
 30
0.0
 10
1.9889600000000001
 20
-0.3968
 30
0.0
 10
1.9889600000000001
 20
-0.3968
 30
0.0
 10
1.9889600000000001
 20
-0.3968
 30
0.0
 10
1.8670400000000003
 20
0.10611
 30
0.0
 10
2.2810600000000001
 20
0.20009
 30
0.0
 10
2.6468200000000004
 20
0.37281
 30
0.0
 10
2.6468200000000004
 20
0.37281
 30
0.0
 10
2.3725000000000001
 20
0.36519
 30
0.0
 10
2.05246
 20
0.28645
 30
0.0
 10
1.8518000000000001
 20
0.06039
 30
0.0
 10
1.8518000000000001
 20
0.06039
 30
0.0
 10
1.7146400000000002
 20
0.35503
 30
0.0
 10
1.7298800000000001
 20
0.6953900000000001
 30
0.0
 10
1.6232000000000002
 20
1.0001900000000001
 30
0.0
 10
1.6232000000000002
 20
1.0001900000000001
 30
0.0
 10
1.4555600000000002
 20
1.44215
 30
0.0
 10
1.8518000000000001
 20
1.7901300000000002
 30
0.0
 10
1.7298800000000001
 20
1.1221100000000002
 30
0.0
 10
1.7298800000000001
 20
1.1221100000000002
 30
0.0
 10
1.7298800000000001
 20
1.1221100000000002
 30
0.0
 10
1.7933800000000002
 20
0.89351
 30
0.0
 10
1.7933800000000002
 20
0.89351
 30
0.0
 10
1.7933800000000002
 20
0.89351
 30
0.0
 10
1.7933800000000002
 20
0.7919100000000001
 30
0.0
 10
1.8238600000000003
 20
0.6979300000000001
 30
0.0
 10
1.8518000000000001
 20
0.6039500000000001
 30
0.0
 10
1.8518000000000001
 20
0.6039500000000001
 30
0.0
 10
1.9305400000000001
 20
0.7614300000000001
 30
0.0
 10
1.6232000000000002
 20
1.7240900000000001
 30
0.0
 10
2.2963
 20
1.8053700000000001
 30
0.0
 10
2.2963
 20
1.8053700000000001
 30
0.0
 10
1.9610200000000002
 20
1.2999100000000001
 30
0.0
 10
2.6011000000000002
 20
1.0027300000000001
 30
0.0
 10
2.3725000000000001
 20
0.6039500000000001
 30
0.0
 10
2.3725000000000001
 20
0.6039500000000001
 30
0.0
 10
2.6925400000000002
 20
0.8681100000000001
 30
0.0
 10
2.63158
 20
1.3253100000000002
 30
0.0
 10
2.8297000000000003
 20
1.6377300000000001
 30
0.0
 10
2.8297000000000003
 20
1.6377300000000001
 30
0.0
 10
3.1192600000000001
 20
1.6885300000000001
 30
0.0
 10
3.3783400000000001
 20
1.78251
 30
0.0
 10
3.6247200000000004
 20
1.9628500000000002
 30
0.0
 10
3.6247200000000004
 20
1.9628500000000002
 30
0.0
 10
3.6247200000000004
 20
1.9628500000000002
 30
0.0
 10
3.8380800000000002
 20
2.1127100000000003
 30
0.0
 10
3.8380800000000002
 20
2.1127100000000003
 30
0.0
 10
3.8380800000000002
 20
2.1127100000000003
 30
0.0
 10
3.8838000000000004
 20
2.16351
 30
0.0
 10
3.9447600000000005
 20
2.1838300000000004
 30
0.0
 10
4.0057200000000002
 20
2.21177
 30
0.0
 10
4.0057200000000002
 20
2.21177
 30
0.0
 10
3.9600000000000004
 20
2.42259
 30
0.0
 10
3.3935800000000005
 20
1.7317100000000001
 30
0.0
 10
3.5155000000000003
 20
2.1000100000000002
 30
0.0
 10
3.5155000000000003
 20
2.1000100000000002
 30
0.0
 10
3.4316800000000001
 20
2.5114900000000002
 30
0.0
 10
3.4266000000000001
 20
3.1896700000000004
 30
0.0
 10
3.9828600000000005
 20
2.9991700000000003
 30
0.0
 10
3.9828600000000005
 20
2.9991700000000003
 30
0.0
 10
4.0184200000000008
 20
2.9864700000000002
 30
0.0
 10
4.2038400000000005
 20
2.8543900000000004
 30
0.0
 10
4.1276400000000004
 20
3.0144100000000003
 30
0.0
 10
4.1276400000000004
 20
3.0144100000000003
 30
0.0
 10
3.8990400000000003
 20
3.0931500000000001
 30
0.0
 10
4.2190799999999999
 20
3.2912700000000004
 30
0.0
 10
4.4451400000000003
 20
3.1337900000000003
 30
0.0
 10
4.4451400000000003
 20
3.1337900000000003
 30
0.0
 10
4.7804200000000003
 20
2.88741
 30
0.0
 10
4.6762800000000002
 20
2.50387
 30
0.0
 10
4.6153200000000005
 20
2.1660500000000003
 30
0.0
 10
4.6153200000000005
 20
2.1660500000000003
 30
0.0
 10
4.0514400000000004
 20
1.36341
 30
0.0
 10
2.9059000000000004
 20
0.7614300000000001
 30
0.0
 10
3.0125800000000003
 20
-0.36886
 30
0.0
 10
3.0125800000000003
 20
-0.36886
 30
0.0
 10
3.1497400000000004
 20
0.04007
 30
0.0
 10
3.1954600000000002
 20
0.5226700000000001
 30
0.0
 10
3.5002600000000004
 20
0.8757300000000001
 30
0.0
 10
3.5002600000000004
 20
0.8757300000000001
 30
0.0
 10
3.5459800000000001
 20
0.9011300000000001
 30
0.0
 10
3.6094800000000005
 20
0.9671700000000001
 30
0.0
 10
3.6374200000000001
 20
0.95447
 30
0.0
 10
3.6374200000000001
 20
0.95447
 30
0.0
 10
3.2411800000000004
 20
0.07563
 30
0.0
 10
3.1497400000000004
 20
-0.8514600000000001
 30
0.0
 10
3.4240600000000003
 20
-1.7430000000000001
 30
0.0
 10
3.4240600000000003
 20
-1.7430000000000001
 30
0.0
 10
3.6094800000000005
 20
-1.4864600000000001
 30
0.0
 10
3.4723200000000003
 20
-1.1969000000000001
 30
0.0
 10
3.4240600000000003
 20
-0.9200400000000001
 30
0.0
 10
3.4240600000000003
 20
-0.9200400000000001
 30
0.0
 10
3.3783400000000001
 20
-0.71938
 30
0.0
 10
3.4723200000000003
 20
-0.092
 30
0.0
 10
3.6247200000000004
 20
-0.5568200000000001
 30
0.0
 10
3.6247200000000004
 20
-0.5568200000000001
 30
0.0
 10
3.6704400000000001
 20
-0.65334
 30
0.0
 10
3.6526600000000005
 20
-0.7651000000000001
 30
0.0
 10
3.6526600000000005
 20
-0.8743200000000001
 30
0.0
 10
3.6526600000000005
 20
-0.8743200000000001
 30
0.0
 10
3.5993200000000001
 20
-1.16642
 30
0.0
 10
3.6526600000000005
 20
-1.3874000000000002
 30
0.0
 10
3.5790000000000002
 20
-1.6947400000000001
 30
0.0
 10
3.5790000000000002
 20
-1.6947400000000001
 30
0.0
 10
3.5510600000000001
 20
-1.8166600000000002
 30
0.0
 10
3.4215200000000001
 20
-2.0503400000000003
 30
0.0
 10
3.3834200000000001
 20
-2.1595600000000004
 30
0.0
 10
3.3834200000000001
 20
-2.1595600000000004
 30
0.0
 10
2.6950800000000004
 20
-2.8352000000000004
 30
0.0
 10
2.2658200000000002
 20
-3.5921200000000004
 30
0.0
 10
1.9610200000000002
 20
-4.4709600000000007
 30
0.0
 10
1.9610200000000002
 20
-4.4709600000000007
 30
0.0
 10
1.9610200000000002
 20
-4.4709600000000007
 30
0.0
 10
2.1134200000000001
 20
-4.2804600000000006
 30
0.0
 10
2.1134200000000001
 20
-4.2804600000000006
 30
0.0
 10
2.1134200000000001
 20
-4.2804600000000006
 30
0.0
 10
2.2505800000000002
 20
-3.9985200000000005
 30
0.0
 10
2.3572600000000001
 20
-3.7038800000000003
 30
0.0
 10
2.5553800000000004
 20
-3.4575000000000005
 30
0.0
 10
2.5553800000000004
 20
-3.4575000000000005
 30
0.0
 10
2.4741000000000004
 20
-4.3109400000000004
 30
0.0
 10
2.0270600000000001
 20
-4.8341800000000008
 30
0.0
 10
1.3031600000000001
 20
-5.1567600000000002
 30
0.0
 10
1.3031600000000001
 20
-5.1567600000000002
 30
0.0
 10
1.4555600000000002
 20
-4.8773600000000004
 30
0.0
 10
1.4555600000000002
 20
-4.4735000000000005
 30
0.0
 10
1.6232000000000002
 20
-4.1661600000000005
 30
0.0
 10
1.6232000000000002
 20
-4.1661600000000005
 30
0.0
 10
1.5647800000000001
 20
-4.1179000000000006
 30
0.0
 10
1.15076
 20
-5.0500800000000003
 30
0.0
 10
1.2904600000000002
 20
-4.5090600000000007
 30
0.0
 10
1.2904600000000002
 20
-4.5090600000000007
 30
0.0
 10
1.4327000000000001
 20
-3.8461200000000004
 30
0.0
 10
1.3514200000000001
 20
-3.5464000000000002
 30
0.0
 10
2.2505800000000002
 20
-2.8225000000000002
 30
0.0
 10
2.2505800000000002
 20
-2.8225000000000002
 30
0.0
 10
2.17184
 20
-2.8225000000000002
 30
0.0
 10
2.0956400000000004
 20
-2.8428200000000001
 30
0.0
 10
1.9965800000000002
 20
-2.9063200000000005
 30
0.0
 10
1.9965800000000002
 20
-2.9063200000000005
 30
0.0
 10
1.8543400000000001
 20
-3.0003000000000002
 30
0.0
 10
1.7324200000000001
 20
-3.0460200000000004
 30
0.0
 10
1.5774800000000002
 20
-3.1171400000000005
 30
0.0
  0
SPLINE
  5
30
100
AcDbEntity
  8
Ebene 1
 62
     7
100
AcDbSpline
210
0.0
220
0.0
230
1.0
 70
     1
 71
     3
 72
    36
 73
    32
 74
     0
 42
0.0000000001
 43
0.0000000001
 40
0.0
 40
0.0
 40
0.0
 40
0.0
 40
0.125
 40
0.125
 40
0.125
 40
0.125
 40
0.25
 40
0.25
 40
0.25
 40
0.25
 40
0.375
 40
0.375
 40
0.375
 40
0.375
 40
0.5
 40
0.5
 40
0.5
 40
0.5
 40
0.625
 40
0.625
 40
0.625
 40
0.625
 40
0.75
 40
0.75
 40
0.75
 40
0.75
 40
0.875
 40
0.875
 40
0.875
 40
0.875
 40
1.0
 40
1.0
 40
1.0
 40
1.0
 10
0.26684
 20
2.2371700000000003
 30
0.0
 10
0.57164
 20
2.1533500000000001
 30
0.0
 10
0.61736
 20
1.69869
 30
0.0
 10
0.5411600000000001
 20
1.4319900000000001
 30
0.0
 10
0.5411600000000001
 20
1.4319900000000001
 30
0.0
 10
0.43448
 20
1.6859900000000001
 30
0.0
 10
0.1754
 20
1.8612500000000001
 30
0.0
 10
0.06618
 20
2.1127100000000003
 30
0.0
 10
0.06618
 20
2.1127100000000003
 30
0.0
 10
0.06618
 20
2.1127100000000003
 30
0.0
 10
0.20588
 20
1.9907900000000001
 30
0.0
 10
0.20588
 20
1.9907900000000001
 30
0.0
 10
0.20588
 20
1.9907900000000001
 30
0.0
 10
0.20588
 20
1.9907900000000001
 30
0.0
 10
0.3887600000000001
 20
1.7596500000000002
 30
0.0
 10
0.3887600000000001
 20
1.7596500000000002
 30
0.0
 10
0.3887600000000001
 20
1.7596500000000002
 30
0.0
 10
0.404
 20
1.7037700000000002
 30
0.0
 10
0.46496
 20
1.65551
 30
0.0
 10
0.4954400000000001
 20
1.6097900000000001
 30
0.0
 10
0.4954400000000001
 20
1.6097900000000001
 30
0.0
 10
0.51068
 20
1.6174100000000002
 30
0.0
 10
0.5259200000000001
 20
1.6377300000000001
 30
0.0
 10
0.5259200000000001
 20
1.6580500000000002
 30
0.0
 10
0.5259200000000001
 20
1.6580500000000002
 30
0.0
 10
0.4192400000000001
 20
1.8409300000000002
 30
0.0
 10
0.29732
 20
2.0212700000000003
 30
0.0
 10
0.1754
 20
2.1914500000000001
 30
0.0
 10
0.1754
 20
2.1914500000000001
 30
0.0
 10
0.1754
 20
2.1914500000000001
 30
0.0
 10
0.26684
 20
2.2371700000000003
 30
0.0
 10
0.26684
 20
2.2371700000000003
 30
0.0
  0
SPLINE
  5
31
100
AcDbEntity
  8
Ebene 1
 62
     7
100
AcDbSpline
210
0.0
220
0.0
230
1.0
 70
     1
 71
     3
 72
    28
 73
    24
 74
     0
 42
0.0000000001
 43
0.0000000001
 40
0.0
 40
0.0
 40
0.0
 40
0.0
 40
0.1666666666666667
 40
0.1666666666666667
 40
0.1666666666666667
 40
0.1666666666666667
 40
0.3333333333333333
 40
0.3333333333333333
 40
0.3333333333333333
 40
0.3333333333333333
 40
0.5
 40
0.5
 40
0.5
 40
0.5
 40
0.6666666666666666
 40
0.6666666666666666
 40
0.6666666666666666
 40
0.6666666666666666
 40
0.8333333333333333
 40
0.8333333333333333
 40
0.8333333333333333
 40
0.8333333333333333
 40
1.0
 40
1.0
 40
1.0
 40
1.0
 10
-0.12685
 20
1.8256900000000003
 30
0.0
 10
-0.11161
 20
1.8053700000000001
 30
0.0
 10
-0.06843
 20
1.7012300000000002
 30
0.0
 10
-0.06843
 20
1.7952100000000002
 30
0.0
 10
-0.06843
 20
1.7952100000000002
 30
0.0
 10
-0.09637
 20
1.9171300000000002
 30
0.0
 10
-0.11161
 20
2.0415900000000002
 30
0.0
 10
-0.19035
 20
2.1508100000000003
 30
0.0
 10
-0.19035
 20
2.1508100000000003
 30
0.0
 10
-0.19035
 20
2.1508100000000003
 30
0.0
 10
-0.20559
 20
2.1889100000000004
 30
0.0
 10
-0.20559
 20
2.1889100000000004
 30
0.0
 10
-0.20559
 20
2.1889100000000004
 30
0.0
 10
0.12968
 20
2.2346300000000001
 30
0.0
 10
0.08396
 20
1.7164700000000002
 30
0.0
 10
0.06618
 20
1.4929500000000002
 30
0.0
 10
0.06618
 20
1.4929500000000002
 30
0.0
 10
0.06618
 20
1.4929500000000002
 30
0.0
 10
-0.02017
 20
1.6021700000000001
 30
0.0
 10
-0.02017
 20
1.6021700000000001
 30
0.0
 10
-0.02017
 20
1.6021700000000001
 30
0.0
 10
-0.06843
 20
1.6707500000000002
 30
0.0
 10
-0.11161
 20
1.73933
 30
0.0
 10
-0.12685
 20
1.8256900000000003
 30
0.0
  0
SPLINE
  5
32
100
AcDbEntity
  8
Ebene 1
 62
     7
100
AcDbSpline
210
0.0
220
0.0
230
1.0
 70
     1
 71
     3
 72
    16
 73
    12
 74
     0
 42
0.0000000001
 43
0.0000000001
 40
0.0
 40
0.0
 40
0.0
 40
0.0
 40
0.3333333333333333
 40
0.3333333333333333
 40
0.3333333333333333
 40
0.3333333333333333
 40
0.6666666666666666
 40
0.6666666666666666
 40
0.6666666666666666
 40
0.6666666666666666
 40
1.0
 40
1.0
 40
1.0
 40
1.0
 10
-2.2502900000000001
 20
2.1152500000000001
 30
0.0
 10
-2.1232900000000003
 20
2.0746100000000003
 30
0.0
 10
-2.0801100000000003
 20
1.9399900000000001
 30
0.0
 10
-2.0394700000000001
 20
1.8307700000000002
 30
0.0
 10
-2.0394700000000001
 20
1.8307700000000002
 30
0.0
 10
-2.0394700000000001
 20
1.8307700000000002
 30
0.0
 10
-2.0623300000000002
 20
1.8307700000000002
 30
0.0
 10
-2.0623300000000002
 20
1.8307700000000002
 30
0.0
 10
-2.0623300000000002
 20
1.8307700000000002
 30
0.0
 10
-2.0623300000000002
 20
1.8307700000000002
 30
0.0
 10
-2.2502900000000001
 20
2.1152500000000001
 30
0.0
 10
-2.2502900000000001
 20
2.1152500000000001
 30
0.0
  0
SPLINE
  5
33
100
AcDbEntity
  8
Ebene 1
 62
     7
100
AcDbSpline
210
0.0
220
0.0
230
1.0
 70
     1
 71
     3
 72
    16
 73
    12
 74
     0
 42
0.0000000001
 43
0.0000000001
 40
0.0
 40
0.0
 40
0.0
 40
0.0
 40
0.3333333333333333
 40
0.3333333333333333
 40
0.3333333333333333
 40
0.3333333333333333
 40
0.6666666666666666
 40
0.6666666666666666
 40
0.6666666666666666
 40
0.6666666666666666
 40
1.0
 40
1.0
 40
1.0
 40
1.0
 10
-2.7684500000000001
 20
2.0238100000000001
 30
0.0
 10
-2.5550900000000003
 20
1.9628500000000002
 30
0.0
 10
-2.4153900000000004
 20
1.6682100000000002
 30
0.0
 10
-2.4357100000000003
 20
1.4624700000000002
 30
0.0
 10
-2.4357100000000003
 20
1.4624700000000002
 30
0.0
 10
-2.5347700000000004
 20
1.6453500000000001
 30
0.0
 10
-2.6693900000000004
 20
1.8485500000000001
 30
0.0
 10
-2.8294100000000002
 20
1.9933300000000003
 30
0.0
 10
-2.8294100000000002
 20
1.9933300000000003
 30
0.0
 10
-2.8294100000000002
 20
1.9933300000000003
 30
0.0
 10
-2.7684500000000001
 20
2.0238100000000001
 30
0.0
 10
-2.7684500000000001
 20
2.0238100000000001
 30
0.0
  0
SPLINE
  5
34
100
AcDbEntity
  8
Ebene 1
 62
     7
100
AcDbSpline
210
0.0
220
0.0
230
1.0
 70
     1
 71
     3
 72
    24
 73
    20
 74
     0
 42
0.0000000001
 43
0.0000000001
 40
0.0
 40
0.0
 40
0.0
 40
0.0
 40
0.2
 40
0.2
 40
0.2
 40
0.2
 40
0.4
 40
0.4
 40
0.4
 40
0.4
 40
0.6000000000000001
 40
0.6000000000000001
 40
0.6000000000000001
 40
0.6000000000000001
 40
0.8
 40
0.8
 40
0.8
 40
0.8
 40
1.0
 40
1.0
 40
1.0
 40
1.0
 10
-4.3102300000000007
 20
1.7317100000000001
 30
0.0
 10
-4.3102300000000007
 20
1.7317100000000001
 30
0.0
 10
-4.1908500000000002
 20
1.69869
 30
0.0
 10
-4.1908500000000002
 20
1.69869
 30
0.0
 10
-4.1908500000000002
 20
1.69869
 30
0.0
 10
-4.1121100000000004
 20
1.5488300000000002
 30
0.0
 10
-4.2543500000000005
 20
1.4294500000000001
 30
0.0
 10
-4.3508700000000005
 20
1.3405500000000001
 30
0.0
 10
-4.3508700000000005
 20
1.3405500000000001
 30
0.0
 10
-4.4169100000000006
 20
1.3811900000000001
 30
0.0
 10
-4.25943
 20
1.4370700000000001
 30
0.0
 10
-4.3356300000000001
 20
1.4700900000000001
 30
0.0
 10
-4.3356300000000001
 20
1.4700900000000001
 30
0.0
 10
-4.3356300000000001
 20
1.4700900000000001
 30
0.0
 10
-4.6709100000000001
 20
0.9900300000000001
 30
0.0
 10
-4.6709100000000001
 20
0.9900300000000001
 30
0.0
 10
-4.6709100000000001
 20
0.9900300000000001
 30
0.0
 10
-4.7140900000000006
 20
1.3126100000000001
 30
0.0
 10
-4.5693100000000006
 20
1.57169
 30
0.0
 10
-4.3102300000000007
 20
1.7317100000000001
 30
0.0
  0
SPLINE
  5
35
100
AcDbEntity
  8
Ebene 1
 62
     7
100
AcDbSpline
210
0.0
220
0.0
230
1.0
 70
     1
 71
     3
 72
    16
 73
    12
 74
     0
 42
0.0000000001
 43
0.0000000001
 40
0.0
 40
0.0
 40
0.0
 40
0.0
 40
0.3333333333333333
 40
0.3333333333333333
 40
0.3333333333333333
 40
0.3333333333333333
 40
0.6666666666666666
 40
0.6666666666666666
 40
0.6666666666666666
 40
0.6666666666666666
 40
1.0
 40
1.0
 40
1.0
 40
1.0
 10
-5.1941500000000005
 20
1.6428100000000001
 30
0.0
 10
-5.1839900000000005
 20
1.6428100000000001
 30
0.0
 10
-5.16113
 20
1.6453500000000001
 30
0.0
 10
-5.1636700000000006
 20
1.6250300000000002
 30
0.0
 10
-5.1636700000000006
 20
1.6250300000000002
 30
0.0
 10
-5.1814500000000008
 20
1.4167500000000002
 30
0.0
 10
-5.3084500000000006
 20
1.2186300000000001
 30
0.0
 10
-5.4176700000000002
 20
1.0509900000000001
 30
0.0
 10
-5.4176700000000002
 20
1.0509900000000001
 30
0.0
 10
-5.3998900000000001
 20
1.2592700000000001
 30
0.0
 10
-5.2881300000000007
 20
1.4548500000000002
 30
0.0
 10
-5.1941500000000005
 20
1.6428100000000001
 30
0.0
  0
SPLINE
  5
36
100
AcDbEntity
  8
Ebene 1
 62
     7
100
AcDbSpline
210
0.0
220
0.0
230
1.0
 70
     1
 71
     3
 72
    16
 73
    12
 74
     0
 42
0.0000000001
 43
0.0000000001
 40
0.0
 40
0.0
 40
0.0
 40
0.0
 40
0.3333333333333333
 40
0.3333333333333333
 40
0.3333333333333333
 40
0.3333333333333333
 40
0.6666666666666666
 40
0.6666666666666666
 40
0.6666666666666666
 40
0.6666666666666666
 40
1.0
 40
1.0
 40
1.0
 40
1.0
 10
-4.7979100000000008
 20
1.6097900000000001
 30
0.0
 10
-4.7826700000000004
 20
1.5818500000000002
 30
0.0
 10
-4.8004500000000005
 20
1.53105
 30
0.0
 10
-4.7521900000000006
 20
1.5361300000000002
 30
0.0
 10
-4.7521900000000006
 20
1.5361300000000002
 30
0.0
 10
-4.8334700000000002
 20
1.2008500000000002
 30
0.0
 10
-4.9909500000000007
 20
0.8757300000000001
 30
0.0
 10
-5.1585900000000002
 20
0.57855
 30
0.0
 10
-5.1585900000000002
 20
0.57855
 30
0.0
 10
-5.2424100000000005
 20
0.9392300000000001
 30
0.0
 10
-5.1458900000000005
 20
1.4548500000000002
 30
0.0
 10
-4.7979100000000008
 20
1.6097900000000001
 30
0.0
  0
SPLINE
  5
37
100
AcDbEntity
  8
Ebene 1
 62
     7
100
AcDbSpline
210
0.0
220
0.0
230
1.0
 70
     1
 71
     3
 72
    20
 73
    16
 74
     0
 42
0.0000000001
 43
0.0000000001
 40
0.0
 40
0.0
 40
0.0
 40
0.0
 40
0.25
 40
0.25
 40
0.25
 40
0.25
 40
0.5
 40
0.5
 40
0.5
 40
0.5
 40
0.75
 40
0.75
 40
0.75
 40
0.75
 40
1.0
 40
1.0
 40
1.0
 40
1.0
 10
1.1609200000000002
 20
-0.02596
 30
0.0
 10
1.35904
 20
-0.20376
 30
0.0
 10
1.6663800000000002
 20
-0.17074
 30
0.0
 10
1.8797400000000002
 20
-0.0285
 30
0.0
 10
1.8797400000000002
 20
-0.0285
 30
0.0
 10
1.8949800000000001
 20
-0.10216
 30
0.0
 10
1.9864200000000001
 20
-0.27488
 30
0.0
 10
1.8949800000000001
 20
-0.20376
 30
0.0
 10
1.8949800000000001
 20
-0.20376
 30
0.0
 10
1.9254600000000002
 20
-0.2698
 30
0.0
 10
1.9254600000000002
 20
-0.3714
 30
0.0
 10
1.8645
 20
-0.4171200000000001
 30
0.0
 10
1.8645
 20
-0.4171200000000001
 30
0.0
 10
1.5724
 20
-0.44252
 30
0.0
 10
1.2980800000000001
 20
-0.2698
 30
0.0
 10
1.1609200000000002
 20
-0.02596
 30
0.0
  0
SPLINE
  5
38
100
AcDbEntity
  8
Ebene 1
 62
     7
100
AcDbSpline
210
0.0
220
0.0
230
1.0
 70
     1
 71
     3
 72
    16
 73
    12
 74
     0
 42
0.0000000001
 43
0.0000000001
 40
0.0
 40
0.0
 40
0.0
 40
0.0
 40
0.3333333333333333
 40
0.3333333333333333
 40
0.3333333333333333
 40
0.3333333333333333
 40
0.6666666666666666
 40
0.6666666666666666
 40
0.6666666666666666
 40
0.6666666666666666
 40
1.0
 40
1.0
 40
1.0
 40
1.0
 10
0.3024
 20
-0.22154
 30
0.0
 10
0.4522600000000001
 20
-0.23678
 30
0.0
 10
0.6021200000000001
 20
-0.3968
 30
0.0
 10
0.7545200000000001
 20
-0.3739400000000001
 30
0.0
 10
0.7545200000000001
 20
-0.3739400000000001
 30
0.0
 10
0.7545200000000001
 20
-0.3739400000000001
 30
0.0
 10
0.8154800000000001
 20
-0.4882400000000001
 30
0.0
 10
0.8154800000000001
 20
-0.4882400000000001
 30
0.0
 10
0.8154800000000001
 20
-0.4882400000000001
 30
0.0
 10
0.6326000000000001
 20
-0.50602
 30
0.0
 10
0.3913
 20
-0.39934
 30
0.0
 10
0.3024
 20
-0.22154
 30
0.0
  0
SPLINE
  5
39
100
AcDbEntity
  8
Ebene 1
 62
     7
100
AcDbSpline
210
0.0
220
0.0
230
1.0
 70
     1
 71
     3
 72
    20
 73
    16
 74
     0
 42
0.0000000001
 43
0.0000000001
 40
0.0
 40
0.0
 40
0.0
 40
0.0
 40
0.25
 40
0.25
 40
0.25
 40
0.25
 40
0.5
 40
0.5
 40
0.5
 40
0.5
 40
0.75
 40
0.75
 40
0.75
 40
0.75
 40
1.0
 40
1.0
 40
1.0
 40
1.0
 10
1.7883000000000002
 20
-0.56952
 30
0.0
 10
1.9534000000000002
 20
-0.59238
 30
0.0
 10
1.9254600000000002
 20
-0.8413000000000001
 30
0.0
 10
1.7883000000000002
 20
-0.8997200000000001
 30
0.0
 10
1.7883000000000002
 20
-0.8997200000000001
 30
0.0
 10
1.5724
 20
-0.8819400000000001
 30
0.0
 10
1.3438000000000001
 20
-0.75748
 30
0.0
 10
1.23712
 20
-0.5873
 30
0.0
 10
1.23712
 20
-0.5873
 30
0.0
 10
1.2980800000000001
 20
-0.5746
 30
0.0
 10
1.35904
 20
-0.5974600000000001
 30
0.0
 10
1.40476
 20
-0.6127
 30
0.0
 10
1.40476
 20
-0.6127
 30
0.0
 10
1.5419200000000002
 20
-0.6279400000000001
 30
0.0
 10
1.6790800000000001
 20
-0.6254000000000001
 30
0.0
 10
1.7883000000000002
 20
-0.56952
 30
0.0
  0
SPLINE
  5
3A
100
AcDbEntity
  8
Ebene 1
 62
     7
100
AcDbSpline
210
0.0
220
0.0
230
1.0
 70
     1
 71
     3
 72
    12
 73
     8
 74
     0
 42
0.0000000001
 43
0.0000000001
 40
0.0
 40
0.0
 40
0.0
 40
0.0
 40
0.5
 40
0.5
 40
0.5
 40
0.5
 40
1.0
 40
1.0
 40
1.0
 40
1.0
 10
0.4421000000000001
 20
-0.8590800000000001
 30
0.0
 10
0.66054
 20
-0.9937
 30
0.0
 10
0.9831200000000001
 20
-0.8565400000000001
 30
0.0
 10
1.02884
 20
-1.12832
 30
0.0
 10
1.02884
 20
-1.12832
 30
0.0
 10
0.83072
 20
-1.1994400000000001
 30
0.0
 10
0.5183000000000001
 20
-1.0648200000000001
 30
0.0
 10
0.4421000000000001
 20
-0.8590800000000001
 30
0.0
  0
SPLINE
  5
3B
100
AcDbEntity
  8
Ebene 1
 62
     7
100
AcDbSpline
210
0.0
220
0.0
230
1.0
 70
     1
 71
     3
 72
    16
 73
    12
 74
     0
 42
0.0000000001
 43
0.0000000001
 40
0.0
 40
0.0
 40
0.0
 40
0.0
 40
0.3333333333333333
 40
0.3333333333333333
 40
0.3333333333333333
 40
0.3333333333333333
 40
0.6666666666666666
 40
0.6666666666666666
 40
0.6666666666666666
 40
0.6666666666666666
 40
1.0
 40
1.0
 40
1.0
 40
1.0
 10
0.8154800000000001
 20
-2.4923000000000002
 30
0.0
 10
0.9069200000000001
 20
-2.4694400000000001
 30
0.0
 10
0.9831200000000001
 20
-2.56088
 30
0.0
 10
0.89168
 20
-2.6243800000000004
 30
0.0
 10
0.89168
 20
-2.6243800000000004
 30
0.0
 10
0.89168
 20
-2.6243800000000004
 30
0.0
 10
0.6935600000000001
 20
-2.5329400000000004
 30
0.0
 10
0.6935600000000001
 20
-2.5329400000000004
 30
0.0
 10
0.6935600000000001
 20
-2.5329400000000004
 30
0.0
 10
0.7088000000000001
 20
-2.4770600000000003
 30
0.0
 10
0.8002400000000001
 20
-2.5329400000000004
 30
0.0
 10
0.8154800000000001
 20
-2.4923000000000002
 30
0.0
  0
SPLINE
  5
3C
100
AcDbEntity
  8
Ebene 1
 62
     7
100
AcDbSpline
210
0.0
220
0.0
230
1.0
 70
     1
 71
     3
 72
    16
 73
    12
 74
     0
 42
0.0000000001
 43
0.0000000001
 40
0.0
 40
0.0
 40
0.0
 40
0.0
 40
0.3333333333333333
 40
0.3333333333333333
 40
0.3333333333333333
 40
0.3333333333333333
 40
0.6666666666666666
 40
0.6666666666666666
 40
0.6666666666666666
 40
0.6666666666666666
 40
1.0
 40
1.0
 40
1.0
 40
1.0
 10
1.4708000000000001
 20
-2.8428200000000001
 30
0.0
 10
1.5343000000000002
 20
-2.8682200000000004
 30
0.0
 10
1.5343000000000002
 20
-2.9926800000000005
 30
0.0
 10
1.5012800000000002
 20
-3.0511000000000004
 30
0.0
 10
1.5012800000000002
 20
-3.0511000000000004
 30
0.0
 10
1.27268
 20
-3.1146000000000003
 30
0.0
 10
1.0898000000000001
 20
-3.3762200000000004
 30
0.0
 10
0.89168
 20
-3.1933400000000001
 30
0.0
 10
0.89168
 20
-3.1933400000000001
 30
0.0
 10
1.0898000000000001
 20
-3.1146000000000003
 30
0.0
 10
1.2904600000000002
 20
-2.9672800000000001
 30
0.0
 10
1.4708000000000001
 20
-2.8428200000000001
 30
0.0
  0
SPLINE
  5
3D
100
AcDbEntity
  8
Ebene 1
 62
     7
100
AcDbSpline
210
0.0
220
0.0
230
1.0
 70
     1
 71
     3
 72
    12
 73
     8
 74
     0
 42
0.0000000001
 43
0.0000000001
 40
0.0
 40
0.0
 40
0.0
 40
0.0
 40
0.5
 40
0.5
 40
0.5
 40
0.5
 40
1.0
 40
1.0
 40
1.0
 40
1.0
 10
1.4555600000000002
 20
-3.1171400000000005
 30
0.0
 10
1.4708000000000001
 20
-3.2212800000000001
 30
0.0
 10
1.2574400000000001
 20
-3.2873200000000002
 30
0.0
 10
1.15076
 20
-3.2644600000000001
 30
0.0
 10
1.15076
 20
-3.2644600000000001
 30
0.0
 10
1.15076
 20
-3.2644600000000001
 30
0.0
 10
1.4555600000000002
 20
-3.1171400000000005
 30
0.0
 10
1.4555600000000002
 20
-3.1171400000000005
 30
0.0
  0
SPLINE
  5
3E
100
AcDbEntity
  8
Ebene 1
 62
     7
100
AcDbSpline
210
0.0
220
0.0
230
1.0
 70
     1
 71
     3
 72
    16
 73
    12
 74
     0
 42
0.0000000001
 43
0.0000000001
 40
0.0
 40
0.0
 40
0.0
 40
0.0
 40
0.3333333333333333
 40
0.3333333333333333
 40
0.3333333333333333
 40
0.3333333333333333
 40
0.6666666666666666
 40
0.6666666666666666
 40
0.6666666666666666
 40
0.6666666666666666
 40
1.0
 40
1.0
 40
1.0
 40
1.0
 10
0.95264
 20
-3.4981400000000002
 30
0.0
 10
0.9678800000000001
 20
-3.4981400000000002
 30
0.0
 10
0.9831200000000001
 20
-3.4956000000000005
 30
0.0
 10
0.9831200000000001
 20
-3.5133800000000002
 30
0.0
 10
0.9831200000000001
 20
-3.5133800000000002
 30
0.0
 10
1.0136000000000001
 20
-3.9172400000000005
 30
0.0
 10
0.4802
 20
-3.8486600000000002
 30
0.0
 10
0.29732
 20
-3.6657800000000003
 30
0.0
 10
0.29732
 20
-3.6657800000000003
 30
0.0
 10
0.29732
 20
-3.6657800000000003
 30
0.0
 10
0.95264
 20
-3.4981400000000002
 30
0.0
 10
0.95264
 20
-3.4981400000000002
 30
0.0
  0
SPLINE
  5
3F
100
AcDbEntity
  8
Ebene 1
 62
     7
100
AcDbSpline
210
0.0
220
0.0
230
1.0
 70
     1
 71
     3
 72
    16
 73
    12
 74
     0
 42
0.0000000001
 43
0.0000000001
 40
0.0
 40
0.0
 40
0.0
 40
0.0
 40
0.3333333333333333
 40
0.3333333333333333
 40
0.3333333333333333
 40
0.3333333333333333
 40
0.6666666666666666
 40
0.6666666666666666
 40
0.6666666666666666
 40
0.6666666666666666
 40
1.0
 40
1.0
 40
1.0
 40
1.0
 10
0.7545200000000001
 20
-4.2322000000000006
 30
0.0
 10
0.7545200000000001
 20
-4.2322000000000006
 30
0.0
 10
0.8459600000000001
 20
-4.2652200000000002
 30
0.0
 10
0.8459600000000001
 20
-4.2652200000000002
 30
0.0
 10
0.8459600000000001
 20
-4.2652200000000002
 30
0.0
 10
0.83072
 20
-4.4862000000000002
 30
0.0
 10
0.5564
 20
-4.4938200000000004
 30
0.0
 10
0.3887600000000001
 20
-4.51668
 30
0.0
 10
0.3887600000000001
 20
-4.51668
 30
0.0
 10
0.3887600000000001
 20
-4.51668
 30
0.0
 10
0.7545200000000001
 20
-4.2322000000000006
 30
0.0
 10
0.7545200000000001
 20
-4.2322000000000006
 30
0.0
  0
SPLINE
  5
40
100
AcDbEntity
  8
Ebene 1
 62
     7
100
AcDbSpline
210
0.0
220
0.0
230
1.0
 70
     1
 71
     3
 72
    12
 73
     8
 74
     0
 42
0.0000000001
 43
0.0000000001
 40
0.0
 40
0.0
 40
0.0
 40
0.0
 40
0.5
 40
0.5
 40
0.5
 40
0.5
 40
1.0
 40
1.0
 40
1.0
 40
1.0
 10
2.2353400000000003
 20
-4.5674800000000007
 30
0.0
 10
2.2505800000000002
 20
-4.6182800000000004
 30
0.0
 10
2.1591400000000003
 20
-4.7325800000000005
 30
0.0
 10
2.0829400000000002
 20
-4.7300400000000007
 30
0.0
 10
2.0829400000000002
 20
-4.7300400000000007
 30
0.0
 10
2.0829400000000002
 20
-4.7300400000000007
 30
0.0
 10
2.2353400000000003
 20
-4.5674800000000007
 30
0.0
 10
2.2353400000000003
 20
-4.5674800000000007
 30
0.0
  0
SPLINE
  5
41
100
AcDbEntity
  8
Ebene 1
 62
     7
100
AcDbSpline
210
0.0
220
0.0
230
1.0
 70
     1
 71
     3
 72
    36
 73
    32
 74
     0
 42
0.0000000001
 43
0.0000000001
 40
0.0
 40
0.0
 40
0.0
 40
0.0
 40
0.125
 40
0.125
 40
0.125
 40
0.125
 40
0.25
 40
0.25
 40
0.25
 40
0.25
 40
0.375
 40
0.375
 40
0.375
 40
0.375
 40
0.5
 40
0.5
 40
0.5
 40
0.5
 40
0.625
 40
0.625
 40
0.625
 40
0.625
 40
0.75
 40
0.75
 40
0.75
 40
0.75
 40
0.875
 40
0.875
 40
0.875
 40
0.875
 40
1.0
 40
1.0
 40
1.0
 40
1.0
 10
1.1660000000000001
 20
-4.7351200000000002
 30
0.0
 10
1.1660000000000001
 20
-4.7351200000000002
 30
0.0
 10
1.2422000000000002
 20
-4.73766
 30
0.0
 10
1.2422000000000002
 20
-4.73766
 30
0.0
 10
1.2422000000000002
 20
-4.73766
 30
0.0
 10
1.15076
 20
-4.8875200000000003
 30
0.0
 10
0.9678800000000001
 20
-4.9916600000000004
 30
0.0
 10
0.89168
 20
-5.1262800000000004
 30
0.0
 10
0.89168
 20
-5.1262800000000004
 30
0.0
 10
0.95264
 20
-5.1364400000000003
 30
0.0
 10
0.9831200000000001
 20
-5.0831000000000008
 30
0.0
 10
1.02884
 20
-5.0500800000000003
 30
0.0
 10
1.02884
 20
-5.0500800000000003
 30
0.0
 10
1.02884
 20
-5.0500800000000003
 30
0.0
 10
1.3184
 20
-4.7960800000000008
 30
0.0
 10
1.3184
 20
-4.7960800000000008
 30
0.0
 10
1.3184
 20
-4.7960800000000008
 30
0.0
 10
1.3488800000000001
 20
-4.8164000000000007
 30
0.0
 10
1.3336400000000002
 20
-4.8773600000000004
 30
0.0
 10
1.3336400000000002
 20
-4.9129200000000006
 30
0.0
 10
1.3336400000000002
 20
-4.9129200000000006
 30
0.0
 10
1.0440800000000001
 20
-5.2710600000000003
 30
0.0
 10
0.6021200000000001
 20
-5.4590200000000006
 30
0.0
 10
0.1754
 20
-5.5225200000000001
 30
0.0
 10
0.1754
 20
-5.5225200000000001
 30
0.0
 10
0.26684
 20
-5.4564800000000009
 30
0.0
 10
0.35828
 20
-5.3828200000000006
 30
0.0
 10
0.4497200000000001
 20
-5.3294800000000002
 30
0.0
 10
0.4497200000000001
 20
-5.3294800000000002
 30
0.0
 10
0.6935600000000001
 20
-5.1491400000000001
 30
0.0
 10
0.95264
 20
-4.9586400000000008
 30
0.0
 10
1.1660000000000001
 20
-4.7351200000000002
 30
0.0
  0
SPLINE
  5
42
100
AcDbEntity
  8
Ebene 1
 62
     7
100
AcDbSpline
210
0.0
220
0.0
230
1.0
 70
     1
 71
     3
 72
    16
 73
    12
 74
     0
 42
0.0000000001
 43
0.0000000001
 40
0.0
 40
0.0
 40
0.0
 40
0.0
 40
0.3333333333333333
 40
0.3333333333333333
 40
0.3333333333333333
 40
0.3333333333333333
 40
0.6666666666666666
 40
0.6666666666666666
 40
0.6666666666666666
 40
0.6666666666666666
 40
1.0
 40
1.0
 40
1.0
 40
1.0
 10
0.5259200000000001
 20
-4.9942000000000002
 30
0.0
 10
0.5259200000000001
 20
-4.9967400000000008
 30
0.0
 10
0.5564
 20
-4.9891200000000007
 30
0.0
 10
0.5564
 20
-5.0043600000000001
 30
0.0
 10
0.5564
 20
-5.0043600000000001
 30
0.0
 10
0.3887600000000001
 20
-5.2024800000000004
 30
0.0
 10
0.12968
 20
-5.2786800000000005
 30
0.0
 10
-0.12685
 20
-5.2634400000000001
 30
0.0
 10
-0.12685
 20
-5.2634400000000001
 30
0.0
 10
-0.12685
 20
-5.2634400000000001
 30
0.0
 10
0.5259200000000001
 20
-4.9942000000000002
 30
0.0
 10
0.5259200000000001
 20
-4.9942000000000002
 30
0.0
  0
ENDSEC
  0
SECTION
  2
OBJECTS
  0
DICTIONARY
  5
19
100
AcDbDictionary
280
     0
281
     1
  3
ACAD_GROUP
350
1A
  3
ACAD_MLINESTYLE
350
1B
  3
ACAD_LAYOUT
350
1E
  3
ACAD_PLOTSETTINGS
350
22
  3
ACAD_PLOTSTYLENAME
350
1F
  3
ACAD_WIPEOUT_VARS
350
23
  0
DICTIONARY
  5
1A
102
{ACAD_REACTORS
330
19
102
}
100
AcDbDictionary
280
     0
281
     1
  0
DICTIONARY
  5
1B
102
{ACAD_REACTORS
330
19
102
}
100
AcDbDictionary
280
     0
281
     1
  3
Standard
350
1C
  0
MLINESTYLE
  5
1C
102
{ACAD_REACTORS
330
1B
102
}
100
AcDbMlineStyle
  2
Standard
 70
     0
  3

 62
     0
 51
90.0
 52
90.0
 71
     2
 49
0.5
 62
   256
  6
BYLAYER
 49
-0.5
 62
   256
  6
BYLAYER
  0
ACDBDICTIONARYWDFLT
  5
1F
102
{ACAD_REACTORS
330
19
102
}
100
AcDbDictionary
281
     1
  3
Normal
350
1D
100
AcDbDictionaryWithDefault
340
1D
  0
ACDBPLACEHOLDER
  5
1D
102
{ACAD_REACTORS
330
1F
102
}
  0
LAYOUT
  5
20
102
{ACAD_REACTORS
330
1E
102
}
100
AcDbPlotSettings
  1

  2

  4

  6

 40
0.0
 41
0.0
 42
0.0
 43
0.0
 44
0.0
 45
0.0
 46
0.0
 47
0.0
 48
0.0
 49
0.0
140
0.0
141
0.0
142
1.0
143
1.0
 70
  1024
 72
     0
 73
     0
 74
     0
  7

 75
     0
147
1.0
148
0.0
149
0.0
100
AcDbLayout
  1
Model
 70
     0
 71
     0
 10
0.0
 20
0.0
 11
0.0
 21
0.0
 12
0.0
 22
0.0
 32
0.0
 14
0.0
 24
0.0
 34
0.0
 15
0.0
 25
0.0
 35
0.0
146
0.0
 13
0.0
 23
0.0
 33
0.0
 16
0.0
 26
0.0
 36
0.0
 17
0.0
 27
0.0
 37
0.0
 76
     0
330
A
331
0
345
0
346
0
  0
LAYOUT
  5
21
102
{ACAD_REACTORS
330
1E
102
}
100
AcDbPlotSettings
  1

  2

  4

  6

 40
0.0
 41
0.0
 42
0.0
 43
0.0
 44
0.0
 45
0.0
 46
0.0
 47
0.0
 48
0.0
 49
0.0
140
0.0
141
0.0
142
1.0
143
1.0
 70
     0
 72
     0
 73
     0
 74
     0
  7

 75
     0
147
1.0
148
0.0
149
0.0
100
AcDbLayout
  1
Layout1
 70
     0
 71
     0
 10
0.0
 20
0.0
 11
0.0
 21
0.0
 12
0.0
 22
0.0
 32
0.0
 14
0.0
 24
0.0
 34
0.0
 15
0.0
 25
0.0
 35
0.0
146
0.0
 13
0.0
 23
0.0
 33
0.0
 16
0.0
 26
0.0
 36
0.0
 17
0.0
 27
0.0
 37
0.0
 76
     0
330
B
331
0
345
0
346
0
  0
DICTIONARY
  5
1E
102
{ACAD_REACTORS
330
19
102
}
100
AcDbDictionary
280
     0
281
     1
  3
Layout1
350
21
  3
Model
350
20
  0
DICTIONARY
  5
22
102
{ACAD_REACTORS
330
19
102
}
100
AcDbDictionary
280
     0
281
     1
  0
WIPEOUTVARIABLES
  5
23
100
AcDbWipeoutVariables
 70
     1
  0
ENDSEC
  0
EOF
