  0
SECTION
  2
HEADER
  9
$ACADVER
  1
AC1015
  9
$ACADMAINTVER
 70
     6
  9
$DWGCODEPAGE
  3
DOS850
  9
$INSBASE
 10
0.0
 20
0.0
 30
0.0
  9
$EXTMIN
 10
-5.00489
 20
-5.45561
 30
1.000000E+20
  9
$EXTMAX
 10
5.01124
 20
5.45027
 30
-1.000000E+20
  9
$LIMMIN
 10
0.0
 20
0.0
  9
$LIMMAX
 10
0.0
 20
0.0
  9
$ORTHOMODE
 70
     0
  9
$REGENMODE
 70
     1
  9
$FILLMODE
 70
     1
  9
$QTEXTMODE
 70
     0
  9
$MIRRTEXT
 70
     1
  9
$LTSCALE
 40
1.0
  9
$ATTMODE
 70
     1
  9
$TEXTSIZE
 40
0.2
  9
$TRACEWID
 40
0.05
  9
$TEXTSTYLE
  7
Standard
  9
$CLAYER
  8
0
  9
$CELTYPE
  6
Continuous
  9
$CECOLOR
 62
   256
  9
$CELTSCALE
 40
1.0
  9
$DISPSILH
 70
     0
  9
$DIMSCALE
 40
1.0
  9
$DIMASZ
 40
0.18
  9
$DIMEXO
 40
0.0625
  9
$DIMDLI
 40
0.38
  9
$DIMRND
 40
0.0
  9
$DIMDLE
 40
0.0
  9
$DIMEXE
 40
0.18
  9
$DIMTP
 40
0.0
  9
$DIMTM
 40
0.0
  9
$DIMTXT
 40
0.18
  9
$DIMCEN
 40
0.09
  9
$DIMTSZ
 40
0.0
  9
$DIMTOL
 70
     0
  9
$DIMLIM
 70
     0
  9
$DIMTIH
 70
     1
  9
$DIMTOH
 70
     1
  9
$DIMSE1
 70
     0
  9
$DIMSE2
 70
     0
  9
$DIMTAD
 70
     0
  9
$DIMZIN
 70
     0
  9
$DIMBLK
  1

  9
$DIMASO
 70
     1
  9
$DIMSHO
 70
     1
  9
$DIMPOST
  1

  9
$DIMAPOST
  1

  9
$DIMALT
 70
     0
  9
$DIMALTD
 70
     2
  9
$DIMALTF
 40
25.4
  9
$DIMLFAC
 40
1.0
  9
$DIMTOFL
 70
     0
  9
$DIMTVP
 40
0.0
  9
$DIMTIX
 70
     0
  9
$DIMSOXD
 70
     0
  9
$DIMSAH
 70
     0
  9
$DIMBLK1
  1

  9
$DIMBLK2
  1

  9
$DIMSTYLE
  2
Standard
  9
$DIMCLRD
 70
     0
  9
$DIMCLRE
 70
     0
  9
$DIMCLRT
 70
     0
  9
$DIMTFAC
 40
1.0
  9
$DIMGAP
 40
0.09
  9
$DIMJUST
 70
     0
  9
$DIMSD1
 70
     0
  9
$DIMSD2
 70
     0
  9
$DIMTOLJ
 70
     1
  9
$DIMTZIN
 70
     0
  9
$DIMALTZ
 70
     0
  9
$DIMALTTZ
 70
     0
  9
$DIMUPT
 70
     0
  9
$DIMDEC
 70
     4
  9
$DIMTDEC
 70
     4
  9
$DIMALTU
 70
     2
  9
$DIMALTTD
 70
     2
  9
$DIMTXSTY
  7
Standard
  9
$DIMAUNIT
 70
     0
  9
$DIMADEC
 70
     0
  9
$DIMALTRND
 40
0.0
  9
$DIMAZIN
 70
     0
  9
$DIMDSEP
 70
     0
  9
$DIMATFIT
 70
     3
  9
$DIMFRAC
 70
     0
  9
$DIMLDRBLK
  1

  9
$DIMLUNIT
 70
     2
  9
$DIMLWD
 70
     0
  9
$DIMLWE
 70
     0
  9
$DIMTMOVE
 70
     0
  9
$LUNITS
 70
     2
  9
$LUPREC
 70
     4
  9
$SKETCHINC
 40
0.1
  9
$FILLETRAD
 40
0.0
  9
$AUNITS
 70
     0
  9
$AUPREC
 70
     0
  9
$MENU
  1
acad
  9
$ELEVATION
 40
0.0
  9
$PELEVATION
 40
0.0
  9
$THICKNESS
 40
0.0
  9
$LIMCHECK
 70
     0
  9
$CHAMFERA
 40
0.0
  9
$CHAMFERB
 40
0.0
  9
$CHAMFERC
 40
0.0
  9
$CHAMFERD
 40
0.0
  9
$SKPOLY
 70
     0
  9
$TDCREATE
 40
0.000000000
  9
$TDUCREATE
 40
0.000000000
  9
$TDUPDATE
 40
0.000000000
  9
$TDUUPDATE
 40
0.000000000
  9
$TDINDWG
 40
0.0000000000
  9
$TDUSRTIMER
 40
0.0000000000
  9
$USRTIMER
 70
     1
  9
$ANGBASE
 50
0.0
  9
$ANGDIR
 70
     0
  9
$PDMODE
 70
     0
  9
$PDSIZE
 40
0.0
  9
$PLINEWID
 40
0.0
  9
$SPLFRAME
 70
     0
  9
$SPLINETYPE
 70
     6
  9
$SPLINESEGS
 70
     8
  9
$HANDSEED
  5
30
  9
$SURFTAB1
 70
     6
  9
$SURFTAB2
 70
     6
  9
$SURFTYPE
 70
     6
  9
$SURFU
 70
     6
  9
$SURFV
 70
     6
  9
$UCSBASE
  2

  9
$UCSNAME
  2

  9
$UCSORG
 10
0.0
 20
0.0
 30
0.0
  9
$UCSXDIR
 10
1.0
 20
0.0
 30
0.0
  9
$UCSYDIR
 10
0.0
 20
1.0
 30
0.0
  9
$UCSORTHOREF
  2

  9
$UCSORTHOVIEW
 70
     0
  9
$UCSORGTOP
 10
0.0
 20
0.0
 30
0.0
  9
$UCSORGBOTTOM
 10
0.0
 20
0.0
 30
0.0
  9
$UCSORGLEFT
 10
0.0
 20
0.0
 30
0.0
  9
$UCSORGRIGHT
 10
0.0
 20
0.0
 30
0.0
  9
$UCSORGFRONT
 10
0.0
 20
0.0
 30
0.0
  9
$UCSORGBACK
 10
0.0
 20
0.0
 30
0.0
  9
$PUCSBASE
  2

  9
$PUCSNAME
  2

  9
$PUCSORG
 10
0.0
 20
0.0
 30
0.0
  9
$PUCSXDIR
 10
1.0
 20
0.0
 30
0.0
  9
$PUCSYDIR
 10
0.0
 20
1.0
 30
0.0
  9
$PUCSORTHOREF
  2

  9
$PUCSORTHOVIEW
 70
     0
  9
$PUCSORGTOP
 10
0.0
 20
0.0
 30
0.0
  9
$PUCSORGBOTTOM
 10
0.0
 20
0.0
 30
0.0
  9
$PUCSORGLEFT
 10
0.0
 20
0.0
 30
0.0
  9
$PUCSORGRIGHT
 10
0.0
 20
0.0
 30
0.0
  9
$PUCSORGFRONT
 10
0.0
 20
0.0
 30
0.0
  9
$PUCSORGBACK
 10
0.0
 20
0.0
 30
0.0
  9
$USERI1
 70
     0
  9
$USERI2
 70
     0
  9
$USERI3
 70
     0
  9
$USERI4
 70
     0
  9
$USERI5
 70
     0
  9
$USERR1
 40
0.0
  9
$USERR2
 40
0.0
  9
$USERR3
 40
0.0
  9
$USERR4
 40
0.0
  9
$USERR5
 40
0.0
  9
$WORLDVIEW
 70
     1
  9
$SHADEDGE
 70
     3
  9
$SHADEDIF
 70
    70
  9
$TILEMODE
 70
     1
  9
$MAXACTVP
 70
    16
  9
$PINSBASE
 10
0.0
 20
0.0
 30
0.0
  9
$PLIMCHECK
 70
     0
  9
$PEXTMIN
 10
1.000000E+20
 20
1.000000E+20
 30
1.000000E+20
  9
$PEXTMAX
 10
-1.000000E+20
 20
-1.000000E+20
 30
-1.000000E+20
  9
$PLIMMIN
 10
0.0
 20
0.0
  9
$PLIMMAX
 10
12.0
 20
9.0
  9
$UNITMODE
 70
     0
  9
$VISRETAIN
 70
     0
  9
$PLINEGEN
 70
     1
  9
$PSLTSCALE
 70
     0
  9
$TREEDEPTH
 70
  3020
  9
$CMLSTYLE
  2
Standard
  9
$CMLJUST
 70
     0
  9
$CMLSCALE
 40
1.0
  9
$PROXYGRAPHICS
 70
     0
  9
$MEASUREMENT
 70
     0
  9
$CELWEIGHT
370
     0
  9
$ENDCAPS
280
     0
  9
$JOINSTYLE
280
     0
  9
$LWDISPLAY
290
     0
  9
$INSUNITS
 70
     5
  9
$HYPERLINKBASE
  1

  9
$XEDIT
290
     1
  9
$CEPSNTYPE
380
     0
  9
$PSTYLEMODE
290
     1
  9
$FINGERPRINTGUID
  2

  9
$VERSIONGUID
  2

  9
$EXTNAMES
290
     1
  9
$PSVPSCALE
 40
0.0
  0
ENDSEC
  0
SECTION
  2
CLASSES
  0
CLASS
  1
LWPOLYLINE
  2
AcDbPolyline
  3
AutoCAD 2000
 90
    32768
280
     0
281
     1
  0
CLASS
  1
IMAGE
  2
AcDbRasterImage
  3
ISM
 90
    32895
280
     0
281
     1
  0
CLASS
  1
OLE2FRAME
  2
AcDbOle2Frame
  3
AutoCAD 2000
 90
    32768
280
     0
281
     1
  0
CLASS
  1
HATCH
  2
AcDbHatch
  3
AutoCAD 2000
 90
    32768
280
     0
281
     1
  0
CLASS
  1
DICTIONARYVAR
  2
AcDbDictionaryVar
  3
AutoCAD 2000
 90
    32768
280
     0
281
     0
  0
CLASS
  1
RASTERVARIABLES
  2
AcDbRasterVariables
  3
ISM
 90
    32768
280
     0
281
     0
  0
CLASS
  1
IMAGEDEF
  2
AcDbRasterImageDef
  3
ISM
 90
    32768
280
     0
281
     0
  0
CLASS
  1
IMAGEDEF_REACTOR
  2
AcDbRasterImageDefReactor
  3
ISM
 90
    32769
280
     0
281
     0
  0
CLASS
  1
IDBUFFER
  2
AcDbIdBuffer
  3
AutoCAD 2000
 90
    32768
280
     0
281
     0
  0
CLASS
  1
SPATIAL_FILTER
  2
AcDbSpatialFilter
  3
AutoCAD 2000
 90
    32768
280
     0
281
     0
  0
CLASS
  1
XRECORD
  2
AcDbXrecord
  3
AutoCAD 2000
 90
    32768
280
     0
281
     0
  0
CLASS
  1
SORTENTSTABLE
  2
AcDbSortentsTable
  3
AutoCAD 2000
 90
    32768
280
     0
281
     0
  0
CLASS
  1
LAYER_INDEX
  2
AcDbLayerIndex
  3
AutoCAD 2000
 90
    32768
280
     0
281
     0
  0
CLASS
  1
SPATIAL_INDEX
  2
AcDbSpatialIndex
  3
AutoCAD 2000
 90
    32768
280
     0
281
     0
  0
CLASS
  1
OBJECT_PTR
  2
CAseDLPNTableRecord
  3
"ASE-LPNTableRecord"
 90
    32769
280
     0
281
     0
  0
CLASS
  1
LAYOUT
  2
AcDbLayout
  3
AutoCAD 2000
 90
        0
280
     0
281
     0
  0
CLASS
  1
PLOTSETTINGS
  2
AcDbPlotSettings
  3
AutoCAD 2000
 90
    32768
280
     0
281
     0
  0
CLASS
  1
ACDBDICTIONARYWDFLT
  2
AcDbDictionaryWithDefault
  3
AutoCAD 2000
 90
        0
280
     0
281
     0
  0
CLASS
  1
ACDBPLACEHOLDER
  2
AcDbPlaceHolder
  3
AutoCAD 2000
 90
        0
280
     0
281
     0
  0
CLASS
  1
VBA_PROJECT
  2
AcDbVbaProject
  3
acadvba
 90
    32768
280
     0
281
     0
  0
CLASS
  1
WIPEOUT
  2
AcDbWipeout
  3
WipeOut|AutoCAD Express Tool|expresstools@autodesk.com
 90
    32895
280
     0
281
     1
  0
CLASS
  1
WIPEOUTVARIABLES
  2
AcDbWipeoutVariables
  3
WipeOut|AutoCAD Express Tool|expresstools@autodesk.com
 90
        0
280
     0
281
     0
  0
CLASS
  1
RTEXT
  2
RText
  3
RText|AutoCAD Express Tool|expresstools@autodesk.com
 90
    32768
280
     0
281
     1
  0
CLASS
  1
ARCALIGNEDTEXT
  2
AcDbArcAlignedText
  3
ATEXT|AutoCAD Express Tool|expresstools@autodesk.com
 90
    32768
280
     0
281
     1
  0
ENDSEC
  0
SECTION
  2
TABLES
  0
TABLE
  2
VPORT
  5
7
100
AcDbSymbolTable
 70
     1
  0
VPORT
  5
15
100
AcDbSymbolTableRecord
100
AcDbViewportTableRecord
  2
*ACTIVE
 70
     0
 10
0.0
 20
0.0
 11
1.0
 21
1.0
 12
6.591288
 22
4.579184
 13
0.0
 23
0.0
 14
1.0
 24
1.0
 15
0.0
 25
0.0
 16
0.0
 26
0.0
 36
1.0
 17
0.0
 27
0.0
 37
0.0
 40
9.158369
 41
0.688564
 42
50.0
 43
0.0
 44
0.0
 50
0.0
 51
0.0
 71
     0
 72
   100
 73
     1
 74
     1
 75
     0
 76
     0
 77
     0
 78
     0
281
     0
 65
     0
110
0.0
120
0.0
130
0.0
111
1.0
121
0.0
131
0.0
112
0.0
122
1.0
132
0.0
345
0
346
0
 79
     0
146
0.0
  0
ENDTAB
  0
TABLE
  2
LTYPE
  5
4
100
AcDbSymbolTable
 70
     3
  0
LTYPE
  5
11
100
AcDbSymbolTableRecord
100
AcDbLinetypeTableRecord
  2
ByBlock
 70
    64
  3

 72
    65
 73
     0
 40
0.0
  0
LTYPE
  5
12
100
AcDbSymbolTableRecord
100
AcDbLinetypeTableRecord
  2
ByLayer
 70
    64
  3

 72
    65
 73
     0
 40
0.0
  0
LTYPE
  5
13
100
AcDbSymbolTableRecord
100
AcDbLinetypeTableRecord
  2
Continuous
 70
    64
  3
Solid line
 72
    65
 73
     0
 40
0.0
  0
ENDTAB
  0
TABLE
  2
LAYER
  5
2
100
AcDbSymbolTable
 70
     2
  0
LAYER
  5
14
100
AcDbSymbolTableRecord
100
AcDbLayerTableRecord
  2
0
 70
     0
 62
     7
  6
Continuous
290
     1
370
    -3
390
1D
  0
LAYER
  5
24
100
AcDbSymbolTableRecord
100
AcDbLayerTableRecord
  2
Ebene 1
 70
     0
 62
     7
  6
Continuous
290
     1
370
    -3
390
1F
  0
ENDTAB
  0
TABLE
  2
STYLE
  5
3
100
AcDbSymbolTable
 70
     1
  0
STYLE
  5
17
100
AcDbSymbolTableRecord
100
AcDbTextStyleTableRecord
  2
Standard
 70
     0
 40
0.0
 41
1.0
 50
0.0
 71
     0
 42
0.0
  3
txt
  4

  0
ENDTAB
  0
TABLE
  2
VIEW
  5
5
100
AcDbSymbolTable
 70
     0
  0
ENDTAB
  0
TABLE
  2
UCS
  5
6
100
AcDbSymbolTable
 70
     0
  0
ENDTAB
  0
TABLE
  2
APPID
  5
8
100
AcDbSymbolTable
 70
     1
  0
APPID
  5
16
100
AcDbSymbolTableRecord
100
AcDbRegAppTableRecord
  2
ACAD
 70
     0
  0
ENDTAB
  0
TABLE
  2
DIMSTYLE
  5
9
100
AcDbSymbolTable
 70
     1
100
AcDbDimStyleTable
 71
     0
  0
DIMSTYLE
105
18
100
AcDbSymbolTableRecord
100
AcDbDimStyleTableRecord
  2
Standard
 70
     0
  3

  4

 40
1.0
 41
0.18
 42
0.0625
 43
0.38
 44
0.18
 45
0.0
 46
0.0
 47
0.0
 48
0.0
 71
     0
 72
     0
 73
     1
 74
     1
 75
     0
 76
     0
 77
     0
 78
     0
 79
     0
140
0.18
141
0.09
142
0.0
143
25.4
144
1.0
145
0.0
146
1.0
147
0.09
148
0.0
170
     0
171
     2
172
     0
173
     0
174
     0
175
     0
176
     0
177
     0
178
     0
179
     0
271
     4
272
     4
273
     2
274
     2
275
     0
276
     0
277
     2
278
    46
279
     0
280
     0
281
     0
282
     0
283
     1
284
     0
285
     0
286
     0
288
     0
340
17
341
0
342
0
343
0
344
0
371
    -2
372
    -2
  0
ENDTAB
  0
TABLE
  2
BLOCK_RECORD
  5
1
100
AcDbSymbolTable
 70
     0
  0
BLOCK_RECORD
  5
A
100
AcDbSymbolTableRecord
100
AcDbBlockTableRecord
  2
*MODEL_SPACE
340
20
  0
BLOCK_RECORD
  5
B
100
AcDbSymbolTableRecord
100
AcDbBlockTableRecord
  2
*PAPER_SPACE
340
21
  0
ENDTAB
  0
ENDSEC
  0
SECTION
  2
BLOCKS
  0
BLOCK
  5
D
100
AcDbEntity
  8
0
100
AcDbBlockBegin
  2
*MODEL_SPACE
 70
     0
 10
0.0
 20
0.0
 30
0.0
  3
*MODEL_SPACE
  1

  0
ENDBLK
  5
E
100
AcDbEntity
  8
0
100
AcDbBlockEnd
  0
BLOCK
  5
F
100
AcDbEntity
 67
     1
  8
0
100
AcDbBlockBegin
  2
*PAPER_SPACE
 70
     0
 10
0.0
 20
0.0
 30
0.0
  3
*PAPER_SPACE
  1

  0
ENDBLK
  5
10
100
AcDbEntity
 67
     1
  8
0
100
AcDbBlockEnd
  0
ENDSEC
  0
SECTION
  2
ENTITIES
  0
SPLINE
  5
25
100
AcDbEntity
  8
Ebene 1
100
AcDbSpline
210
0.0
220
0.0
230
1.0
 70
     1
 71
     3
 72
   120
 73
   116
 74
     0
 42
0.0000000001
 43
0.0000000001
 40
0.0
 40
0.0
 40
0.0
 40
0.0
 40
0.0344827586206897
 40
0.0344827586206897
 40
0.0344827586206897
 40
0.0344827586206897
 40
0.0689655172413793
 40
0.0689655172413793
 40
0.0689655172413793
 40
0.0689655172413793
 40
0.103448275862069
 40
0.103448275862069
 40
0.103448275862069
 40
0.103448275862069
 40
0.1379310344827586
 40
0.1379310344827586
 40
0.1379310344827586
 40
0.1379310344827586
 40
0.1724137931034483
 40
0.1724137931034483
 40
0.1724137931034483
 40
0.1724137931034483
 40
0.206896551724138
 40
0.206896551724138
 40
0.206896551724138
 40
0.206896551724138
 40
0.2413793103448276
 40
0.2413793103448276
 40
0.2413793103448276
 40
0.2413793103448276
 40
0.2758620689655173
 40
0.2758620689655173
 40
0.2758620689655173
 40
0.2758620689655173
 40
0.310344827586207
 40
0.310344827586207
 40
0.310344827586207
 40
0.310344827586207
 40
0.3448275862068966
 40
0.3448275862068966
 40
0.3448275862068966
 40
0.3448275862068966
 40
0.3793103448275863
 40
0.3793103448275863
 40
0.3793103448275863
 40
0.3793103448275863
 40
0.413793103448276
 40
0.413793103448276
 40
0.413793103448276
 40
0.413793103448276
 40
0.4482758620689656
 40
0.4482758620689656
 40
0.4482758620689656
 40
0.4482758620689656
 40
0.4827586206896553
 40
0.4827586206896553
 40
0.4827586206896553
 40
0.4827586206896553
 40
0.517241379310345
 40
0.517241379310345
 40
0.517241379310345
 40
0.517241379310345
 40
0.5517241379310346
 40
0.5517241379310346
 40
0.5517241379310346
 40
0.5517241379310346
 40
0.5862068965517242
 40
0.5862068965517242
 40
0.5862068965517242
 40
0.5862068965517242
 40
0.6206896551724138
 40
0.6206896551724138
 40
0.6206896551724138
 40
0.6206896551724138
 40
0.6551724137931034
 40
0.6551724137931034
 40
0.6551724137931034
 40
0.6551724137931034
 40
0.689655172413793
 40
0.689655172413793
 40
0.689655172413793
 40
0.689655172413793
 40
0.7241379310344827
 40
0.7241379310344827
 40
0.7241379310344827
 40
0.7241379310344827
 40
0.7586206896551723
 40
0.7586206896551723
 40
0.7586206896551723
 40
0.7586206896551723
 40
0.7931034482758619
 40
0.7931034482758619
 40
0.7931034482758619
 40
0.7931034482758619
 40
0.8275862068965515
 40
0.8275862068965515
 40
0.8275862068965515
 40
0.8275862068965515
 40
0.8620689655172411
 40
0.8620689655172411
 40
0.8620689655172411
 40
0.8620689655172411
 40
0.8965517241379307
 40
0.8965517241379307
 40
0.8965517241379307
 40
0.8965517241379307
 40
0.9310344827586203
 40
0.9310344827586203
 40
0.9310344827586203
 40
0.9310344827586203
 40
0.9655172413793099
 40
0.9655172413793099
 40
0.9655172413793099
 40
0.9655172413793099
 40
1.0
 40
1.0
 40
1.0
 40
1.0
 10
0.2617600000000001
 20
5.4502700000000006
 30
0.0
 10
2.0981800000000002
 20
5.1048300000000006
 30
0.0
 10
2.04738
 20
3.01187
 30
0.0
 10
2.75604
 20
1.7215500000000001
 30
0.0
 10
2.75604
 20
1.7215500000000001
 30
0.0
 10
2.7966800000000003
 20
1.40405
 30
0.0
 10
2.4664800000000002
 20
1.19069
 30
0.0
 10
2.5198200000000002
 20
0.8808100000000001
 30
0.0
 10
2.5198200000000002
 20
0.8808100000000001
 30
0.0
 10
2.7433400000000003
 20
0.55569
 30
0.0
 10
3.1370400000000003
 20
0.34487
 30
0.0
 10
3.0583000000000005
 20
-0.1555
 30
0.0
 10
3.0583000000000005
 20
-0.1555
 30
0.0
 10
3.0202000000000004
 20
-0.27996
 30
0.0
 10
2.9262200000000003
 20
-0.34346
 30
0.0
 10
2.8093800000000004
 20
-0.37902
 30
0.0
 10
2.8093800000000004
 20
-0.37902
 30
0.0
 10
2.5198200000000002
 20
-0.41966
 30
0.0
 10
2.20486
 20
-0.1936
 30
0.0
 10
1.9940400000000003
 20
-0.4857
 30
0.0
 10
1.9940400000000003
 20
-0.4857
 30
0.0
 10
2.1261200000000002
 20
-1.6388600000000002
 30
0.0
 10
2.2582
 20
-3.2263600000000001
 30
0.0
 10
3.2818200000000002
 20
-4.0163000000000002
 30
0.0
 10
3.2818200000000002
 20
-4.0163000000000002
 30
0.0
 10
3.7415600000000002
 20
-4.1001200000000004
 30
0.0
 10
4.0438200000000002
 20
-3.6149800000000001
 30
0.0
 10
4.16066
 20
-3.2416000000000005
 30
0.0
 10
4.16066
 20
-3.2416000000000005
 30
0.0
 10
4.37148
 20
-2.6066000000000003
 30
0.0
 10
4.2267000000000001
 20
-1.8954000000000002
 30
0.0
 10
3.8584000000000005
 20
-1.3518400000000002
 30
0.0
 10
3.8584000000000005
 20
-1.3518400000000002
 30
0.0
 10
4.34354
 20
-1.4305800000000002
 30
0.0
 10
4.7778800000000006
 20
-1.8522200000000002
 30
0.0
 10
4.9226600000000005
 20
-2.3348200000000001
 30
0.0
 10
4.9226600000000005
 20
-2.3348200000000001
 30
0.0
 10
5.0547400000000007
 20
-2.6853400000000001
 30
0.0
 10
5.0141
 20
-3.1044400000000003
 30
0.0
 10
4.9607600000000005
 20
-3.4778200000000004
 30
0.0
 10
4.9607600000000005
 20
-3.4778200000000004
 30
0.0
 10
5.0293400000000004
 20
-5.4006000000000007
 30
0.0
 10
1.9686400000000002
 20
-5.7003200000000005
 30
0.0
 10
1.5622400000000001
 20
-3.8486600000000002
 30
0.0
 10
1.5622400000000001
 20
-3.8486600000000002
 30
0.0
 10
1.4555600000000002
 20
-3.6556200000000003
 30
0.0
 10
1.3768200000000002
 20
-3.4524200000000005
 30
0.0
 10
1.3107800000000001
 20
-3.2441400000000002
 30
0.0
 10
1.3107800000000001
 20
-3.2441400000000002
 30
0.0
 10
1.1406000000000001
 20
-2.8707600000000002
 30
0.0
 10
1.1279000000000001
 20
-2.4313400000000001
 30
0.0
 10
0.99582
 20
-2.0605000000000002
 30
0.0
 10
0.99582
 20
-2.0605000000000002
 30
0.0
 10
0.65546
 20
-2.7869400000000004
 30
0.0
 10
-0.02525
 20
-2.2560800000000003
 30
0.0
 10
-0.49769
 20
-2.4669000000000003
 30
0.0
 10
-0.49769
 20
-2.4669000000000003
 30
0.0
 10
-0.49769
 20
-2.4669000000000003
 30
0.0
 10
-0.57643
 20
-2.13924
 30
0.0
 10
-0.57643
 20
-2.13924
 30
0.0
 10
-0.57643
 20
-2.13924
 30
0.0
 10
-0.7466100000000001
 20
-2.4973800000000002
 30
0.0
 10
-0.6297700000000001
 20
-2.9368000000000003
 30
0.0
 10
-0.7339100000000001
 20
-3.3203400000000003
 30
0.0
 10
-0.7339100000000001
 20
-3.3203400000000003
 30
0.0
 10
-0.49769
 20
-4.6716200000000008
 30
0.0
 10
-1.8057900000000002
 20
-5.6927000000000003
 30
0.0
 10
-3.0707100000000001
 20
-5.40822
 30
0.0
 10
-3.0707100000000001
 20
-5.40822
 30
0.0
 10
-4.1908500000000002
 20
-5.0297600000000005
 30
0.0
 10
-5.5370500000000007
 20
-3.5997400000000002
 30
0.0
 10
-4.7902900000000006
 20
-2.4008600000000002
 30
0.0
 10
-4.7902900000000006
 20
-2.4008600000000002
 30
0.0
 10
-4.5439100000000003
 20
-1.9030200000000002
 30
0.0
 10
-3.9774900000000004
 20
-1.7430000000000001
 30
0.0
 10
-3.4542500000000005
 20
-1.7607800000000002
 30
0.0
 10
-3.4542500000000005
 20
-1.7607800000000002
 30
0.0
 10
-3.4085300000000003
 20
-1.9106400000000001
 30
0.0
 10
-3.6117300000000001
 20
-1.8801600000000001
 30
0.0
 10
-3.6777700000000002
 20
-1.9766800000000002
 30
0.0
 10
-3.6777700000000002
 20
-1.9766800000000002
 30
0.0
 10
-4.3127700000000004
 20
-2.4745200000000001
 30
0.0
 10
-4.1019500000000004
 20
-3.3965400000000003
 30
0.0
 10
-3.6853900000000004
 20
-3.9578800000000003
 30
0.0
 10
-3.6853900000000004
 20
-3.9578800000000003
 30
0.0
 10
-3.4542500000000005
 20
-4.2830000000000004
 30
0.0
 10
-3.1443700000000003
 20
-4.6208200000000001
 30
0.0
 10
-2.7176500000000003
 20
-4.5395400000000006
 30
0.0
 10
-2.7176500000000003
 20
-4.5395400000000006
 30
0.0
 10
-1.4273300000000002
 20
-3.9299400000000002
 30
0.0
 10
-1.3663700000000001
 20
-2.0732000000000004
 30
0.0
 10
-1.6432300000000002
 20
-0.8921000000000001
 30
0.0
 10
-1.6432300000000002
 20
-0.8921000000000001
 30
0.0
 10
-1.8692900000000001
 20
-0.86416
 30
0.0
 10
-2.0420100000000003
 20
-1.0445
 30
0.0
 10
-2.26553
 20
-0.9251200000000001
 30
0.0
 10
-2.26553
 20
-0.9251200000000001
 30
0.0
 10
-2.3823700000000003
 20
-0.8692400000000001
 30
0.0
 10
-2.48143
 20
-0.7676400000000001
 30
0.0
 10
-2.5068300000000003
 20
-0.6406400000000001
 30
0.0
 10
-2.5068300000000003
 20
-0.6406400000000001
 30
0.0
 10
-2.5373100000000002
 20
-0.34092
 30
0.0
 10
-2.1385300000000003
 20
-0.25964
 30
0.0
 10
-2.1639300000000001
 20
0.04007
 30
0.0
 10
-2.1639300000000001
 20
0.04007
 30
0.0
 10
-2.1258300000000001
 20
0.4972700000000001
 30
0.0
 10
-2.3417300000000001
 20
0.8808100000000001
 30
0.0
 10
-2.5855700000000001
 20
1.23387
 30
0.0
 10
-2.5855700000000001
 20
1.23387
 30
0.0
 10
-2.1283700000000003
 20
2.0593700000000004
 30
0.0
 10
-2.6211300000000004
 20
3.0271100000000004
 30
0.0
 10
-2.3595100000000002
 20
3.8957900000000003
 30
0.0
 10
-2.3595100000000002
 20
3.8957900000000003
 30
0.0
 10
-1.8769100000000001
 20
4.8838500000000007
 30
0.0
 10
-0.71613
 20
5.2673900000000007
 30
0.0
 10
0.2617600000000001
 20
5.4502700000000006
 30
0.0
  0
SPLINE
  5
26
100
AcDbEntity
  8
Ebene 1
 62
     7
100
AcDbSpline
210
0.0
220
0.0
230
1.0
 70
     1
 71
     3
 72
   296
 73
   292
 74
     0
 42
0.0000000001
 43
0.0000000001
 40
0.0
 40
0.0
 40
0.0
 40
0.0
 40
0.0136986301369863
 40
0.0136986301369863
 40
0.0136986301369863
 40
0.0136986301369863
 40
0.0273972602739726
 40
0.0273972602739726
 40
0.0273972602739726
 40
0.0273972602739726
 40
0.0410958904109589
 40
0.0410958904109589
 40
0.0410958904109589
 40
0.0410958904109589
 40
0.0547945205479452
 40
0.0547945205479452
 40
0.0547945205479452
 40
0.0547945205479452
 40
0.0684931506849315
 40
0.0684931506849315
 40
0.0684931506849315
 40
0.0684931506849315
 40
0.0821917808219178
 40
0.0821917808219178
 40
0.0821917808219178
 40
0.0821917808219178
 40
0.0958904109589041
 40
0.0958904109589041
 40
0.0958904109589041
 40
0.0958904109589041
 40
0.1095890410958904
 40
0.1095890410958904
 40
0.1095890410958904
 40
0.1095890410958904
 40
0.1232876712328767
 40
0.1232876712328767
 40
0.1232876712328767
 40
0.1232876712328767
 40
0.136986301369863
 40
0.136986301369863
 40
0.136986301369863
 40
0.136986301369863
 40
0.1506849315068493
 40
0.1506849315068493
 40
0.1506849315068493
 40
0.1506849315068493
 40
0.1643835616438356
 40
0.1643835616438356
 40
0.1643835616438356
 40
0.1643835616438356
 40
0.1780821917808219
 40
0.1780821917808219
 40
0.1780821917808219
 40
0.1780821917808219
 40
0.1917808219178082
 40
0.1917808219178082
 40
0.1917808219178082
 40
0.1917808219178082
 40
0.2054794520547945
 40
0.2054794520547945
 40
0.2054794520547945
 40
0.2054794520547945
 40
0.2191780821917808
 40
0.2191780821917808
 40
0.2191780821917808
 40
0.2191780821917808
 40
0.2328767123287671
 40
0.2328767123287671
 40
0.2328767123287671
 40
0.2328767123287671
 40
0.2465753424657534
 40
0.2465753424657534
 40
0.2465753424657534
 40
0.2465753424657534
 40
0.2602739726027397
 40
0.2602739726027397
 40
0.2602739726027397
 40
0.2602739726027397
 40
0.273972602739726
 40
0.273972602739726
 40
0.273972602739726
 40
0.273972602739726
 40
0.2876712328767123
 40
0.2876712328767123
 40
0.2876712328767123
 40
0.2876712328767123
 40
0.3013698630136986
 40
0.3013698630136986
 40
0.3013698630136986
 40
0.3013698630136986
 40
0.3150684931506849
 40
0.3150684931506849
 40
0.3150684931506849
 40
0.3150684931506849
 40
0.3287671232876712
 40
0.3287671232876712
 40
0.3287671232876712
 40
0.3287671232876712
 40
0.3424657534246575
 40
0.3424657534246575
 40
0.3424657534246575
 40
0.3424657534246575
 40
0.3561643835616438
 40
0.3561643835616438
 40
0.3561643835616438
 40
0.3561643835616438
 40
0.3698630136986301
 40
0.3698630136986301
 40
0.3698630136986301
 40
0.3698630136986301
 40
0.3835616438356164
 40
0.3835616438356164
 40
0.3835616438356164
 40
0.3835616438356164
 40
0.3972602739726027
 40
0.3972602739726027
 40
0.3972602739726027
 40
0.3972602739726027
 40
0.410958904109589
 40
0.410958904109589
 40
0.410958904109589
 40
0.410958904109589
 40
0.4246575342465753
 40
0.4246575342465753
 40
0.4246575342465753
 40
0.4246575342465753
 40
0.4383561643835616
 40
0.4383561643835616
 40
0.4383561643835616
 40
0.4383561643835616
 40
0.4520547945205479
 40
0.4520547945205479
 40
0.4520547945205479
 40
0.4520547945205479
 40
0.4657534246575342
 40
0.4657534246575342
 40
0.4657534246575342
 40
0.4657534246575342
 40
0.4794520547945205
 40
0.4794520547945205
 40
0.4794520547945205
 40
0.4794520547945205
 40
0.4931506849315068
 40
0.4931506849315068
 40
0.4931506849315068
 40
0.4931506849315068
 40
0.5068493150684932
 40
0.5068493150684932
 40
0.5068493150684932
 40
0.5068493150684932
 40
0.5205479452054795
 40
0.5205479452054795
 40
0.5205479452054795
 40
0.5205479452054795
 40
0.5342465753424659
 40
0.5342465753424659
 40
0.5342465753424659
 40
0.5342465753424659
 40
0.5479452054794523
 40
0.5479452054794523
 40
0.5479452054794523
 40
0.5479452054794523
 40
0.5616438356164386
 40
0.5616438356164386
 40
0.5616438356164386
 40
0.5616438356164386
 40
0.575342465753425
 40
0.575342465753425
 40
0.575342465753425
 40
0.575342465753425
 40
0.5890410958904113
 40
0.5890410958904113
 40
0.5890410958904113
 40
0.5890410958904113
 40
0.6027397260273977
 40
0.6027397260273977
 40
0.6027397260273977
 40
0.6027397260273977
 40
0.616438356164384
 40
0.616438356164384
 40
0.616438356164384
 40
0.616438356164384
 40
0.6301369863013704
 40
0.6301369863013704
 40
0.6301369863013704
 40
0.6301369863013704
 40
0.6438356164383567
 40
0.6438356164383567
 40
0.6438356164383567
 40
0.6438356164383567
 40
0.6575342465753431
 40
0.6575342465753431
 40
0.6575342465753431
 40
0.6575342465753431
 40
0.6712328767123295
 40
0.6712328767123295
 40
0.6712328767123295
 40
0.6712328767123295
 40
0.6849315068493158
 40
0.6849315068493158
 40
0.6849315068493158
 40
0.6849315068493158
 40
0.6986301369863022
 40
0.6986301369863022
 40
0.6986301369863022
 40
0.6986301369863022
 40
0.7123287671232885
 40
0.7123287671232885
 40
0.7123287671232885
 40
0.7123287671232885
 40
0.7260273972602749
 40
0.7260273972602749
 40
0.7260273972602749
 40
0.7260273972602749
 40
0.7397260273972612
 40
0.7397260273972612
 40
0.7397260273972612
 40
0.7397260273972612
 40
0.7534246575342476
 40
0.7534246575342476
 40
0.7534246575342476
 40
0.7534246575342476
 40
0.7671232876712339
 40
0.7671232876712339
 40
0.7671232876712339
 40
0.7671232876712339
 40
0.7808219178082203
 40
0.7808219178082203
 40
0.7808219178082203
 40
0.7808219178082203
 40
0.7945205479452067
 40
0.7945205479452067
 40
0.7945205479452067
 40
0.7945205479452067
 40
0.808219178082193
 40
0.808219178082193
 40
0.808219178082193
 40
0.808219178082193
 40
0.8219178082191794
 40
0.8219178082191794
 40
0.8219178082191794
 40
0.8219178082191794
 40
0.8356164383561657
 40
0.8356164383561657
 40
0.8356164383561657
 40
0.8356164383561657
 40
0.8493150684931521
 40
0.8493150684931521
 40
0.8493150684931521
 40
0.8493150684931521
 40
0.8630136986301384
 40
0.8630136986301384
 40
0.8630136986301384
 40
0.8630136986301384
 40
0.8767123287671248
 40
0.8767123287671248
 40
0.8767123287671248
 40
0.8767123287671248
 40
0.8904109589041112
 40
0.8904109589041112
 40
0.8904109589041112
 40
0.8904109589041112
 40
0.9041095890410975
 40
0.9041095890410975
 40
0.9041095890410975
 40
0.9041095890410975
 40
0.9178082191780839
 40
0.9178082191780839
 40
0.9178082191780839
 40
0.9178082191780839
 40
0.9315068493150702
 40
0.9315068493150702
 40
0.9315068493150702
 40
0.9315068493150702
 40
0.9452054794520566
 40
0.9452054794520566
 40
0.9452054794520566
 40
0.9452054794520566
 40
0.9589041095890429
 40
0.9589041095890429
 40
0.9589041095890429
 40
0.9589041095890429
 40
0.9726027397260293
 40
0.9726027397260293
 40
0.9726027397260293
 40
0.9726027397260293
 40
0.9863013698630156
 40
0.9863013698630156
 40
0.9863013698630156
 40
0.9863013698630156
 40
1.0
 40
1.0
 40
1.0
 40
1.0
 10
2.6900000000000004
 20
0.49981
 30
0.0
 10
2.9922600000000004
 20
0.4007500000000001
 30
0.0
 10
3.0049600000000001
 20
0.02737
 30
0.0
 10
2.9795600000000002
 20
-0.21646
 30
0.0
 10
2.9795600000000002
 20
-0.21646
 30
0.0
 10
2.9389200000000004
 20
-0.26472
 30
0.0
 10
2.8881200000000002
 20
-0.27742
 30
0.0
 10
2.8347800000000003
 20
-0.3002800000000001
 30
0.0
 10
2.8347800000000003
 20
-0.3002800000000001
 30
0.0
 10
2.7433400000000003
 20
-0.31806
 30
0.0
 10
2.6900000000000004
 20
-0.26726
 30
0.0
 10
2.6519000000000004
 20
-0.2063
 30
0.0
 10
2.6519000000000004
 20
-0.2063
 30
0.0
 10
2.4944200000000003
 20
-0.2571
 30
0.0
 10
2.2836000000000003
 20
-0.26218
 30
0.0
 10
2.1642200000000003
 20
-0.1428
 30
0.0
 10
2.1642200000000003
 20
-0.1428
 30
0.0
 10
1.9280000000000002
 20
-0.11232
 30
0.0
 10
1.65368
 20
-0.31552
 30
0.0
 10
1.7324200000000001
 20
-0.5441200000000001
 30
0.0
 10
1.7324200000000001
 20
-0.5441200000000001
 30
0.0
 10
1.7324200000000001
 20
-0.5441200000000001
 30
0.0
 10
1.9026000000000001
 20
-0.36632
 30
0.0
 10
1.9026000000000001
 20
-0.36632
 30
0.0
 10
1.9026000000000001
 20
-0.36632
 30
0.0
 10
1.7984600000000002
 20
-0.5771400000000001
 30
0.0
 10
1.8772000000000002
 20
-0.7320800000000001
 30
0.0
 10
1.8492600000000001
 20
-0.9302
 30
0.0
 10
1.8492600000000001
 20
-0.9302
 30
0.0
 10
1.9026000000000001
 20
-0.9606800000000001
 30
0.0
 10
1.8899000000000001
 20
-1.0064000000000002
 30
0.0
 10
1.8772000000000002
 20
-1.0572000000000001
 30
0.0
 10
1.8772000000000002
 20
-1.0572000000000001
 30
0.0
 10
1.7324200000000001
 20
-0.9352800000000001
 30
0.0
 10
1.8492600000000001
 20
-0.6635000000000001
 30
0.0
 10
1.6917800000000001
 20
-0.55174
 30
0.0
 10
1.6917800000000001
 20
-0.55174
 30
0.0
 10
1.6917800000000001
 20
-0.55174
 30
0.0
 10
1.6790800000000001
 20
-0.71938
 30
0.0
 10
1.6790800000000001
 20
-0.71938
 30
0.0
 10
1.6790800000000001
 20
-0.71938
 30
0.0
 10
1.7324200000000001
 20
-0.8540000000000001
 30
0.0
 10
1.5876400000000002
 20
-0.9556000000000001
 30
0.0
 10
1.61304
 20
-1.0622800000000001
 30
0.0
 10
1.61304
 20
-1.0622800000000001
 30
0.0
 10
1.61304
 20
-1.0622800000000001
 30
0.0
 10
1.5622400000000001
 20
-1.2324600000000001
 30
0.0
 10
1.5622400000000001
 20
-1.2324600000000001
 30
0.0
 10
1.5622400000000001
 20
-1.2324600000000001
 30
0.0
 10
1.4555600000000002
 20
-1.7074400000000001
 30
0.0
 10
1.3641200000000002
 20
-0.5365000000000001
 30
0.0
 10
1.3260200000000002
 20
-0.8997200000000001
 30
0.0
 10
1.3260200000000002
 20
-0.8997200000000001
 30
0.0
 10
1.4174600000000002
 20
-1.0927600000000002
 30
0.0
 10
1.2599800000000001
 20
-1.2781800000000001
 30
0.0
 10
1.1533
 20
-1.3975600000000001
 30
0.0
 10
1.1533
 20
-1.3975600000000001
 30
0.0
 10
1.0745600000000002
 20
-1.2172200000000002
 30
0.0
 10
1.0872600000000001
 20
-0.9251200000000001
 30
0.0
 10
0.99582
 20
-0.8133600000000001
 30
0.0
 10
0.99582
 20
-0.8133600000000001
 30
0.0
 10
0.9704200000000001
 20
-1.1435600000000001
 30
0.0
 10
1.06186
 20
-1.4509000000000001
 30
0.0
 10
1.1533
 20
-1.7582400000000002
 30
0.0
 10
1.1533
 20
-1.7582400000000002
 30
0.0
 10
0.9170800000000001
 20
-2.05288
 30
0.0
 10
0.9450200000000001
 20
-1.49916
 30
0.0
 10
0.8789800000000001
 20
-1.37978
 30
0.0
 10
0.8789800000000001
 20
-1.37978
 30
0.0
 10
0.7748400000000001
 20
-1.63124
 30
0.0
 10
1.06186
 20
-2.10114
 30
0.0
 10
0.7062600000000001
 20
-2.2002000000000002
 30
0.0
 10
0.7062600000000001
 20
-2.2002000000000002
 30
0.0
 10
0.51068
 20
-1.8750800000000001
 30
0.0
 10
0.39384
 20
-1.4737600000000002
 30
0.0
 10
0.3532
 20
-1.1130800000000001
 30
0.0
 10
0.3532
 20
-1.1130800000000001
 30
0.0
 10
0.23382
 20
-1.5626600000000002
 30
0.0
 10
0.5259200000000001
 20
-1.8700000000000001
 30
0.0
 10
0.51322
 20
-2.31704
 30
0.0
 10
0.51322
 20
-2.31704
 30
0.0
 10
-0.16749
 20
-2.5558000000000001
 30
0.0
 10
-0.15479
 20
-1.71252
 30
0.0
 10
-0.09129
 20
-1.28834
 30
0.0
 10
-0.09129
 20
-1.28834
 30
0.0
 10
-0.22337
 20
-1.4432800000000001
 30
0.0
 10
-0.26147
 20
-1.7023600000000001
 30
0.0
 10
-0.23607
 20
-1.9157200000000001
 30
0.0
 10
-0.23607
 20
-1.9157200000000001
 30
0.0
 10
-0.22337
 20
-2.10622
 30
0.0
 10
-0.29957
 20
-2.27386
 30
0.0
 10
-0.48499
 20
-2.3449800000000001
 30
0.0
 10
-0.48499
 20
-2.3449800000000001
 30
0.0
 10
-0.57643
 20
-1.8776200000000001
 30
0.0
 10
-0.6932700000000001
 20
-1.3848600000000002
 30
0.0
 10
-0.7999500000000001
 20
-0.9429000000000001
 30
0.0
 10
-0.7999500000000001
 20
-0.9429000000000001
 30
0.0
 10
-0.8583700000000001
 20
-0.9886200000000001
 30
0.0
 10
-0.7948700000000001
 20
-1.0648200000000001
 30
0.0
 10
-0.8126500000000001
 20
-1.12578
 30
0.0
 10
-0.8126500000000001
 20
-1.12578
 30
0.0
 10
-0.75931
 20
-1.4331200000000002
 30
0.0
 10
-0.6424700000000001
 20
-1.7506200000000001
 30
0.0
 10
-0.6856500000000001
 20
-2.06812
 30
0.0
 10
-0.6856500000000001
 20
-2.06812
 30
0.0
 10
-1.07681
 20
-2.1189200000000001
 30
0.0
 10
-0.8939300000000001
 20
-1.5550400000000002
 30
0.0
 10
-0.9828300000000001
 20
-1.2985000000000002
 30
0.0
 10
-0.9828300000000001
 20
-1.2985000000000002
 30
0.0
 10
-0.9828300000000001
 20
-1.2985000000000002
 30
0.0
 10
-0.9701300000000001
 20
-1.0216400000000001
 30
0.0
 10
-0.9701300000000001
 20
-1.0216400000000001
 30
0.0
 10
-0.9701300000000001
 20
-1.0216400000000001
 30
0.0
 10
-1.1784100000000002
 20
-0.8133600000000001
 30
0.0
 10
-0.9015500000000001
 20
-1.9563600000000001
 30
0.0
 10
-1.1174500000000001
 20
-1.6414000000000002
 30
0.0
 10
-1.1174500000000001
 20
-1.6414000000000002
 30
0.0
 10
-1.1174500000000001
 20
-1.6414000000000002
 30
0.0
 10
-1.1555500000000001
 20
-1.4280400000000002
 30
0.0
 10
-1.1555500000000001
 20
-1.4280400000000002
 30
0.0
 10
-1.1555500000000001
 20
-1.4280400000000002
 30
0.0
 10
-1.1555500000000001
 20
-1.4280400000000002
 30
0.0
 10
-1.16825
 20
-1.1537200000000001
 30
0.0
 10
-1.16825
 20
-1.1537200000000001
 30
0.0
 10
-1.16825
 20
-1.1537200000000001
 30
0.0
 10
-1.1834900000000002
 20
-1.0826
 30
0.0
 10
-1.1733300000000002
 20
-0.9886200000000001
 30
0.0
 10
-1.2419100000000001
 20
-0.9454400000000001
 30
0.0
 10
-1.2419100000000001
 20
-0.9454400000000001
 30
0.0
 10
-1.3130300000000001
 20
-1.1892800000000001
 30
0.0
 10
-1.0971300000000002
 20
-1.7506200000000001
 30
0.0
 10
-1.3917700000000002
 20
-1.8344400000000001
 30
0.0
 10
-1.3917700000000002
 20
-1.8344400000000001
 30
0.0
 10
-1.3917700000000002
 20
-1.8344400000000001
 30
0.0
 10
-1.4044700000000001
 20
-0.6406400000000001
 30
0.0
 10
-1.4044700000000001
 20
-0.6406400000000001
 30
0.0
 10
-1.4044700000000001
 20
-0.6406400000000001
 30
0.0
 10
-1.4247900000000002
 20
-0.4247400000000001
 30
0.0
 10
-1.4882900000000001
 20
-0.8413000000000001
 30
0.0
 10
-1.4984500000000001
 20
-0.9251200000000001
 30
0.0
 10
-1.4984500000000001
 20
-0.9251200000000001
 30
0.0
 10
-1.6254500000000001
 20
-0.8362200000000001
 30
0.0
 10
-1.6610100000000001
 20
-0.6381
 30
0.0
 10
-1.7803900000000001
 20
-0.5644400000000001
 30
0.0
 10
-1.7803900000000001
 20
-0.5644400000000001
 30
0.0
 10
-1.7905500000000001
 20
-0.6635000000000001
 30
0.0
 10
-1.6864100000000002
 20
-0.73716
 30
0.0
 10
-1.6813300000000002
 20
-0.8336800000000001
 30
0.0
 10
-1.6813300000000002
 20
-0.8336800000000001
 30
0.0
 10
-1.8667500000000001
 20
-0.7676400000000001
 30
0.0
 10
-2.22235
 20
-1.03688
 30
0.0
 10
-1.9835900000000002
 20
-0.7346200000000001
 30
0.0
 10
-1.9835900000000002
 20
-0.7346200000000001
 30
0.0
 10
-2.0928100000000001
 20
-0.8082800000000001
 30
0.0
 10
-2.31887
 20
-0.8768600000000001
 30
0.0
 10
-2.3747500000000001
 20
-0.7066800000000001
 30
0.0
 10
-2.3747500000000001
 20
-0.7066800000000001
 30
0.0
 10
-2.3899900000000001
 20
-0.59238
 30
0.0
 10
-2.3772900000000003
 20
-0.49332
 30
0.0
 10
-2.26553
 20
-0.4476000000000001
 30
0.0
 10
-2.26553
 20
-0.4476000000000001
 30
0.0
 10
-2.1283700000000003
 20
-0.7346200000000001
 30
0.0
 10
-2.06487
 20
-0.5847600000000001
 30
0.0
 10
-2.1258300000000001
 20
-0.36632
 30
0.0
 10
-2.1258300000000001
 20
-0.36632
 30
0.0
 10
-2.1258300000000001
 20
-0.36632
 30
0.0
 10
-2.0902700000000003
 20
-0.20376
 30
0.0
 10
-2.0902700000000003
 20
-0.20376
 30
0.0
 10
-2.0902700000000003
 20
-0.20376
 30
0.0
 10
-2.0572500000000002
 20
-0.02342
 30
0.0
 10
-1.9175500000000001
 20
-0.4247400000000001
 30
0.0
 10
-1.8134100000000002
 20
-0.4780800000000001
 30
0.0
 10
-1.8134100000000002
 20
-0.4780800000000001
 30
0.0
 10
-2.02677
 20
0.08071
 30
0.0
 10
-2.1309100000000001
 20
0.7284100000000001
 30
0.0
 10
-2.48143
 20
1.2211700000000001
 30
0.0
 10
-2.48143
 20
1.2211700000000001
 30
0.0
 10
-2.4712700000000001
 20
1.3329300000000002
 30
0.0
 10
-2.4230100000000001
 20
1.4319900000000001
 30
0.0
 10
-2.3722100000000004
 20
1.5335900000000002
 30
0.0
 10
-2.3722100000000004
 20
1.5335900000000002
 30
0.0
 10
-1.9835900000000002
 20
1.8333100000000002
 30
0.0
 10
-1.6584700000000001
 20
1.19577
 30
0.0
 10
-1.3866900000000002
 20
0.9443100000000001
 30
0.0
 10
-1.3866900000000002
 20
0.9443100000000001
 30
0.0
 10
-1.3841500000000002
 20
0.9239900000000001
 30
0.0
 10
-1.3511300000000002
 20
0.9011300000000001
 30
0.0
 10
-1.3282700000000001
 20
0.8960500000000001
 30
0.0
 10
-1.3282700000000001
 20
0.8960500000000001
 30
0.0
 10
-1.29525
 20
1.23641
 30
0.0
 10
-1.9632700000000001
 20
1.7063100000000002
 30
0.0
 10
-2.22743
 20
1.8434700000000002
 30
0.0
 10
-2.22743
 20
1.8434700000000002
 30
0.0
 10
-2.27569
 20
2.1177900000000003
 30
0.0
 10
-2.2909300000000004
 20
2.4048100000000003
 30
0.0
 10
-2.3061700000000003
 20
2.6892900000000002
 30
0.0
 10
-2.3061700000000003
 20
2.6892900000000002
 30
0.0
 10
-2.19441
 20
2.4479900000000003
 30
0.0
 10
-2.1639300000000001
 20
2.16859
 30
0.0
 10
-2.0369300000000004
 20
1.9349100000000001
 30
0.0
 10
-2.0369300000000004
 20
1.9349100000000001
 30
0.0
 10
-2.02677
 20
1.9577700000000002
 30
0.0
 10
-2.0064500000000001
 20
1.9882500000000001
 30
0.0
 10
-2.0293100000000002
 20
2.0136500000000002
 30
0.0
 10
-2.0293100000000002
 20
2.0136500000000002
 30
0.0
 10
-2.1715500000000003
 20
2.5572100000000004
 30
0.0
 10
-2.3772900000000003
 20
3.0804500000000004
 30
0.0
 10
-2.3366500000000001
 20
3.6773500000000001
 30
0.0
 10
-2.3366500000000001
 20
3.6773500000000001
 30
0.0
 10
-2.2960100000000003
 20
3.9008700000000003
 30
0.0
 10
-2.1613900000000004
 20
4.0913700000000004
 30
0.0
 10
-2.0293100000000002
 20
4.2767900000000001
 30
0.0
 10
-2.0293100000000002
 20
4.2767900000000001
 30
0.0
 10
-1.8007100000000003
 20
4.5409500000000005
 30
0.0
 10
-1.4857500000000001
 20
4.75685
 30
0.0
 10
-1.1403100000000002
 20
4.8178100000000006
 30
0.0
 10
-1.1403100000000002
 20
4.8178100000000006
 30
0.0
 10
-1.1047500000000001
 20
4.7060500000000003
 30
0.0
 10
-1.2800100000000001
 20
4.4444300000000005
 30
0.0
 10
-1.1174500000000001
 20
4.3885500000000004
 30
0.0
 10
-1.1174500000000001
 20
4.3885500000000004
 30
0.0
 10
-0.9904500000000001
 20
5.0286300000000006
 30
0.0
 10
-0.29957
 20
5.2673900000000007
 30
0.0
 10
0.28716
 20
5.2521500000000003
 30
0.0
 10
0.28716
 20
5.2521500000000003
 30
0.0
 10
1.1152000000000002
 20
5.1327700000000007
 30
0.0
 10
1.8111600000000001
 20
4.3885500000000004
 30
0.0
 10
1.9813400000000001
 20
3.5884500000000004
 30
0.0
 10
1.9813400000000001
 20
3.5884500000000004
 30
0.0
 10
1.9813400000000001
 20
3.5884500000000004
 30
0.0
 10
1.65368
 20
3.9516700000000005
 30
0.0
 10
1.65368
 20
3.9516700000000005
 30
0.0
 10
1.65368
 20
3.9516700000000005
 30
0.0
 10
1.4555600000000002
 20
4.1218500000000002
 30
0.0
 10
1.3641200000000002
 20
4.38347
 30
0.0
 10
1.2853800000000002
 20
4.6222300000000001
 30
0.0
 10
1.2853800000000002
 20
4.6222300000000001
 30
0.0
 10
1.2472800000000002
 20
4.5231700000000004
 30
0.0
 10
1.3107800000000001
 20
4.4063300000000005
 30
0.0
 10
1.3387200000000001
 20
4.3072699999999999
 30
0.0
 10
1.3387200000000001
 20
4.3072699999999999
 30
0.0
 10
1.6790800000000001
 20
3.7002100000000002
 30
0.0
 10
2.20486
 20
3.1337900000000003
 30
0.0
 10
2.3090000000000002
 20
2.4200500000000003
 30
0.0
 10
2.3090000000000002
 20
2.4200500000000003
 30
0.0
 10
2.2709000000000001
 20
2.4784700000000002
 30
0.0
 10
2.20486
 20
2.5495900000000002
 30
0.0
 10
2.1921600000000003
 20
2.6257900000000003
 30
0.0
 10
2.1921600000000003
 20
2.6257900000000003
 30
0.0
 10
2.0600800000000001
 20
2.88741
 30
0.0
 10
2.1642200000000003
 20
2.5343500000000003
 30
0.0
 10
2.2175600000000002
 20
2.4327500000000004
 30
0.0
 10
2.2175600000000002
 20
2.4327500000000004
 30
0.0
 10
2.3242400000000001
 20
2.1863700000000001
 30
0.0
 10
2.5198200000000002
 20
1.9831700000000001
 30
0.0
 10
2.5858600000000003
 20
1.7342500000000001
 30
0.0
 10
2.5858600000000003
 20
1.7342500000000001
 30
0.0
 10
2.6392000000000002
 20
1.6326500000000002
 30
0.0
 10
2.6239600000000003
 20
1.48533
 30
0.0
 10
2.4944200000000003
 20
1.4573900000000002
 30
0.0
 10
2.4944200000000003
 20
1.4573900000000002
 30
0.0
 10
2.3750400000000003
 20
2.0542899999999999
 30
0.0
 10
1.9026000000000001
 20
2.3540100000000002
 30
0.0
 10
1.7070200000000002
 20
2.8747100000000003
 30
0.0
 10
1.7070200000000002
 20
2.8747100000000003
 30
0.0
 10
1.6663800000000002
 20
2.8416900000000003
 30
0.0
 10
1.65368
 20
2.7832700000000004
 30
0.0
 10
1.65368
 20
2.7350100000000004
 30
0.0
 10
1.65368
 20
2.7350100000000004
 30
0.0
 10
1.5876400000000002
 20
2.3489300000000002
 30
0.0
 10
1.9026000000000001
 20
2.2778100000000001
 30
0.0
 10
2.1134200000000001
 20
2.0720700000000001
 30
0.0
 10
2.1134200000000001
 20
2.0720700000000001
 30
0.0
 10
2.1921600000000003
 20
1.7952100000000002
 30
0.0
 10
2.04738
 20
1.5031100000000002
 30
0.0
 10
2.0880200000000002
 20
1.23387
 30
0.0
 10
2.0880200000000002
 20
1.23387
 30
0.0
 10
2.0880200000000002
 20
1.23387
 30
0.0
 10
2.1515200000000001
 20
1.48787
 30
0.0
 10
2.1515200000000001
 20
1.48787
 30
0.0
 10
2.1515200000000001
 20
1.48787
 30
0.0
 10
2.1794600000000002
 20
1.5513700000000001
 30
0.0
 10
2.20486
 20
1.4980300000000002
 30
0.0
 10
2.2175600000000002
 20
1.4573900000000002
 30
0.0
 10
2.2175600000000002
 20
1.4573900000000002
 30
0.0
 10
2.1261200000000002
 20
0.9519300000000001
 30
0.0
 10
2.50712
 20
0.6039500000000001
 30
0.0
 10
2.6900000000000004
 20
0.21025
 30
0.0
 10
2.6900000000000004
 20
0.21025
 30
0.0
 10
2.8220800000000001
 20
0.22041
 30
0.0
 10
2.7154000000000003
 20
0.42361
 30
0.0
 10
2.6900000000000004
 20
0.49981
 30
0.0
  0
SPLINE
  5
27
100
AcDbEntity
  8
Ebene 1
100
AcDbSpline
210
0.0
220
0.0
230
1.0
 70
     1
 71
     3
 72
    28
 73
    24
 74
     0
 42
0.0000000001
 43
0.0000000001
 40
0.0
 40
0.0
 40
0.0
 40
0.0
 40
0.1666666666666667
 40
0.1666666666666667
 40
0.1666666666666667
 40
0.1666666666666667
 40
0.3333333333333333
 40
0.3333333333333333
 40
0.3333333333333333
 40
0.3333333333333333
 40
0.5
 40
0.5
 40
0.5
 40
0.5
 40
0.6666666666666666
 40
0.6666666666666666
 40
0.6666666666666666
 40
0.6666666666666666
 40
0.8333333333333333
 40
0.8333333333333333
 40
0.8333333333333333
 40
0.8333333333333333
 40
1.0
 40
1.0
 40
1.0
 40
1.0
 10
1.40222
 20
3.2557100000000001
 30
0.0
 10
1.5749400000000002
 20
3.3115900000000003
 30
0.0
 10
1.7832200000000002
 20
3.1642700000000001
 30
0.0
 10
1.7070200000000002
 20
2.9966300000000001
 30
0.0
 10
1.7070200000000002
 20
2.9966300000000001
 30
0.0
 10
1.6790800000000001
 20
2.9864700000000002
 30
0.0
 10
1.6663800000000002
 20
3.0144100000000003
 30
0.0
 10
1.65368
 20
3.0245700000000002
 30
0.0
 10
1.65368
 20
3.0245700000000002
 30
0.0
 10
1.5343000000000002
 20
3.2557100000000001
 30
0.0
 10
1.2599800000000001
 20
2.9813900000000002
 30
0.0
 10
1.1279000000000001
 20
2.8797900000000003
 30
0.0
 10
1.1279000000000001
 20
2.8797900000000003
 30
0.0
 10
1.1025
 20
2.8696300000000003
 30
0.0
 10
1.0872600000000001
 20
2.8772500000000001
 30
0.0
 10
1.0745600000000002
 20
2.8924900000000004
 30
0.0
 10
1.0745600000000002
 20
2.8924900000000004
 30
0.0
 10
1.1025
 20
2.9483700000000002
 30
0.0
 10
1.1660000000000001
 20
3.01187
 30
0.0
 10
1.2193400000000001
 20
3.0626700000000002
 30
0.0
 10
1.2193400000000001
 20
3.0626700000000002
 30
0.0
 10
1.2853800000000002
 20
3.1287100000000003
 30
0.0
 10
1.3514200000000001
 20
3.1769700000000003
 30
0.0
 10
1.40222
 20
3.2557100000000001
 30
0.0
  0
SPLINE
  5
28
100
AcDbEntity
  8
Ebene 1
100
AcDbSpline
210
0.0
220
0.0
230
1.0
 70
     1
 71
     3
 72
    72
 73
    68
 74
     0
 42
0.0000000001
 43
0.0000000001
 40
0.0
 40
0.0
 40
0.0
 40
0.0
 40
0.0588235294117647
 40
0.0588235294117647
 40
0.0588235294117647
 40
0.0588235294117647
 40
0.1176470588235294
 40
0.1176470588235294
 40
0.1176470588235294
 40
0.1176470588235294
 40
0.1764705882352941
 40
0.1764705882352941
 40
0.1764705882352941
 40
0.1764705882352941
 40
0.2352941176470588
 40
0.2352941176470588
 40
0.2352941176470588
 40
0.2352941176470588
 40
0.2941176470588235
 40
0.2941176470588235
 40
0.2941176470588235
 40
0.2941176470588235
 40
0.3529411764705883
 40
0.3529411764705883
 40
0.3529411764705883
 40
0.3529411764705883
 40
0.411764705882353
 40
0.411764705882353
 40
0.411764705882353
 40
0.411764705882353
 40
0.4705882352941177
 40
0.4705882352941177
 40
0.4705882352941177
 40
0.4705882352941177
 40
0.5294117647058824
 40
0.5294117647058824
 40
0.5294117647058824
 40
0.5294117647058824
 40
0.5882352941176471
 40
0.5882352941176471
 40
0.5882352941176471
 40
0.5882352941176471
 40
0.6470588235294118
 40
0.6470588235294118
 40
0.6470588235294118
 40
0.6470588235294118
 40
0.7058823529411765
 40
0.7058823529411765
 40
0.7058823529411765
 40
0.7058823529411765
 40
0.7647058823529412
 40
0.7647058823529412
 40
0.7647058823529412
 40
0.7647058823529412
 40
0.823529411764706
 40
0.823529411764706
 40
0.823529411764706
 40
0.823529411764706
 40
0.8823529411764707
 40
0.8823529411764707
 40
0.8823529411764707
 40
0.8823529411764707
 40
0.9411764705882354
 40
0.9411764705882354
 40
0.9411764705882354
 40
0.9411764705882354
 40
1.0
 40
1.0
 40
1.0
 40
1.0
 10
-0.26655
 20
1.5056500000000002
 30
0.0
 10
-0.34529
 20
1.2541900000000001
 30
0.0
 10
-0.38085
 20
1.06877
 30
0.0
 10
-0.4062500000000001
 20
0.8046100000000001
 30
0.0
 10
-0.4062500000000001
 20
0.8046100000000001
 30
0.0
 10
-0.18273
 20
0.6293500000000001
 30
0.0
 10
0.10428
 20
0.6979300000000001
 30
0.0
 10
0.3659
 20
0.7182500000000001
 30
0.0
 10
0.3659
 20
0.7182500000000001
 30
0.0
 10
0.2617600000000001
 20
0.6674500000000001
 30
0.0
 10
0.14238
 20
0.6090300000000001
 30
0.0
 10
0.01284
 20
0.6039500000000001
 30
0.0
 10
0.01284
 20
0.6039500000000001
 30
0.0
 10
-0.35291
 20
0.66491
 30
0.0
 10
-0.6881900000000001
 20
0.51759
 30
0.0
 10
-0.99299
 20
0.4515500000000001
 30
0.0
 10
-0.99299
 20
0.4515500000000001
 30
0.0
 10
-0.38085
 20
0.8147700000000001
 30
0.0
 10
-1.0641100000000001
 20
1.3913500000000001
 30
0.0
 10
-1.3663700000000001
 20
1.7571100000000002
 30
0.0
 10
-1.3663700000000001
 20
1.7571100000000002
 30
0.0
 10
-1.4806700000000002
 20
1.9120500000000002
 30
0.0
 10
-1.6584700000000001
 20
1.8637900000000001
 30
0.0
 10
-1.6178300000000001
 20
1.6707500000000002
 30
0.0
 10
-1.6178300000000001
 20
1.6707500000000002
 30
0.0
 10
-1.6813300000000002
 20
1.7317100000000001
 30
0.0
 10
-1.7067300000000001
 20
1.8358500000000002
 30
0.0
 10
-1.7448300000000001
 20
1.9171300000000002
 30
0.0
 10
-1.7448300000000001
 20
1.9171300000000002
 30
0.0
 10
-1.9175500000000001
 20
2.2422500000000003
 30
0.0
 10
-1.9327900000000002
 20
2.6613500000000001
 30
0.0
 10
-1.8489700000000002
 20
3.0067900000000001
 30
0.0
 10
-1.8489700000000002
 20
3.0067900000000001
 30
0.0
 10
-1.8388100000000001
 20
2.6969100000000004
 30
0.0
 10
-1.75753
 20
1.9806300000000001
 30
0.0
 10
-1.4451100000000001
 20
2.0847700000000002
 30
0.0
 10
-1.4451100000000001
 20
2.0847700000000002
 30
0.0
 10
-1.4451100000000001
 20
2.0847700000000002
 30
0.0
 10
-0.57643
 20
0.91129
 30
0.0
 10
-0.57643
 20
0.91129
 30
0.0
 10
-0.57643
 20
0.91129
 30
0.0
 10
-0.5637300000000001
 20
1.5869300000000002
 30
0.0
 10
0.05094
 20
2.0161900000000004
 30
0.0
 10
0.06364
 20
2.6791300000000002
 30
0.0
 10
0.06364
 20
2.6791300000000002
 30
0.0
 10
0.03824
 20
2.8264500000000004
 30
0.0
 10
0.12968
 20
2.9432900000000002
 30
0.0
 10
0.20842
 20
3.0575900000000003
 30
0.0
 10
0.20842
 20
3.0575900000000003
 30
0.0
 10
0.2617600000000001
 20
3.1033100000000005
 30
0.0
 10
0.27446
 20
3.2176100000000001
 30
0.0
 10
0.3659
 20
3.2150700000000003
 30
0.0
 10
0.3659
 20
3.2150700000000003
 30
0.0
 10
0.15508
 20
2.9712300000000003
 30
0.0
 10
0.10428
 20
2.6080100000000002
 30
0.0
 10
0.19572
 20
2.3006700000000002
 30
0.0
 10
0.19572
 20
2.3006700000000002
 30
0.0
 10
0.23382
 20
2.3057500000000002
 30
0.0
 10
0.2617600000000001
 20
2.3209900000000001
 30
0.0
 10
0.28716
 20
2.3692500000000001
 30
0.0
 10
0.28716
 20
2.3692500000000001
 30
0.0
 10
0.28716
 20
2.3692500000000001
 30
0.0
 10
0.53608
 20
2.5191100000000004
 30
0.0
 10
0.53608
 20
2.5191100000000004
 30
0.0
 10
0.53608
 20
2.5191100000000004
 30
0.0
 10
0.4802
 20
2.3819500000000002
 30
0.0
 10
-0.12685
 20
1.9958700000000003
 30
0.0
 10
-0.26655
 20
1.5056500000000002
 30
0.0
  0
SPLINE
  5
29
100
AcDbEntity
  8
Ebene 1
100
AcDbSpline
210
0.0
220
0.0
230
1.0
 70
     1
 71
     3
 72
    88
 73
    84
 74
     0
 42
0.0000000001
 43
0.0000000001
 40
0.0
 40
0.0
 40
0.0
 40
0.0
 40
0.0476190476190476
 40
0.0476190476190476
 40
0.0476190476190476
 40
0.0476190476190476
 40
0.0952380952380952
 40
0.0952380952380952
 40
0.0952380952380952
 40
0.0952380952380952
 40
0.1428571428571429
 40
0.1428571428571429
 40
0.1428571428571429
 40
0.1428571428571429
 40
0.1904761904761905
 40
0.1904761904761905
 40
0.1904761904761905
 40
0.1904761904761905
 40
0.2380952380952381
 40
0.2380952380952381
 40
0.2380952380952381
 40
0.2380952380952381
 40
0.2857142857142857
 40
0.2857142857142857
 40
0.2857142857142857
 40
0.2857142857142857
 40
0.3333333333333333
 40
0.3333333333333333
 40
0.3333333333333333
 40
0.3333333333333333
 40
0.3809523809523809
 40
0.3809523809523809
 40
0.3809523809523809
 40
0.3809523809523809
 40
0.4285714285714286
 40
0.4285714285714286
 40
0.4285714285714286
 40
0.4285714285714286
 40
0.4761904761904762
 40
0.4761904761904762
 40
0.4761904761904762
 40
0.4761904761904762
 40
0.5238095238095237
 40
0.5238095238095237
 40
0.5238095238095237
 40
0.5238095238095237
 40
0.5714285714285714
 40
0.5714285714285714
 40
0.5714285714285714
 40
0.5714285714285714
 40
0.6190476190476191
 40
0.6190476190476191
 40
0.6190476190476191
 40
0.6190476190476191
 40
0.6666666666666667
 40
0.6666666666666667
 40
0.6666666666666667
 40
0.6666666666666667
 40
0.7142857142857144
 40
0.7142857142857144
 40
0.7142857142857144
 40
0.7142857142857144
 40
0.7619047619047621
 40
0.7619047619047621
 40
0.7619047619047621
 40
0.7619047619047621
 40
0.8095238095238098
 40
0.8095238095238098
 40
0.8095238095238098
 40
0.8095238095238098
 40
0.8571428571428574
 40
0.8571428571428574
 40
0.8571428571428574
 40
0.8571428571428574
 40
0.9047619047619051
 40
0.9047619047619051
 40
0.9047619047619051
 40
0.9047619047619051
 40
0.9523809523809528
 40
0.9523809523809528
 40
0.9523809523809528
 40
0.9523809523809528
 40
1.0
 40
1.0
 40
1.0
 40
1.0
 10
0.61736
 20
-0.20376
 30
0.0
 10
0.61736
 20
-0.15042
 30
0.0
 10
0.61736
 20
-0.4374400000000001
 30
0.0
 10
0.6300600000000001
 20
-0.50856
 30
0.0
 10
0.6300600000000001
 20
-0.50856
 30
0.0
 10
0.6300600000000001
 20
-0.50856
 30
0.0
 10
0.68086
 20
-0.74224
 30
0.0
 10
0.68086
 20
-0.74224
 30
0.0
 10
0.68086
 20
-0.74224
 30
0.0
 10
0.45734
 20
-0.3841000000000001
 30
0.0
 10
0.5233800000000001
 20
0.12135
 30
0.0
 10
0.2617600000000001
 20
0.46933
 30
0.0
 10
0.2617600000000001
 20
0.46933
 30
0.0
 10
0.19572
 20
0.47695
 30
0.0
 10
0.14238
 20
0.43377
 30
0.0
 10
0.08904
 20
0.41853
 30
0.0
 10
0.08904
 20
0.41853
 30
0.0
 10
0.08904
 20
0.41853
 30
0.0
 10
0.17032
 20
0.3270900000000001
 30
0.0
 10
0.17032
 20
0.3270900000000001
 30
0.0
 10
0.17032
 20
0.3270900000000001
 30
0.0
 10
0.27446
 20
0.11881
 30
0.0
 10
0.3252600000000001
 20
-0.10978
 30
0.0
 10
0.3786000000000001
 20
-0.32314
 30
0.0
 10
0.3786000000000001
 20
-0.32314
 30
0.0
 10
0.3786000000000001
 20
-0.32314
 30
0.0
 10
0.19572
 20
0.00451
 30
0.0
 10
0.19572
 20
0.00451
 30
0.0
 10
0.19572
 20
0.00451
 30
0.0
 10
0.14238
 20
0.11373
 30
0.0
 10
0.08904
 20
0.23565
 30
0.0
 10
-0.02525
 20
0.29915
 30
0.0
 10
-0.02525
 20
0.29915
 30
0.0
 10
-0.09129
 20
0.3804300000000001
 30
0.0
 10
-0.20813
 20
0.34487
 30
0.0
 10
-0.28687
 20
0.35249
 30
0.0
 10
-0.28687
 20
0.35249
 30
0.0
 10
-0.4062500000000001
 20
0.4413900000000001
 30
0.0
 10
-0.48499
 20
0.6471300000000001
 30
0.0
 10
-0.29957
 20
0.51251
 30
0.0
 10
-0.29957
 20
0.51251
 30
0.0
 10
0.05094
 20
0.4744100000000001
 30
0.0
 10
0.64276
 20
0.53537
 30
0.0
 10
0.78754
 20
0.9443100000000001
 30
0.0
 10
0.78754
 20
0.9443100000000001
 30
0.0
 10
0.7215
 20
1.5081900000000001
 30
0.0
 10
0.7062600000000001
 20
2.1406500000000004
 30
0.0
 10
1.0110600000000001
 20
2.6232500000000001
 30
0.0
 10
1.0110600000000001
 20
2.6232500000000001
 30
0.0
 10
1.0110600000000001
 20
2.6232500000000001
 30
0.0
 10
0.9450200000000001
 20
2.1050900000000001
 30
0.0
 10
0.9450200000000001
 20
2.1050900000000001
 30
0.0
 10
0.9450200000000001
 20
2.1050900000000001
 30
0.0
 10
1.2193400000000001
 20
2.2778100000000001
 30
0.0
 10
1.5470000000000002
 20
2.08223
 30
0.0
 10
1.7070200000000002
 20
1.8510900000000001
 30
0.0
 10
1.7070200000000002
 20
1.8510900000000001
 30
0.0
 10
1.6257400000000002
 20
1.78251
 30
0.0
 10
1.6003400000000001
 20
1.9653900000000002
 30
0.0
 10
1.5216000000000001
 20
1.9831700000000001
 30
0.0
 10
1.5216000000000001
 20
1.9831700000000001
 30
0.0
 10
1.19394
 20
1.6605900000000002
 30
0.0
 10
1.6003400000000001
 20
1.2008500000000002
 30
0.0
 10
1.5089000000000001
 20
0.78937
 30
0.0
 10
1.5089000000000001
 20
0.78937
 30
0.0
 10
1.5216000000000001
 20
0.29407
 30
0.0
 10
0.85104
 20
0.04769
 30
0.0
 10
0.5894200000000001
 20
0.48203
 30
0.0
 10
0.5894200000000001
 20
0.48203
 30
0.0
 10
0.5894200000000001
 20
0.48203
 30
0.0
 10
0.48528
 20
0.4845700000000001
 30
0.0
 10
0.48528
 20
0.4845700000000001
 30
0.0
 10
0.48528
 20
0.4845700000000001
 30
0.0
 10
0.3405
 20
0.17215
 30
0.0
 10
0.68086
 20
0.01213
 30
0.0
 10
0.78754
 20
-0.24948
 30
0.0
 10
0.78754
 20
-0.24948
 30
0.0
 10
0.9297800000000001
 20
-0.59492
 30
0.0
 10
0.9043800000000001
 20
-1.0241800000000001
 30
0.0
 10
0.9704200000000001
 20
-1.3594600000000001
 30
0.0
 10
0.9704200000000001
 20
-1.3594600000000001
 30
0.0
 10
0.78754
 20
-1.00386
 30
0.0
 10
0.9196200000000001
 20
-0.5212600000000001
 30
0.0
 10
0.61736
 20
-0.20376
 30
0.0
  0
SPLINE
  5
2A
100
AcDbEntity
  8
Ebene 1
100
AcDbSpline
210
0.0
220
0.0
230
1.0
 70
     1
 71
     3
 72
    84
 73
    80
 74
     0
 42
0.0000000001
 43
0.0000000001
 40
0.0
 40
0.0
 40
0.0
 40
0.0
 40
0.05
 40
0.05
 40
0.05
 40
0.05
 40
0.1
 40
0.1
 40
0.1
 40
0.1
 40
0.15
 40
0.15
 40
0.15
 40
0.15
 40
0.2
 40
0.2
 40
0.2
 40
0.2
 40
0.25
 40
0.25
 40
0.25
 40
0.25
 40
0.3
 40
0.3
 40
0.3
 40
0.3
 40
0.35
 40
0.35
 40
0.35
 40
0.35
 40
0.4
 40
0.4
 40
0.4
 40
0.4
 40
0.45
 40
0.45
 40
0.45
 40
0.45
 40
0.4999999999999999
 40
0.4999999999999999
 40
0.4999999999999999
 40
0.4999999999999999
 40
0.5499999999999999
 40
0.5499999999999999
 40
0.5499999999999999
 40
0.5499999999999999
 40
0.6
 40
0.6
 40
0.6
 40
0.6
 40
0.65
 40
0.65
 40
0.65
 40
0.65
 40
0.7000000000000001
 40
0.7000000000000001
 40
0.7000000000000001
 40
0.7000000000000001
 40
0.7500000000000001
 40
0.7500000000000001
 40
0.7500000000000001
 40
0.7500000000000001
 40
0.8000000000000002
 40
0.8000000000000002
 40
0.8000000000000002
 40
0.8000000000000002
 40
0.8500000000000002
 40
0.8500000000000002
 40
0.8500000000000002
 40
0.8500000000000002
 40
0.9000000000000002
 40
0.9000000000000002
 40
0.9000000000000002
 40
0.9000000000000002
 40
0.9500000000000003
 40
0.9500000000000003
 40
0.9500000000000003
 40
0.9500000000000003
 40
1.0
 40
1.0
 40
1.0
 40
1.0
 10
-1.00061
 20
0.24327
 30
0.0
 10
-1.2342900000000001
 20
0.18993
 30
0.0
 10
-0.9853700000000001
 20
-0.54666
 30
0.0
 10
-1.16825
 20
-0.2063
 30
0.0
 10
-1.16825
 20
-0.2063
 30
0.0
 10
-1.1834900000000002
 20
-0.12248
 30
0.0
 10
-1.1809500000000002
 20
-0.03358
 30
0.0
 10
-1.1809500000000002
 20
0.05277
 30
0.0
 10
-1.1809500000000002
 20
0.05277
 30
0.0
 10
-1.1834900000000002
 20
0.5252100000000001
 30
0.0
 10
-1.5213100000000002
 20
0.05023
 30
0.0
 10
-1.4324100000000002
 20
-0.23932
 30
0.0
 10
-1.4324100000000002
 20
-0.23932
 30
0.0
 10
-1.4933700000000001
 20
-0.23932
 30
0.0
 10
-1.5187700000000002
 20
-0.19614
 30
0.0
 10
-1.5365500000000001
 20
-0.15296
 30
0.0
 10
-1.5365500000000001
 20
-0.15296
 30
0.0
 10
-1.5644900000000002
 20
0.05785
 30
0.0
 10
-1.6152900000000001
 20
-0.14026
 30
0.0
 10
-1.6635500000000001
 20
-0.12502
 30
0.0
 10
-1.6635500000000001
 20
-0.12502
 30
0.0
 10
-1.7753100000000002
 20
-0.10978
 30
0.0
 10
-1.8438900000000003
 20
-0.01834
 30
0.0
 10
-1.9124700000000001
 20
0.07055
 30
0.0
 10
-1.9124700000000001
 20
0.07055
 30
0.0
 10
-1.8159500000000002
 20
0.51505
 30
0.0
 10
-2.3595100000000002
 20
0.7969900000000001
 30
0.0
 10
-2.2045700000000004
 20
1.2211700000000001
 30
0.0
 10
-2.2045700000000004
 20
1.2211700000000001
 30
0.0
 10
-2.22743
 20
1.2922900000000002
 30
0.0
 10
-2.3290300000000004
 20
1.1322700000000001
 30
0.0
 10
-2.3595100000000002
 20
1.10687
 30
0.0
 10
-2.3595100000000002
 20
1.10687
 30
0.0
 10
-2.40015
 20
1.2186300000000001
 30
0.0
 10
-2.2883900000000001
 20
1.35833
 30
0.0
 10
-2.1639300000000001
 20
1.3659500000000002
 30
0.0
 10
-2.1639300000000001
 20
1.3659500000000002
 30
0.0
 10
-1.7829300000000001
 20
1.1373500000000001
 30
0.0
 10
-1.7041900000000001
 20
0.6877700000000001
 30
0.0
 10
-1.46543
 20
0.3575700000000001
 30
0.0
 10
-1.46543
 20
0.3575700000000001
 30
0.0
 10
-1.1326900000000002
 20
0.19501
 30
0.0
 10
-0.7694700000000001
 20
0.4312300000000001
 30
0.0
 10
-0.48499
 20
0.48203
 30
0.0
 10
-0.48499
 20
0.48203
 30
0.0
 10
-0.5637300000000001
 20
0.18739
 30
0.0
 10
-0.58913
 20
-0.18852
 30
0.0
 10
-0.51039
 20
-0.5187200000000001
 30
0.0
 10
-0.51039
 20
-0.5187200000000001
 30
0.0
 10
-0.4595900000000001
 20
-0.4984000000000001
 30
0.0
 10
-0.49769
 20
-0.3333
 30
0.0
 10
-0.43165
 20
-0.36632
 30
0.0
 10
-0.43165
 20
-0.36632
 30
0.0
 10
-0.43165
 20
-0.36632
 30
0.0
 10
-0.41895
 20
-0.7066800000000001
 30
0.0
 10
-0.41895
 20
-0.7066800000000001
 30
0.0
 10
-0.41895
 20
-0.7066800000000001
 30
0.0
 10
-0.39355
 20
-0.8794000000000001
 30
0.0
 10
-0.3656100000000001
 20
-1.0546600000000002
 30
0.0
 10
-0.31481
 20
-1.2146800000000002
 30
0.0
 10
-0.31481
 20
-1.2146800000000002
 30
0.0
 10
-0.43165
 20
-1.1334000000000002
 30
0.0
 10
-0.43165
 20
-0.9378200000000001
 30
0.0
 10
-0.49769
 20
-0.8108200000000001
 30
0.0
 10
-0.49769
 20
-0.8108200000000001
 30
0.0
 10
-0.6297700000000001
 20
-0.44252
 30
0.0
 10
-0.61707
 20
-0.06406
 30
0.0
 10
-0.6704100000000001
 20
0.31185
 30
0.0
 10
-0.6704100000000001
 20
0.31185
 30
0.0
 10
-0.6704100000000001
 20
0.31185
 30
0.0
 10
-0.71613
 20
0.24581
 30
0.0
 10
-0.71613
 20
0.24581
 30
0.0
 10
-0.71613
 20
0.24581
 30
0.0
 10
-0.78471
 20
0.14167
 30
0.0
 10
-0.7999500000000001
 20
0.01721
 30
0.0
 10
-0.7999500000000001
 20
-0.08946
 30
0.0
 10
-0.7999500000000001
 20
-0.08946
 30
0.0
 10
-0.9650500000000001
 20
0.00451
 30
0.0
 10
-0.9625100000000001
 20
0.15945
 30
0.0
 10
-1.00061
 20
0.24327
 30
0.0
  0
SPLINE
  5
2B
100
AcDbEntity
  8
Ebene 1
 62
     7
100
AcDbSpline
210
0.0
220
0.0
230
1.0
 70
     1
 71
     3
 72
    16
 73
    12
 74
     0
 42
0.0000000001
 43
0.0000000001
 40
0.0
 40
0.0
 40
0.0
 40
0.0
 40
0.3333333333333333
 40
0.3333333333333333
 40
0.3333333333333333
 40
0.3333333333333333
 40
0.6666666666666666
 40
0.6666666666666666
 40
0.6666666666666666
 40
0.6666666666666666
 40
1.0
 40
1.0
 40
1.0
 40
1.0
 10
1.0491600000000001
 20
1.1170300000000002
 30
0.0
 10
1.1152000000000002
 20
1.02051
 30
0.0
 10
1.1279000000000001
 20
0.8884300000000001
 30
0.0
 10
1.1152000000000002
 20
0.76651
 30
0.0
 10
1.1152000000000002
 20
0.76651
 30
0.0
 10
1.1152000000000002
 20
0.76651
 30
0.0
 10
0.9577200000000001
 20
0.72587
 30
0.0
 10
0.9577200000000001
 20
0.72587
 30
0.0
 10
0.9577200000000001
 20
0.72587
 30
0.0
 10
1.0110600000000001
 20
0.84779
 30
0.0
 10
1.0491600000000001
 20
0.9798700000000001
 30
0.0
 10
1.0491600000000001
 20
1.1170300000000002
 30
0.0
  0
SPLINE
  5
2C
100
AcDbEntity
  8
Ebene 1
100
AcDbSpline
210
0.0
220
0.0
230
1.0
 70
     1
 71
     3
 72
    56
 73
    52
 74
     0
 42
0.0000000001
 43
0.0000000001
 40
0.0
 40
0.0
 40
0.0
 40
0.0
 40
0.0769230769230769
 40
0.0769230769230769
 40
0.0769230769230769
 40
0.0769230769230769
 40
0.1538461538461539
 40
0.1538461538461539
 40
0.1538461538461539
 40
0.1538461538461539
 40
0.2307692307692308
 40
0.2307692307692308
 40
0.2307692307692308
 40
0.2307692307692308
 40
0.3076923076923077
 40
0.3076923076923077
 40
0.3076923076923077
 40
0.3076923076923077
 40
0.3846153846153846
 40
0.3846153846153846
 40
0.3846153846153846
 40
0.3846153846153846
 40
0.4615384615384616
 40
0.4615384615384616
 40
0.4615384615384616
 40
0.4615384615384616
 40
0.5384615384615386
 40
0.5384615384615386
 40
0.5384615384615386
 40
0.5384615384615386
 40
0.6153846153846154
 40
0.6153846153846154
 40
0.6153846153846154
 40
0.6153846153846154
 40
0.6923076923076923
 40
0.6923076923076923
 40
0.6923076923076923
 40
0.6923076923076923
 40
0.7692307692307692
 40
0.7692307692307692
 40
0.7692307692307692
 40
0.7692307692307692
 40
0.846153846153846
 40
0.846153846153846
 40
0.846153846153846
 40
0.846153846153846
 40
0.9230769230769229
 40
0.9230769230769229
 40
0.9230769230769229
 40
0.9230769230769229
 40
1.0
 40
1.0
 40
1.0
 40
1.0
 10
1.8238600000000003
 20
0.7614300000000001
 30
0.0
 10
1.8365600000000002
 20
0.7512700000000001
 30
0.0
 10
1.8772000000000002
 20
0.74873
 30
0.0
 10
1.8619600000000001
 20
0.72587
 30
0.0
 10
1.8619600000000001
 20
0.72587
 30
0.0
 10
1.8238600000000003
 20
0.6928500000000001
 30
0.0
 10
1.8111600000000001
 20
0.65729
 30
0.0
 10
1.7578200000000002
 20
0.63951
 30
0.0
 10
1.7578200000000002
 20
0.63951
 30
0.0
 10
1.7070200000000002
 20
0.2737500000000001
 30
0.0
 10
1.6384400000000001
 20
-0.1301
 30
0.0
 10
1.5470000000000002
 20
-0.50856
 30
0.0
 10
1.5470000000000002
 20
-0.50856
 30
0.0
 10
1.4301600000000001
 20
-0.4857
 30
0.0
 10
1.5216000000000001
 20
-0.1301
 30
0.0
 10
1.4682600000000001
 20
-0.16312
 30
0.0
 10
1.4682600000000001
 20
-0.16312
 30
0.0
 10
1.4682600000000001
 20
-0.16312
 30
0.0
 10
1.3260200000000002
 20
-0.33584
 30
0.0
 10
1.3260200000000002
 20
-0.33584
 30
0.0
 10
1.3260200000000002
 20
-0.33584
 30
0.0
 10
1.2853800000000002
 20
-0.27488
 30
0.0
 10
1.3107800000000001
 20
-0.19106
 30
0.0
 10
1.2980800000000001
 20
-0.11994
 30
0.0
 10
1.2980800000000001
 20
-0.11994
 30
0.0
 10
1.23204
 20
-0.1174
 30
0.0
 10
1.1660000000000001
 20
-0.1809
 30
0.0
 10
1.1812400000000001
 20
-0.24694
 30
0.0
 10
1.1812400000000001
 20
-0.24694
 30
0.0
 10
1.1533
 20
-0.35616
 30
0.0
 10
1.2193400000000001
 20
-0.49332
 30
0.0
 10
1.1660000000000001
 20
-0.5746
 30
0.0
 10
1.1660000000000001
 20
-0.5746
 30
0.0
 10
1.06186
 20
-0.47046
 30
0.0
 10
1.1152000000000002
 20
-0.25456
 30
0.0
 10
1.0110600000000001
 20
-0.1682
 30
0.0
 10
1.0110600000000001
 20
-0.1682
 30
0.0
 10
0.9450200000000001
 20
-0.16058
 30
0.0
 10
0.8383400000000001
 20
-0.20376
 30
0.0
 10
0.8383400000000001
 20
-0.1047
 30
0.0
 10
0.8383400000000001
 20
-0.1047
 30
0.0
 10
1.02376
 20
-0.05136
 30
0.0
 10
1.27268
 20
-0.0666
 30
0.0
 10
1.4555600000000002
 20
0.04261
 30
0.0
 10
1.4555600000000002
 20
0.04261
 30
0.0
 10
1.5749400000000002
 20
0.23311
 30
0.0
 10
1.7197200000000001
 20
0.42361
 30
0.0
 10
1.65368
 20
0.6674500000000001
 30
0.0
 10
1.65368
 20
0.6674500000000001
 30
0.0
 10
1.6917800000000001
 20
0.7284100000000001
 30
0.0
 10
1.7705200000000001
 20
0.7360300000000001
 30
0.0
 10
1.8238600000000003
 20
0.7614300000000001
 30
0.0
  0
SPLINE
  5
2D
100
AcDbEntity
  8
Ebene 1
 62
     7
100
AcDbSpline
210
0.0
220
0.0
230
1.0
 70
     1
 71
     3
 72
    12
 73
     8
 74
     0
 42
0.0000000001
 43
0.0000000001
 40
0.0
 40
0.0
 40
0.0
 40
0.0
 40
0.5
 40
0.5
 40
0.5
 40
0.5
 40
1.0
 40
1.0
 40
1.0
 40
1.0
 10
-1.8642100000000001
 20
0.53791
 30
0.0
 10
-1.7905500000000001
 20
0.51251
 30
0.0
 10
-1.7118100000000001
 20
0.4109100000000001
 30
0.0
 10
-1.6940300000000001
 20
0.33217
 30
0.0
 10
-1.6940300000000001
 20
0.33217
 30
0.0
 10
-1.8235700000000001
 20
0.27121
 30
0.0
 10
-1.8007100000000003
 20
0.47187
 30
0.0
 10
-1.8642100000000001
 20
0.53791
 30
0.0
  0
SPLINE
  5
2E
100
AcDbEntity
  8
Ebene 1
 62
     7
100
AcDbSpline
210
0.0
220
0.0
230
1.0
 70
     1
 71
     3
 72
   108
 73
   104
 74
     0
 42
0.0000000001
 43
0.0000000001
 40
0.0
 40
0.0
 40
0.0
 40
0.0
 40
0.0384615384615385
 40
0.0384615384615385
 40
0.0384615384615385
 40
0.0384615384615385
 40
0.0769230769230769
 40
0.0769230769230769
 40
0.0769230769230769
 40
0.0769230769230769
 40
0.1153846153846154
 40
0.1153846153846154
 40
0.1153846153846154
 40
0.1153846153846154
 40
0.1538461538461539
 40
0.1538461538461539
 40
0.1538461538461539
 40
0.1538461538461539
 40
0.1923076923076923
 40
0.1923076923076923
 40
0.1923076923076923
 40
0.1923076923076923
 40
0.2307692307692308
 40
0.2307692307692308
 40
0.2307692307692308
 40
0.2307692307692308
 40
0.2692307692307693
 40
0.2692307692307693
 40
0.2692307692307693
 40
0.2692307692307693
 40
0.3076923076923077
 40
0.3076923076923077
 40
0.3076923076923077
 40
0.3076923076923077
 40
0.3461538461538462
 40
0.3461538461538462
 40
0.3461538461538462
 40
0.3461538461538462
 40
0.3846153846153846
 40
0.3846153846153846
 40
0.3846153846153846
 40
0.3846153846153846
 40
0.423076923076923
 40
0.423076923076923
 40
0.423076923076923
 40
0.423076923076923
 40
0.4615384615384615
 40
0.4615384615384615
 40
0.4615384615384615
 40
0.4615384615384615
 40
0.4999999999999999
 40
0.4999999999999999
 40
0.4999999999999999
 40
0.4999999999999999
 40
0.5384615384615383
 40
0.5384615384615383
 40
0.5384615384615383
 40
0.5384615384615383
 40
0.5769230769230768
 40
0.5769230769230768
 40
0.5769230769230768
 40
0.5769230769230768
 40
0.6153846153846152
 40
0.6153846153846152
 40
0.6153846153846152
 40
0.6153846153846152
 40
0.6538461538461536
 40
0.6538461538461536
 40
0.6538461538461536
 40
0.6538461538461536
 40
0.6923076923076921
 40
0.6923076923076921
 40
0.6923076923076921
 40
0.6923076923076921
 40
0.7307692307692305
 40
0.7307692307692305
 40
0.7307692307692305
 40
0.7307692307692305
 40
0.7692307692307689
 40
0.7692307692307689
 40
0.7692307692307689
 40
0.7692307692307689
 40
0.8076923076923074
 40
0.8076923076923074
 40
0.8076923076923074
 40
0.8076923076923074
 40
0.8461538461538458
 40
0.8461538461538458
 40
0.8461538461538458
 40
0.8461538461538458
 40
0.8846153846153843
 40
0.8846153846153843
 40
0.8846153846153843
 40
0.8846153846153843
 40
0.9230769230769227
 40
0.9230769230769227
 40
0.9230769230769227
 40
0.9230769230769227
 40
0.9615384615384611
 40
0.9615384615384611
 40
0.9615384615384611
 40
0.9615384615384611
 40
1.0
 40
1.0
 40
1.0
 40
1.0
 10
1.7197200000000001
 20
-1.0089400000000002
 30
0.0
 10
2.1642200000000003
 20
-1.6363200000000002
 30
0.0
 10
2.1794600000000002
 20
-2.4567400000000004
 30
0.0
 10
2.5325200000000003
 20
-3.1374600000000004
 30
0.0
 10
2.5325200000000003
 20
-3.1374600000000004
 30
0.0
 10
2.4410800000000004
 20
-3.1146000000000003
 30
0.0
 10
2.3750400000000003
 20
-2.8606000000000003
 30
0.0
 10
2.2836000000000003
 20
-2.7844000000000002
 30
0.0
 10
2.2836000000000003
 20
-2.7844000000000002
 30
0.0
 10
2.50712
 20
-3.3152600000000003
 30
0.0
 10
2.7966800000000003
 20
-3.9528000000000003
 30
0.0
 10
3.3605600000000004
 20
-4.2017200000000008
 30
0.0
 10
3.3605600000000004
 20
-4.2017200000000008
 30
0.0
 10
3.2945200000000003
 20
-4.3642799999999999
 30
0.0
 10
2.9922600000000004
 20
-4.2703000000000007
 30
0.0
 10
3.0049600000000001
 20
-4.35412
 30
0.0
 10
3.0049600000000001
 20
-4.35412
 30
0.0
 10
3.5307400000000002
 20
-4.40238
 30
0.0
 10
4.0692200000000005
 20
-3.9248600000000002
 30
0.0
 10
4.2648000000000001
 20
-3.4676600000000004
 30
0.0
 10
4.2648000000000001
 20
-3.4676600000000004
 30
0.0
 10
4.2927400000000002
 20
-3.7292800000000002
 30
0.0
 10
4.2394000000000007
 20
-4.0163000000000002
 30
0.0
 10
4.2013000000000007
 20
-4.2728400000000004
 30
0.0
 10
4.2013000000000007
 20
-4.2728400000000004
 30
0.0
 10
4.4502200000000007
 20
-3.7927800000000005
 30
0.0
 10
4.3587800000000003
 20
-3.2035000000000005
 30
0.0
 10
4.4502200000000007
 20
-2.6751800000000001
 30
0.0
 10
4.4502200000000007
 20
-2.6751800000000001
 30
0.0
 10
4.4502200000000007
 20
-2.6751800000000001
 30
0.0
 10
4.3968800000000003
 20
-1.8776200000000001
 30
0.0
 10
4.3968800000000003
 20
-1.8776200000000001
 30
0.0
 10
4.3968800000000003
 20
-1.8776200000000001
 30
0.0
 10
4.8845600000000005
 20
-2.0986000000000002
 30
0.0
 10
4.9887000000000006
 20
-2.7005800000000004
 30
0.0
 10
4.8693200000000001
 20
-3.1755600000000004
 30
0.0
 10
4.8693200000000001
 20
-3.1755600000000004
 30
0.0
 10
4.8693200000000001
 20
-3.5921200000000004
 30
0.0
 10
4.55436
 20
-3.9350200000000002
 30
0.0
 10
4.4883200000000008
 20
-4.3134800000000002
 30
0.0
 10
4.4883200000000008
 20
-4.3134800000000002
 30
0.0
 10
4.6204000000000001
 20
-4.1788600000000002
 30
0.0
 10
4.6610400000000007
 20
-3.9350200000000002
 30
0.0
 10
4.7905800000000003
 20
-3.7826200000000001
 30
0.0
 10
4.7905800000000003
 20
-3.7826200000000001
 30
0.0
 10
4.7524800000000003
 20
-4.1229800000000001
 30
0.0
 10
4.5696000000000003
 20
-4.4430200000000006
 30
0.0
 10
4.34354
 20
-4.7071800000000001
 30
0.0
 10
4.34354
 20
-4.7071800000000001
 30
0.0
 10
4.16066
 20
-4.8164000000000007
 30
0.0
 10
3.9650800000000004
 20
-4.8697400000000002
 30
0.0
 10
3.7669600000000001
 20
-4.9180000000000001
 30
0.0
 10
3.7669600000000001
 20
-4.9180000000000001
 30
0.0
 10
3.8584000000000005
 20
-4.8316400000000002
 30
0.0
 10
4.0819200000000002
 20
-4.7224200000000005
 30
0.0
 10
4.0285800000000007
 20
-4.6208200000000001
 30
0.0
 10
4.0285800000000007
 20
-4.6208200000000001
 30
0.0
 10
3.6094800000000005
 20
-5.07294
 30
0.0
 10
2.8347800000000003
 20
-5.2253400000000001
 30
0.0
 10
2.3750400000000003
 20
-4.7808400000000004
 30
0.0
 10
2.3750400000000003
 20
-4.7808400000000004
 30
0.0
 10
2.6239600000000003
 20
-4.8189400000000004
 30
0.0
 10
2.8601800000000002
 20
-4.8595800000000002
 30
0.0
 10
3.0964
 20
-4.9180000000000001
 30
0.0
 10
3.0964
 20
-4.9180000000000001
 30
0.0
 10
3.1624400000000001
 20
-4.86212
 30
0.0
 10
2.9795600000000002
 20
-4.8468800000000005
 30
0.0
 10
2.9262200000000003
 20
-4.8265600000000006
 30
0.0
 10
2.9262200000000003
 20
-4.8265600000000006
 30
0.0
 10
2.9262200000000003
 20
-4.8265600000000006
 30
0.0
 10
2.8093800000000004
 20
-4.7910000000000004
 30
0.0
 10
2.8093800000000004
 20
-4.7910000000000004
 30
0.0
 10
2.8093800000000004
 20
-4.7910000000000004
 30
0.0
 10
1.61304
 20
-4.5497000000000005
 30
0.0
 10
1.27268
 20
-3.1730200000000002
 30
0.0
 10
1.19394
 20
-2.1544800000000004
 30
0.0
 10
1.19394
 20
-2.1544800000000004
 30
0.0
 10
1.3107800000000001
 20
-2.5050000000000003
 30
0.0
 10
1.4174600000000002
 20
-2.8758400000000002
 30
0.0
 10
1.5470000000000002
 20
-3.2263600000000001
 30
0.0
 10
1.5470000000000002
 20
-3.2263600000000001
 30
0.0
 10
1.6663800000000002
 20
-3.5006800000000005
 30
0.0
 10
1.9813400000000001
 20
-4.0747200000000001
 30
0.0
 10
2.0600800000000001
 20
-4.1179000000000006
 30
0.0
 10
2.0600800000000001
 20
-4.1179000000000006
 30
0.0
 10
2.0600800000000001
 20
-4.1179000000000006
 30
0.0
 10
1.8492600000000001
 20
-3.7216600000000004
 30
0.0
 10
1.8492600000000001
 20
-3.7216600000000004
 30
0.0
 10
1.8492600000000001
 20
-3.7216600000000004
 30
0.0
 10
1.7832200000000002
 20
-3.5845000000000002
 30
0.0
 10
1.7197200000000001
 20
-3.4397200000000003
 30
0.0
 10
1.6663800000000002
 20
-3.2924000000000002
 30
0.0
 10
1.6663800000000002
 20
-3.2924000000000002
 30
0.0
 10
1.4555600000000002
 20
-2.73868
 30
0.0
 10
1.23204
 20
-2.1163800000000004
 30
0.0
 10
1.40222
 20
-1.5347200000000001
 30
0.0
 10
1.40222
 20
-1.5347200000000001
 30
0.0
 10
1.40222
 20
-1.5347200000000001
 30
0.0
 10
1.7984600000000002
 20
-2.26878
 30
0.0
 10
1.7984600000000002
 20
-2.26878
 30
0.0
 10
1.7984600000000002
 20
-2.26878
 30
0.0
 10
1.6917800000000001
 20
-1.8725400000000001
 30
0.0
 10
1.5622400000000001
 20
-1.42042
 30
0.0
 10
1.7197200000000001
 20
-1.0089400000000002
 30
0.0
  0
SPLINE
  5
2F
100
AcDbEntity
  8
Ebene 1
 62
     7
100
AcDbSpline
210
0.0
220
0.0
230
1.0
 70
     1
 71
     3
 72
   116
 73
   112
 74
     0
 42
0.0000000001
 43
0.0000000001
 40
0.0
 40
0.0
 40
0.0
 40
0.0
 40
0.0357142857142857
 40
0.0357142857142857
 40
0.0357142857142857
 40
0.0357142857142857
 40
0.0714285714285714
 40
0.0714285714285714
 40
0.0714285714285714
 40
0.0714285714285714
 40
0.1071428571428571
 40
0.1071428571428571
 40
0.1071428571428571
 40
0.1071428571428571
 40
0.1428571428571429
 40
0.1428571428571429
 40
0.1428571428571429
 40
0.1428571428571429
 40
0.1785714285714286
 40
0.1785714285714286
 40
0.1785714285714286
 40
0.1785714285714286
 40
0.2142857142857143
 40
0.2142857142857143
 40
0.2142857142857143
 40
0.2142857142857143
 40
0.2499999999999999
 40
0.2499999999999999
 40
0.2499999999999999
 40
0.2499999999999999
 40
0.2857142857142856
 40
0.2857142857142856
 40
0.2857142857142856
 40
0.2857142857142856
 40
0.3214285714285713
 40
0.3214285714285713
 40
0.3214285714285713
 40
0.3214285714285713
 40
0.357142857142857
 40
0.357142857142857
 40
0.357142857142857
 40
0.357142857142857
 40
0.3928571428571427
 40
0.3928571428571427
 40
0.3928571428571427
 40
0.3928571428571427
 40
0.4285714285714284
 40
0.4285714285714284
 40
0.4285714285714284
 40
0.4285714285714284
 40
0.4642857142857141
 40
0.4642857142857141
 40
0.4642857142857141
 40
0.4642857142857141
 40
0.4999999999999998
 40
0.4999999999999998
 40
0.4999999999999998
 40
0.4999999999999998
 40
0.5357142857142856
 40
0.5357142857142856
 40
0.5357142857142856
 40
0.5357142857142856
 40
0.5714285714285713
 40
0.5714285714285713
 40
0.5714285714285713
 40
0.5714285714285713
 40
0.607142857142857
 40
0.607142857142857
 40
0.607142857142857
 40
0.607142857142857
 40
0.6428571428571427
 40
0.6428571428571427
 40
0.6428571428571427
 40
0.6428571428571427
 40
0.6785714285714284
 40
0.6785714285714284
 40
0.6785714285714284
 40
0.6785714285714284
 40
0.7142857142857141
 40
0.7142857142857141
 40
0.7142857142857141
 40
0.7142857142857141
 40
0.7499999999999998
 40
0.7499999999999998
 40
0.7499999999999998
 40
0.7499999999999998
 40
0.7857142857142855
 40
0.7857142857142855
 40
0.7857142857142855
 40
0.7857142857142855
 40
0.8214285714285712
 40
0.8214285714285712
 40
0.8214285714285712
 40
0.8214285714285712
 40
0.8571428571428569
 40
0.8571428571428569
 40
0.8571428571428569
 40
0.8571428571428569
 40
0.8928571428571426
 40
0.8928571428571426
 40
0.8928571428571426
 40
0.8928571428571426
 40
0.9285714285714283
 40
0.9285714285714283
 40
0.9285714285714283
 40
0.9285714285714283
 40
0.964285714285714
 40
0.964285714285714
 40
0.964285714285714
 40
0.964285714285714
 40
1.0
 40
1.0
 40
1.0
 40
1.0
 10
-1.24699
 20
-1.9411200000000002
 30
0.0
 10
-0.7694700000000001
 20
-2.3424400000000003
 30
0.0
 10
-1.0107700000000002
 20
-3.1679400000000002
 30
0.0
 10
-0.9574300000000001
 20
-3.7394400000000001
 30
0.0
 10
-0.9574300000000001
 20
-3.7394400000000001
 30
0.0
 10
-0.8202700000000001
 20
-3.3457400000000002
 30
0.0
 10
-0.8507500000000001
 20
-2.8682200000000004
 30
0.0
 10
-0.78217
 20
-2.4288000000000003
 30
0.0
 10
-0.78217
 20
-2.4288000000000003
 30
0.0
 10
-0.7669300000000001
 20
-3.1704800000000004
 30
0.0
 10
-0.6932700000000001
 20
-4.0798000000000005
 30
0.0
 10
-1.1834900000000002
 20
-4.6944800000000004
 30
0.0
 10
-1.1834900000000002
 20
-4.6944800000000004
 30
0.0
 10
-1.4146300000000001
 20
-4.8748200000000006
 30
0.0
 10
-1.7041900000000001
 20
-4.9230800000000006
 30
0.0
 10
-1.9785100000000002
 20
-4.9764200000000001
 30
0.0
 10
-1.9785100000000002
 20
-4.9764200000000001
 30
0.0
 10
-1.8769100000000001
 20
-5.0399200000000004
 30
0.0
 10
-1.7041900000000001
 20
-5.0221400000000003
 30
0.0
 10
-1.5975100000000002
 20
-5.0043600000000001
 30
0.0
 10
-1.5975100000000002
 20
-5.0043600000000001
 30
0.0
 10
-1.7092700000000001
 20
-5.1440600000000005
 30
0.0
 10
-2.14615
 20
-5.3015400000000001
 30
0.0
 10
-2.40523
 20
-5.3244000000000007
 30
0.0
 10
-2.40523
 20
-5.3244000000000007
 30
0.0
 10
-2.5931900000000003
 20
-5.3294800000000002
 30
0.0
 10
-2.8065500000000001
 20
-5.3167800000000005
 30
0.0
 10
-3.0021300000000002
 20
-5.2990000000000004
 30
0.0
 10
-3.0021300000000002
 20
-5.2990000000000004
 30
0.0
 10
-2.8294100000000002
 20
-5.2431200000000002
 30
0.0
 10
-2.6262100000000004
 20
-5.2177200000000008
 30
0.0
 10
-2.4280900000000001
 20
-5.2228000000000003
 30
0.0
 10
-2.4280900000000001
 20
-5.2228000000000003
 30
0.0
 10
-2.2807700000000004
 20
-5.1516800000000007
 30
0.0
 10
-2.7379700000000002
 20
-5.1872400000000001
 30
0.0
 10
-2.8090900000000003
 20
-5.1313600000000008
 30
0.0
 10
-2.8090900000000003
 20
-5.1313600000000008
 30
0.0
 10
-3.9419300000000002
 20
-5.2151800000000001
 30
0.0
 10
-5.0341300000000002
 20
-3.9832800000000002
 30
0.0
 10
-4.8918900000000001
 20
-2.8758400000000002
 30
0.0
 10
-4.8918900000000001
 20
-2.8758400000000002
 30
0.0
 10
-4.8918900000000001
 20
-2.8758400000000002
 30
0.0
 10
-4.70139
 20
-3.2289000000000003
 30
0.0
 10
-4.70139
 20
-3.2289000000000003
 30
0.0
 10
-4.70139
 20
-3.2289000000000003
 30
0.0
 10
-4.5845500000000001
 20
-3.4092400000000005
 30
0.0
 10
-4.5591500000000007
 20
-3.6175200000000003
 30
0.0
 10
-4.4600900000000001
 20
-3.8054800000000002
 30
0.0
 10
-4.4600900000000001
 20
-3.8054800000000002
 30
0.0
 10
-4.4346900000000007
 20
-3.8562800000000004
 30
0.0
 10
-4.3864300000000007
 20
-3.9299400000000002
 30
0.0
 10
-4.30769
 20
-3.9451800000000001
 30
0.0
 10
-4.30769
 20
-3.9451800000000001
 30
0.0
 10
-4.3864300000000007
 20
-3.7191200000000002
 30
0.0
 10
-4.4854900000000004
 20
-3.4879800000000003
 30
0.0
 10
-4.5947100000000001
 20
-3.2670000000000003
 30
0.0
 10
-4.5947100000000001
 20
-3.2670000000000003
 30
0.0
 10
-5.03667
 20
-2.7590000000000003
 30
0.0
 10
-4.5312100000000006
 20
-2.0097
 30
0.0
 10
-3.9266900000000002
 20
-1.9843000000000002
 30
0.0
 10
-3.9266900000000002
 20
-1.9843000000000002
 30
0.0
 10
-4.1019500000000004
 20
-2.1621000000000001
 30
0.0
 10
-4.2035500000000008
 20
-2.3881600000000001
 30
0.0
 10
-4.2137100000000007
 20
-2.6370800000000001
 30
0.0
 10
-4.2137100000000007
 20
-2.6370800000000001
 30
0.0
 10
-4.1908500000000002
 20
-3.2644600000000001
 30
0.0
 10
-4.0613100000000006
 20
-3.9451800000000001
 30
0.0
 10
-3.6676100000000003
 20
-4.4252400000000005
 30
0.0
 10
-3.6676100000000003
 20
-4.4252400000000005
 30
0.0
 10
-3.6295100000000002
 20
-4.4709600000000007
 30
0.0
 10
-3.5914100000000002
 20
-4.5243000000000002
 30
0.0
 10
-3.5075900000000004
 20
-4.5497000000000005
 30
0.0
 10
-3.5075900000000004
 20
-4.5497000000000005
 30
0.0
 10
-3.5075900000000004
 20
-4.5497000000000005
 30
0.0
 10
-3.6853900000000004
 20
-4.3007800000000005
 30
0.0
 10
-3.6853900000000004
 20
-4.3007800000000005
 30
0.0
 10
-3.6853900000000004
 20
-4.3007800000000005
 30
0.0
 10
-3.7133300000000005
 20
-4.2423600000000006
 30
0.0
 10
-3.8733500000000003
 20
-3.9832800000000002
 30
0.0
 10
-3.7438100000000003
 20
-4.1102800000000004
 30
0.0
 10
-3.7438100000000003
 20
-4.1102800000000004
 30
0.0
 10
-3.7438100000000003
 20
-4.1102800000000004
 30
0.0
 10
-3.6396700000000002
 20
-4.2017200000000008
 30
0.0
 10
-3.6396700000000002
 20
-4.2017200000000008
 30
0.0
 10
-3.6396700000000002
 20
-4.2017200000000008
 30
0.0
 10
-3.2916900000000004
 20
-4.5344600000000002
 30
0.0
 10
-3.0072100000000002
 20
-4.9967400000000008
 30
0.0
 10
-2.51953
 20
-5.0653200000000007
 30
0.0
 10
-2.51953
 20
-5.0653200000000007
 30
0.0
 10
-2.6008100000000001
 20
-4.9815000000000005
 30
0.0
 10
-2.8497300000000001
 20
-4.8799000000000001
 30
0.0
 10
-2.9233900000000004
 20
-4.7275
 30
0.0
 10
-2.9233900000000004
 20
-4.7275
 30
0.0
 10
-2.5500100000000003
 20
-4.8291000000000004
 30
0.0
 10
-2.1436100000000002
 20
-4.7021000000000006
 30
0.0
 10
-1.6559300000000001
 20
-4.4328600000000007
 30
0.0
 10
-1.6559300000000001
 20
-4.4328600000000007
 30
0.0
 10
-1.8210300000000001
 20
-4.3820600000000001
 30
0.0
 10
-1.9886700000000002
 20
-4.5471600000000008
 30
0.0
 10
-2.1867900000000002
 20
-4.5497000000000005
 30
0.0
 10
-2.1867900000000002
 20
-4.5497000000000005
 30
0.0
 10
-1.8489700000000002
 20
-4.1814
 30
0.0
 10
-1.6356100000000002
 20
-3.7191200000000002
 30
0.0
 10
-1.5187700000000002
 20
-3.2441400000000002
 30
0.0
 10
-1.5187700000000002
 20
-3.2441400000000002
 30
0.0
 10
-1.4882900000000001
 20
-3.3686000000000003
 30
0.0
 10
-1.5263900000000001
 20
-3.8334200000000003
 30
0.0
 10
-1.5314700000000001
 20
-4.0239200000000004
 30
0.0
 10
-1.5314700000000001
 20
-4.0239200000000004
 30
0.0
 10
-1.2850900000000001
 20
-3.3965400000000003
 30
0.0
 10
-1.4552700000000001
 20
-2.5939000000000001
 30
0.0
 10
-1.24699
 20
-1.9411200000000002
 30
0.0
  0
ENDSEC
  0
SECTION
  2
OBJECTS
  0
DICTIONARY
  5
19
100
AcDbDictionary
280
     0
281
     1
  3
ACAD_GROUP
350
1A
  3
ACAD_MLINESTYLE
350
1B
  3
ACAD_LAYOUT
350
1E
  3
ACAD_PLOTSETTINGS
350
22
  3
ACAD_PLOTSTYLENAME
350
1F
  3
ACAD_WIPEOUT_VARS
350
23
  0
DICTIONARY
  5
1A
102
{ACAD_REACTORS
330
19
102
}
100
AcDbDictionary
280
     0
281
     1
  0
DICTIONARY
  5
1B
102
{ACAD_REACTORS
330
19
102
}
100
AcDbDictionary
280
     0
281
     1
  3
Standard
350
1C
  0
MLINESTYLE
  5
1C
102
{ACAD_REACTORS
330
1B
102
}
100
AcDbMlineStyle
  2
Standard
 70
     0
  3

 62
     0
 51
90.0
 52
90.0
 71
     2
 49
0.5
 62
   256
  6
BYLAYER
 49
-0.5
 62
   256
  6
BYLAYER
  0
ACDBDICTIONARYWDFLT
  5
1F
102
{ACAD_REACTORS
330
19
102
}
100
AcDbDictionary
281
     1
  3
Normal
350
1D
100
AcDbDictionaryWithDefault
340
1D
  0
ACDBPLACEHOLDER
  5
1D
102
{ACAD_REACTORS
330
1F
102
}
  0
LAYOUT
  5
20
102
{ACAD_REACTORS
330
1E
102
}
100
AcDbPlotSettings
  1

  2

  4

  6

 40
0.0
 41
0.0
 42
0.0
 43
0.0
 44
0.0
 45
0.0
 46
0.0
 47
0.0
 48
0.0
 49
0.0
140
0.0
141
0.0
142
1.0
143
1.0
 70
  1024
 72
     0
 73
     0
 74
     0
  7

 75
     0
147
1.0
148
0.0
149
0.0
100
AcDbLayout
  1
Model
 70
     0
 71
     0
 10
0.0
 20
0.0
 11
0.0
 21
0.0
 12
0.0
 22
0.0
 32
0.0
 14
0.0
 24
0.0
 34
0.0
 15
0.0
 25
0.0
 35
0.0
146
0.0
 13
0.0
 23
0.0
 33
0.0
 16
0.0
 26
0.0
 36
0.0
 17
0.0
 27
0.0
 37
0.0
 76
     0
330
A
331
0
345
0
346
0
  0
LAYOUT
  5
21
102
{ACAD_REACTORS
330
1E
102
}
100
AcDbPlotSettings
  1

  2

  4

  6

 40
0.0
 41
0.0
 42
0.0
 43
0.0
 44
0.0
 45
0.0
 46
0.0
 47
0.0
 48
0.0
 49
0.0
140
0.0
141
0.0
142
1.0
143
1.0
 70
     0
 72
     0
 73
     0
 74
     0
  7

 75
     0
147
1.0
148
0.0
149
0.0
100
AcDbLayout
  1
Layout1
 70
     0
 71
     0
 10
0.0
 20
0.0
 11
0.0
 21
0.0
 12
0.0
 22
0.0
 32
0.0
 14
0.0
 24
0.0
 34
0.0
 15
0.0
 25
0.0
 35
0.0
146
0.0
 13
0.0
 23
0.0
 33
0.0
 16
0.0
 26
0.0
 36
0.0
 17
0.0
 27
0.0
 37
0.0
 76
     0
330
B
331
0
345
0
346
0
  0
DICTIONARY
  5
1E
102
{ACAD_REACTORS
330
19
102
}
100
AcDbDictionary
280
     0
281
     1
  3
Layout1
350
21
  3
Model
350
20
  0
DICTIONARY
  5
22
102
{ACAD_REACTORS
330
19
102
}
100
AcDbDictionary
280
     0
281
     1
  0
WIPEOUTVARIABLES
  5
23
100
AcDbWipeoutVariables
 70
     1
  0
ENDSEC
  0
EOF
