  0
SECTION
  2
HEADER
  9
$ACADVER
  1
AC1015
  9
$ACADMAINTVER
 70
     6
  9
$DWGCODEPAGE
  3
DOS850
  9
$INSBASE
 10
0.0
 20
0.0
 30
0.0
  9
$EXTMIN
 10
-5.64702
 20
-3.98328
 30
1.000000E+20
  9
$EXTMAX
 10
5.65316
 20
3.97707
 30
-1.000000E+20
  9
$LIMMIN
 10
0.0
 20
0.0
  9
$LIMMAX
 10
0.0
 20
0.0
  9
$ORTHOMODE
 70
     0
  9
$REGENMODE
 70
     1
  9
$FILLMODE
 70
     1
  9
$QTEXTMODE
 70
     0
  9
$MIRRTEXT
 70
     1
  9
$LTSCALE
 40
1.0
  9
$ATTMODE
 70
     1
  9
$TEXTSIZE
 40
0.2
  9
$TRACEWID
 40
0.05
  9
$TEXTSTYLE
  7
Standard
  9
$CLAYER
  8
0
  9
$CELTYPE
  6
Continuous
  9
$CECOLOR
 62
   256
  9
$CELTSCALE
 40
1.0
  9
$DISPSILH
 70
     0
  9
$DIMSCALE
 40
1.0
  9
$DIMASZ
 40
0.18
  9
$DIMEXO
 40
0.0625
  9
$DIMDLI
 40
0.38
  9
$DIMRND
 40
0.0
  9
$DIMDLE
 40
0.0
  9
$DIMEXE
 40
0.18
  9
$DIMTP
 40
0.0
  9
$DIMTM
 40
0.0
  9
$DIMTXT
 40
0.18
  9
$DIMCEN
 40
0.09
  9
$DIMTSZ
 40
0.0
  9
$DIMTOL
 70
     0
  9
$DIMLIM
 70
     0
  9
$DIMTIH
 70
     1
  9
$DIMTOH
 70
     1
  9
$DIMSE1
 70
     0
  9
$DIMSE2
 70
     0
  9
$DIMTAD
 70
     0
  9
$DIMZIN
 70
     0
  9
$DIMBLK
  1

  9
$DIMASO
 70
     1
  9
$DIMSHO
 70
     1
  9
$DIMPOST
  1

  9
$DIMAPOST
  1

  9
$DIMALT
 70
     0
  9
$DIMALTD
 70
     2
  9
$DIMALTF
 40
25.4
  9
$DIMLFAC
 40
1.0
  9
$DIMTOFL
 70
     0
  9
$DIMTVP
 40
0.0
  9
$DIMTIX
 70
     0
  9
$DIMSOXD
 70
     0
  9
$DIMSAH
 70
     0
  9
$DIMBLK1
  1

  9
$DIMBLK2
  1

  9
$DIMSTYLE
  2
Standard
  9
$DIMCLRD
 70
     0
  9
$DIMCLRE
 70
     0
  9
$DIMCLRT
 70
     0
  9
$DIMTFAC
 40
1.0
  9
$DIMGAP
 40
0.09
  9
$DIMJUST
 70
     0
  9
$DIMSD1
 70
     0
  9
$DIMSD2
 70
     0
  9
$DIMTOLJ
 70
     1
  9
$DIMTZIN
 70
     0
  9
$DIMALTZ
 70
     0
  9
$DIMALTTZ
 70
     0
  9
$DIMUPT
 70
     0
  9
$DIMDEC
 70
     4
  9
$DIMTDEC
 70
     4
  9
$DIMALTU
 70
     2
  9
$DIMALTTD
 70
     2
  9
$DIMTXSTY
  7
Standard
  9
$DIMAUNIT
 70
     0
  9
$DIMADEC
 70
     0
  9
$DIMALTRND
 40
0.0
  9
$DIMAZIN
 70
     0
  9
$DIMDSEP
 70
     0
  9
$DIMATFIT
 70
     3
  9
$DIMFRAC
 70
     0
  9
$DIMLDRBLK
  1

  9
$DIMLUNIT
 70
     2
  9
$DIMLWD
 70
     0
  9
$DIMLWE
 70
     0
  9
$DIMTMOVE
 70
     0
  9
$LUNITS
 70
     2
  9
$LUPREC
 70
     4
  9
$SKETCHINC
 40
0.1
  9
$FILLETRAD
 40
0.0
  9
$AUNITS
 70
     0
  9
$AUPREC
 70
     0
  9
$MENU
  1
acad
  9
$ELEVATION
 40
0.0
  9
$PELEVATION
 40
0.0
  9
$THICKNESS
 40
0.0
  9
$LIMCHECK
 70
     0
  9
$CHAMFERA
 40
0.0
  9
$CHAMFERB
 40
0.0
  9
$CHAMFERC
 40
0.0
  9
$CHAMFERD
 40
0.0
  9
$SKPOLY
 70
     0
  9
$TDCREATE
 40
0.000000000
  9
$TDUCREATE
 40
0.000000000
  9
$TDUPDATE
 40
0.000000000
  9
$TDUUPDATE
 40
0.000000000
  9
$TDINDWG
 40
0.0000000000
  9
$TDUSRTIMER
 40
0.0000000000
  9
$USRTIMER
 70
     1
  9
$ANGBASE
 50
0.0
  9
$ANGDIR
 70
     0
  9
$PDMODE
 70
     0
  9
$PDSIZE
 40
0.0
  9
$PLINEWID
 40
0.0
  9
$SPLFRAME
 70
     0
  9
$SPLINETYPE
 70
     6
  9
$SPLINESEGS
 70
     8
  9
$HANDSEED
  5
3B
  9
$SURFTAB1
 70
     6
  9
$SURFTAB2
 70
     6
  9
$SURFTYPE
 70
     6
  9
$SURFU
 70
     6
  9
$SURFV
 70
     6
  9
$UCSBASE
  2

  9
$UCSNAME
  2

  9
$UCSORG
 10
0.0
 20
0.0
 30
0.0
  9
$UCSXDIR
 10
1.0
 20
0.0
 30
0.0
  9
$UCSYDIR
 10
0.0
 20
1.0
 30
0.0
  9
$UCSORTHOREF
  2

  9
$UCSORTHOVIEW
 70
     0
  9
$UCSORGTOP
 10
0.0
 20
0.0
 30
0.0
  9
$UCSORGBOTTOM
 10
0.0
 20
0.0
 30
0.0
  9
$UCSORGLEFT
 10
0.0
 20
0.0
 30
0.0
  9
$UCSORGRIGHT
 10
0.0
 20
0.0
 30
0.0
  9
$UCSORGFRONT
 10
0.0
 20
0.0
 30
0.0
  9
$UCSORGBACK
 10
0.0
 20
0.0
 30
0.0
  9
$PUCSBASE
  2

  9
$PUCSNAME
  2

  9
$PUCSORG
 10
0.0
 20
0.0
 30
0.0
  9
$PUCSXDIR
 10
1.0
 20
0.0
 30
0.0
  9
$PUCSYDIR
 10
0.0
 20
1.0
 30
0.0
  9
$PUCSORTHOREF
  2

  9
$PUCSORTHOVIEW
 70
     0
  9
$PUCSORGTOP
 10
0.0
 20
0.0
 30
0.0
  9
$PUCSORGBOTTOM
 10
0.0
 20
0.0
 30
0.0
  9
$PUCSORGLEFT
 10
0.0
 20
0.0
 30
0.0
  9
$PUCSORGRIGHT
 10
0.0
 20
0.0
 30
0.0
  9
$PUCSORGFRONT
 10
0.0
 20
0.0
 30
0.0
  9
$PUCSORGBACK
 10
0.0
 20
0.0
 30
0.0
  9
$USERI1
 70
     0
  9
$USERI2
 70
     0
  9
$USERI3
 70
     0
  9
$USERI4
 70
     0
  9
$USERI5
 70
     0
  9
$USERR1
 40
0.0
  9
$USERR2
 40
0.0
  9
$USERR3
 40
0.0
  9
$USERR4
 40
0.0
  9
$USERR5
 40
0.0
  9
$WORLDVIEW
 70
     1
  9
$SHADEDGE
 70
     3
  9
$SHADEDIF
 70
    70
  9
$TILEMODE
 70
     1
  9
$MAXACTVP
 70
    16
  9
$PINSBASE
 10
0.0
 20
0.0
 30
0.0
  9
$PLIMCHECK
 70
     0
  9
$PEXTMIN
 10
1.000000E+20
 20
1.000000E+20
 30
1.000000E+20
  9
$PEXTMAX
 10
-1.000000E+20
 20
-1.000000E+20
 30
-1.000000E+20
  9
$PLIMMIN
 10
0.0
 20
0.0
  9
$PLIMMAX
 10
12.0
 20
9.0
  9
$UNITMODE
 70
     0
  9
$VISRETAIN
 70
     0
  9
$PLINEGEN
 70
     1
  9
$PSLTSCALE
 70
     0
  9
$TREEDEPTH
 70
  3020
  9
$CMLSTYLE
  2
Standard
  9
$CMLJUST
 70
     0
  9
$CMLSCALE
 40
1.0
  9
$PROXYGRAPHICS
 70
     0
  9
$MEASUREMENT
 70
     0
  9
$CELWEIGHT
370
     0
  9
$ENDCAPS
280
     0
  9
$JOINSTYLE
280
     0
  9
$LWDISPLAY
290
     0
  9
$INSUNITS
 70
     5
  9
$HYPERLINKBASE
  1

  9
$XEDIT
290
     1
  9
$CEPSNTYPE
380
     0
  9
$PSTYLEMODE
290
     1
  9
$FINGERPRINTGUID
  2

  9
$VERSIONGUID
  2

  9
$EXTNAMES
290
     1
  9
$PSVPSCALE
 40
0.0
  0
ENDSEC
  0
SECTION
  2
CLASSES
  0
CLASS
  1
LWPOLYLINE
  2
AcDbPolyline
  3
AutoCAD 2000
 90
    32768
280
     0
281
     1
  0
CLASS
  1
IMAGE
  2
AcDbRasterImage
  3
ISM
 90
    32895
280
     0
281
     1
  0
CLASS
  1
OLE2FRAME
  2
AcDbOle2Frame
  3
AutoCAD 2000
 90
    32768
280
     0
281
     1
  0
CLASS
  1
HATCH
  2
AcDbHatch
  3
AutoCAD 2000
 90
    32768
280
     0
281
     1
  0
CLASS
  1
DICTIONARYVAR
  2
AcDbDictionaryVar
  3
AutoCAD 2000
 90
    32768
280
     0
281
     0
  0
CLASS
  1
RASTERVARIABLES
  2
AcDbRasterVariables
  3
ISM
 90
    32768
280
     0
281
     0
  0
CLASS
  1
IMAGEDEF
  2
AcDbRasterImageDef
  3
ISM
 90
    32768
280
     0
281
     0
  0
CLASS
  1
IMAGEDEF_REACTOR
  2
AcDbRasterImageDefReactor
  3
ISM
 90
    32769
280
     0
281
     0
  0
CLASS
  1
IDBUFFER
  2
AcDbIdBuffer
  3
AutoCAD 2000
 90
    32768
280
     0
281
     0
  0
CLASS
  1
SPATIAL_FILTER
  2
AcDbSpatialFilter
  3
AutoCAD 2000
 90
    32768
280
     0
281
     0
  0
CLASS
  1
XRECORD
  2
AcDbXrecord
  3
AutoCAD 2000
 90
    32768
280
     0
281
     0
  0
CLASS
  1
SORTENTSTABLE
  2
AcDbSortentsTable
  3
AutoCAD 2000
 90
    32768
280
     0
281
     0
  0
CLASS
  1
LAYER_INDEX
  2
AcDbLayerIndex
  3
AutoCAD 2000
 90
    32768
280
     0
281
     0
  0
CLASS
  1
SPATIAL_INDEX
  2
AcDbSpatialIndex
  3
AutoCAD 2000
 90
    32768
280
     0
281
     0
  0
CLASS
  1
OBJECT_PTR
  2
CAseDLPNTableRecord
  3
"ASE-LPNTableRecord"
 90
    32769
280
     0
281
     0
  0
CLASS
  1
LAYOUT
  2
AcDbLayout
  3
AutoCAD 2000
 90
        0
280
     0
281
     0
  0
CLASS
  1
PLOTSETTINGS
  2
AcDbPlotSettings
  3
AutoCAD 2000
 90
    32768
280
     0
281
     0
  0
CLASS
  1
ACDBDICTIONARYWDFLT
  2
AcDbDictionaryWithDefault
  3
AutoCAD 2000
 90
        0
280
     0
281
     0
  0
CLASS
  1
ACDBPLACEHOLDER
  2
AcDbPlaceHolder
  3
AutoCAD 2000
 90
        0
280
     0
281
     0
  0
CLASS
  1
VBA_PROJECT
  2
AcDbVbaProject
  3
acadvba
 90
    32768
280
     0
281
     0
  0
CLASS
  1
WIPEOUT
  2
AcDbWipeout
  3
WipeOut|AutoCAD Express Tool|expresstools@autodesk.com
 90
    32895
280
     0
281
     1
  0
CLASS
  1
WIPEOUTVARIABLES
  2
AcDbWipeoutVariables
  3
WipeOut|AutoCAD Express Tool|expresstools@autodesk.com
 90
        0
280
     0
281
     0
  0
CLASS
  1
RTEXT
  2
RText
  3
RText|AutoCAD Express Tool|expresstools@autodesk.com
 90
    32768
280
     0
281
     1
  0
CLASS
  1
ARCALIGNEDTEXT
  2
AcDbArcAlignedText
  3
ATEXT|AutoCAD Express Tool|expresstools@autodesk.com
 90
    32768
280
     0
281
     1
  0
ENDSEC
  0
SECTION
  2
TABLES
  0
TABLE
  2
VPORT
  5
7
100
AcDbSymbolTable
 70
     1
  0
VPORT
  5
15
100
AcDbSymbolTableRecord
100
AcDbViewportTableRecord
  2
*ACTIVE
 70
     0
 10
0.0
 20
0.0
 11
1.0
 21
1.0
 12
6.591288
 22
4.579184
 13
0.0
 23
0.0
 14
1.0
 24
1.0
 15
0.0
 25
0.0
 16
0.0
 26
0.0
 36
1.0
 17
0.0
 27
0.0
 37
0.0
 40
9.158369
 41
0.688564
 42
50.0
 43
0.0
 44
0.0
 50
0.0
 51
0.0
 71
     0
 72
   100
 73
     1
 74
     1
 75
     0
 76
     0
 77
     0
 78
     0
281
     0
 65
     0
110
0.0
120
0.0
130
0.0
111
1.0
121
0.0
131
0.0
112
0.0
122
1.0
132
0.0
345
0
346
0
 79
     0
146
0.0
  0
ENDTAB
  0
TABLE
  2
LTYPE
  5
4
100
AcDbSymbolTable
 70
     3
  0
LTYPE
  5
11
100
AcDbSymbolTableRecord
100
AcDbLinetypeTableRecord
  2
ByBlock
 70
    64
  3

 72
    65
 73
     0
 40
0.0
  0
LTYPE
  5
12
100
AcDbSymbolTableRecord
100
AcDbLinetypeTableRecord
  2
ByLayer
 70
    64
  3

 72
    65
 73
     0
 40
0.0
  0
LTYPE
  5
13
100
AcDbSymbolTableRecord
100
AcDbLinetypeTableRecord
  2
Continuous
 70
    64
  3
Solid line
 72
    65
 73
     0
 40
0.0
  0
ENDTAB
  0
TABLE
  2
LAYER
  5
2
100
AcDbSymbolTable
 70
     2
  0
LAYER
  5
14
100
AcDbSymbolTableRecord
100
AcDbLayerTableRecord
  2
0
 70
     0
 62
     7
  6
Continuous
290
     1
370
    -3
390
1D
  0
LAYER
  5
24
100
AcDbSymbolTableRecord
100
AcDbLayerTableRecord
  2
Ebene 1
 70
     0
 62
     7
  6
Continuous
290
     1
370
    -3
390
1F
  0
ENDTAB
  0
TABLE
  2
STYLE
  5
3
100
AcDbSymbolTable
 70
     1
  0
STYLE
  5
17
100
AcDbSymbolTableRecord
100
AcDbTextStyleTableRecord
  2
Standard
 70
     0
 40
0.0
 41
1.0
 50
0.0
 71
     0
 42
0.0
  3
txt
  4

  0
ENDTAB
  0
TABLE
  2
VIEW
  5
5
100
AcDbSymbolTable
 70
     0
  0
ENDTAB
  0
TABLE
  2
UCS
  5
6
100
AcDbSymbolTable
 70
     0
  0
ENDTAB
  0
TABLE
  2
APPID
  5
8
100
AcDbSymbolTable
 70
     1
  0
APPID
  5
16
100
AcDbSymbolTableRecord
100
AcDbRegAppTableRecord
  2
ACAD
 70
     0
  0
ENDTAB
  0
TABLE
  2
DIMSTYLE
  5
9
100
AcDbSymbolTable
 70
     1
100
AcDbDimStyleTable
 71
     0
  0
DIMSTYLE
105
18
100
AcDbSymbolTableRecord
100
AcDbDimStyleTableRecord
  2
Standard
 70
     0
  3

  4

 40
1.0
 41
0.18
 42
0.0625
 43
0.38
 44
0.18
 45
0.0
 46
0.0
 47
0.0
 48
0.0
 71
     0
 72
     0
 73
     1
 74
     1
 75
     0
 76
     0
 77
     0
 78
     0
 79
     0
140
0.18
141
0.09
142
0.0
143
25.4
144
1.0
145
0.0
146
1.0
147
0.09
148
0.0
170
     0
171
     2
172
     0
173
     0
174
     0
175
     0
176
     0
177
     0
178
     0
179
     0
271
     4
272
     4
273
     2
274
     2
275
     0
276
     0
277
     2
278
    46
279
     0
280
     0
281
     0
282
     0
283
     1
284
     0
285
     0
286
     0
288
     0
340
17
341
0
342
0
343
0
344
0
371
    -2
372
    -2
  0
ENDTAB
  0
TABLE
  2
BLOCK_RECORD
  5
1
100
AcDbSymbolTable
 70
     0
  0
BLOCK_RECORD
  5
A
100
AcDbSymbolTableRecord
100
AcDbBlockTableRecord
  2
*MODEL_SPACE
340
20
  0
BLOCK_RECORD
  5
B
100
AcDbSymbolTableRecord
100
AcDbBlockTableRecord
  2
*PAPER_SPACE
340
21
  0
ENDTAB
  0
ENDSEC
  0
SECTION
  2
BLOCKS
  0
BLOCK
  5
D
100
AcDbEntity
  8
0
100
AcDbBlockBegin
  2
*MODEL_SPACE
 70
     0
 10
0.0
 20
0.0
 30
0.0
  3
*MODEL_SPACE
  1

  0
ENDBLK
  5
E
100
AcDbEntity
  8
0
100
AcDbBlockEnd
  0
BLOCK
  5
F
100
AcDbEntity
 67
     1
  8
0
100
AcDbBlockBegin
  2
*PAPER_SPACE
 70
     0
 10
0.0
 20
0.0
 30
0.0
  3
*PAPER_SPACE
  1

  0
ENDBLK
  5
10
100
AcDbEntity
 67
     1
  8
0
100
AcDbBlockEnd
  0
ENDSEC
  0
SECTION
  2
ENTITIES
  0
SPLINE
  5
25
100
AcDbEntity
  8
Ebene 1
100
AcDbSpline
210
0.0
220
0.0
230
1.0
 70
     1
 71
     3
 72
   120
 73
   116
 74
     0
 42
0.0000000001
 43
0.0000000001
 40
0.0
 40
0.0
 40
0.0
 40
0.0
 40
0.0344827586206897
 40
0.0344827586206897
 40
0.0344827586206897
 40
0.0344827586206897
 40
0.0689655172413793
 40
0.0689655172413793
 40
0.0689655172413793
 40
0.0689655172413793
 40
0.103448275862069
 40
0.103448275862069
 40
0.103448275862069
 40
0.103448275862069
 40
0.1379310344827586
 40
0.1379310344827586
 40
0.1379310344827586
 40
0.1379310344827586
 40
0.1724137931034483
 40
0.1724137931034483
 40
0.1724137931034483
 40
0.1724137931034483
 40
0.206896551724138
 40
0.206896551724138
 40
0.206896551724138
 40
0.206896551724138
 40
0.2413793103448276
 40
0.2413793103448276
 40
0.2413793103448276
 40
0.2413793103448276
 40
0.2758620689655173
 40
0.2758620689655173
 40
0.2758620689655173
 40
0.2758620689655173
 40
0.310344827586207
 40
0.310344827586207
 40
0.310344827586207
 40
0.310344827586207
 40
0.3448275862068966
 40
0.3448275862068966
 40
0.3448275862068966
 40
0.3448275862068966
 40
0.3793103448275863
 40
0.3793103448275863
 40
0.3793103448275863
 40
0.3793103448275863
 40
0.413793103448276
 40
0.413793103448276
 40
0.413793103448276
 40
0.413793103448276
 40
0.4482758620689656
 40
0.4482758620689656
 40
0.4482758620689656
 40
0.4482758620689656
 40
0.4827586206896553
 40
0.4827586206896553
 40
0.4827586206896553
 40
0.4827586206896553
 40
0.517241379310345
 40
0.517241379310345
 40
0.517241379310345
 40
0.517241379310345
 40
0.5517241379310346
 40
0.5517241379310346
 40
0.5517241379310346
 40
0.5517241379310346
 40
0.5862068965517242
 40
0.5862068965517242
 40
0.5862068965517242
 40
0.5862068965517242
 40
0.6206896551724138
 40
0.6206896551724138
 40
0.6206896551724138
 40
0.6206896551724138
 40
0.6551724137931034
 40
0.6551724137931034
 40
0.6551724137931034
 40
0.6551724137931034
 40
0.689655172413793
 40
0.689655172413793
 40
0.689655172413793
 40
0.689655172413793
 40
0.7241379310344827
 40
0.7241379310344827
 40
0.7241379310344827
 40
0.7241379310344827
 40
0.7586206896551723
 40
0.7586206896551723
 40
0.7586206896551723
 40
0.7586206896551723
 40
0.7931034482758619
 40
0.7931034482758619
 40
0.7931034482758619
 40
0.7931034482758619
 40
0.8275862068965515
 40
0.8275862068965515
 40
0.8275862068965515
 40
0.8275862068965515
 40
0.8620689655172411
 40
0.8620689655172411
 40
0.8620689655172411
 40
0.8620689655172411
 40
0.8965517241379307
 40
0.8965517241379307
 40
0.8965517241379307
 40
0.8965517241379307
 40
0.9310344827586203
 40
0.9310344827586203
 40
0.9310344827586203
 40
0.9310344827586203
 40
0.9655172413793099
 40
0.9655172413793099
 40
0.9655172413793099
 40
0.9655172413793099
 40
1.0
 40
1.0
 40
1.0
 40
1.0
 10
-0.7135900000000001
 20
3.9770700000000003
 30
0.0
 10
-0.04303
 20
3.9592900000000002
 30
0.0
 10
0.5564
 20
3.6189300000000002
 30
0.0
 10
1.2015600000000002
 20
3.7052900000000002
 30
0.0
 10
1.2015600000000002
 20
3.7052900000000002
 30
0.0
 10
1.7400400000000003
 20
3.1439500000000002
 30
0.0
 10
2.4715600000000002
 20
3.1439500000000002
 30
0.0
 10
3.1929200000000004
 20
3.1947500000000004
 30
0.0
 10
3.1929200000000004
 20
3.1947500000000004
 30
0.0
 10
3.3529400000000003
 20
3.0906100000000003
 30
0.0
 10
3.5129600000000001
 20
2.9559900000000003
 30
0.0
 10
3.5866200000000004
 20
2.7858100000000001
 30
0.0
 10
3.5866200000000004
 20
2.7858100000000001
 30
0.0
 10
3.4545400000000002
 20
2.54705
 30
0.0
 10
3.0735400000000004
 20
3.0067900000000001
 30
0.0
 10
3.0557600000000003
 20
2.7172300000000003
 30
0.0
 10
3.0557600000000003
 20
2.7172300000000003
 30
0.0
 10
3.0887800000000003
 20
2.6308700000000003
 30
0.0
 10
3.1700600000000003
 20
2.5978500000000002
 30
0.0
 10
3.2361000000000004
 20
2.5292700000000004
 30
0.0
 10
3.2361000000000004
 20
2.5292700000000004
 30
0.0
 10
3.7999800000000001
 20
2.54705
 30
0.0
 10
4.0260400000000001
 20
1.9349100000000001
 30
0.0
 10
4.5873800000000005
 20
1.9018900000000001
 30
0.0
 10
4.5873800000000005
 20
1.9018900000000001
 30
0.0
 10
4.6585000000000001
 20
2.0187300000000001
 30
0.0
 10
4.5670600000000006
 20
2.1406500000000004
 30
0.0
 10
4.4908600000000005
 20
2.20669
 30
0.0
 10
4.4908600000000005
 20
2.20669
 30
0.0
 10
4.5238800000000001
 20
2.2752700000000003
 30
0.0
 10
4.6127800000000008
 20
2.2574900000000002
 30
0.0
 10
4.6762800000000002
 20
2.2574900000000002
 30
0.0
 10
4.6762800000000002
 20
2.2574900000000002
 30
0.0
 10
5.0877600000000003
 20
1.7291700000000001
 30
0.0
 10
5.7380000000000004
 20
1.2541900000000001
 30
0.0
 10
5.6440200000000003
 20
0.5226700000000001
 30
0.0
 10
5.6440200000000003
 20
0.5226700000000001
 30
0.0
 10
5.47384
 20
0.48711
 30
0.0
 10
5.3341400000000005
 20
0.8122300000000001
 30
0.0
 10
5.1411000000000007
 20
0.8630300000000001
 30
0.0
 10
5.1411000000000007
 20
0.8630300000000001
 30
0.0
 10
5.2985800000000003
 20
0.55569
 30
0.0
 10
4.8007400000000002
 20
-0.07168
 30
0.0
 10
4.8109000000000002
 20
0.5404500000000001
 30
0.0
 10
4.8109000000000002
 20
0.5404500000000001
 30
0.0
 10
4.7220000000000004
 20
0.72587
 30
0.0
 10
4.6610400000000007
 20
0.6090300000000001
 30
0.0
 10
4.5797600000000003
 20
0.5912500000000001
 30
0.0
 10
4.5797600000000003
 20
0.5912500000000001
 30
0.0
 10
4.5213400000000004
 20
0.7106300000000001
 30
0.0
 10
4.3206800000000003
 20
0.74365
 30
0.0
 10
4.25718
 20
0.6242700000000001
 30
0.0
 10
4.25718
 20
0.6242700000000001
 30
0.0
 10
4.5137200000000002
 20
0.02991
 30
0.0
 10
4.5315000000000003
 20
-0.6482600000000001
 30
0.0
 10
4.6127800000000008
 20
-1.3137400000000001
 30
0.0
 10
4.6127800000000008
 20
-1.3137400000000001
 30
0.0
 10
4.8337600000000007
 20
-1.1588000000000001
 30
0.0
 10
4.9633000000000003
 20
-0.7524000000000001
 30
0.0
 10
5.1157000000000004
 20
-0.6482600000000001
 30
0.0
 10
5.1157000000000004
 20
-0.6482600000000001
 30
0.0
 10
5.1919000000000004
 20
-0.80066
 30
0.0
 10
5.1919000000000004
 20
-0.9733800000000001
 30
0.0
 10
5.1919000000000004
 20
-1.1435600000000001
 30
0.0
 10
5.1919000000000004
 20
-1.1435600000000001
 30
0.0
 10
5.2884200000000003
 20
-1.0241800000000001
 30
0.0
 10
5.3468400000000003
 20
-0.7676400000000001
 30
0.0
 10
5.47384
 20
-0.7346200000000001
 30
0.0
 10
5.47384
 20
-0.7346200000000001
 30
0.0
 10
5.5094000000000003
 20
-1.1943600000000001
 30
0.0
 10
5.4484400000000006
 20
-1.7557
 30
0.0
 10
5.0395000000000003
 20
-2.0097
 30
0.0
 10
5.0395000000000003
 20
-2.0097
 30
0.0
 10
5.2350800000000008
 20
-2.35006
 30
0.0
 10
5.0039400000000001
 20
-2.6726400000000003
 30
0.0
 10
4.6483400000000001
 20
-2.7082000000000002
 30
0.0
 10
4.6483400000000001
 20
-2.7082000000000002
 30
0.0
 10
4.5873800000000005
 20
-3.1501600000000001
 30
0.0
 10
4.5645200000000008
 20
-3.6099000000000001
 30
0.0
 10
4.2978200000000006
 20
-3.9832800000000002
 30
0.0
 10
4.2978200000000006
 20
-3.9832800000000002
 30
0.0
 10
4.1200200000000002
 20
-3.5921200000000004
 30
0.0
 10
4.1911400000000008
 20
-3.1171400000000005
 30
0.0
 10
4.0438200000000002
 20
-2.7082000000000002
 30
0.0
 10
4.0438200000000002
 20
-2.7082000000000002
 30
0.0
 10
2.0702400000000001
 20
-2.4008600000000002
 30
0.0
 10
0.19064
 20
-3.3559000000000001
 30
0.0
 10
-1.6635500000000001
 20
-3.2695400000000001
 30
0.0
 10
-1.6635500000000001
 20
-3.2695400000000001
 30
0.0
 10
-1.7930900000000001
 20
-3.1857200000000003
 30
0.0
 10
-1.6991100000000001
 20
-3.03078
 30
0.0
 10
-1.7194300000000002
 20
-2.9114000000000004
 30
0.0
 10
-1.7194300000000002
 20
-2.9114000000000004
 30
0.0
 10
-0.9599700000000001
 20
-1.9589000000000001
 30
0.0
 10
-3.5304500000000001
 20
-1.7379200000000001
 30
0.0
 10
-2.7074900000000004
 20
-0.7854200000000001
 30
0.0
 10
-2.7074900000000004
 20
-0.7854200000000001
 30
0.0
 10
-2.7074900000000004
 20
-0.7854200000000001
 30
0.0
 10
-2.7608300000000003
 20
-0.49586
 30
0.0
 10
-2.7608300000000003
 20
-0.49586
 30
0.0
 10
-2.7608300000000003
 20
-0.49586
 30
0.0
 10
-3.1799300000000001
 20
-0.32568
 30
0.0
 10
-3.5152100000000002
 20
-0.80066
 30
0.0
 10
-3.9241500000000005
 20
-0.69906
 30
0.0
 10
-3.9241500000000005
 20
-0.69906
 30
0.0
 10
-4.0435300000000005
 20
-0.63048
 30
0.0
 10
-4.1629100000000001
 20
-0.5822200000000001
 30
0.0
 10
-4.2492700000000001
 20
-0.4780800000000001
 30
0.0
 10
-4.2492700000000001
 20
-0.4780800000000001
 30
0.0
 10
-4.6404300000000003
 20
0.5404500000000001
 30
0.0
 10
-5.8088300000000004
 20
1.2541900000000001
 30
0.0
 10
-5.6284900000000002
 20
2.4124300000000001
 30
0.0
 10
-5.6284900000000002
 20
2.4124300000000001
 30
0.0
 10
-4.5997900000000005
 20
4.16249
 30
0.0
 10
-2.3925300000000003
 20
3.6875100000000005
 30
0.0
 10
-0.7135900000000001
 20
3.9770700000000003
 30
0.0
  0
SPLINE
  5
26
100
AcDbEntity
  8
Ebene 1
100
AcDbSpline
210
0.0
220
0.0
230
1.0
 70
     1
 71
     3
 72
    64
 73
    60
 74
     0
 42
0.0000000001
 43
0.0000000001
 40
0.0
 40
0.0
 40
0.0
 40
0.0
 40
0.0666666666666667
 40
0.0666666666666667
 40
0.0666666666666667
 40
0.0666666666666667
 40
0.1333333333333333
 40
0.1333333333333333
 40
0.1333333333333333
 40
0.1333333333333333
 40
0.2
 40
0.2
 40
0.2
 40
0.2
 40
0.2666666666666667
 40
0.2666666666666667
 40
0.2666666666666667
 40
0.2666666666666667
 40
0.3333333333333333
 40
0.3333333333333333
 40
0.3333333333333333
 40
0.3333333333333333
 40
0.4
 40
0.4
 40
0.4
 40
0.4
 40
0.4666666666666666
 40
0.4666666666666666
 40
0.4666666666666666
 40
0.4666666666666666
 40
0.5333333333333333
 40
0.5333333333333333
 40
0.5333333333333333
 40
0.5333333333333333
 40
0.6
 40
0.6
 40
0.6
 40
0.6
 40
0.6666666666666666
 40
0.6666666666666666
 40
0.6666666666666666
 40
0.6666666666666666
 40
0.7333333333333333
 40
0.7333333333333333
 40
0.7333333333333333
 40
0.7333333333333333
 40
0.7999999999999999
 40
0.7999999999999999
 40
0.7999999999999999
 40
0.7999999999999999
 40
0.8666666666666666
 40
0.8666666666666666
 40
0.8666666666666666
 40
0.8666666666666666
 40
0.9333333333333332
 40
0.9333333333333332
 40
0.9333333333333332
 40
0.9333333333333332
 40
1.0
 40
1.0
 40
1.0
 40
1.0
 10
2.2607400000000002
 20
0.47187
 30
0.0
 10
1.8518000000000001
 20
0.3169300000000001
 30
0.0
 10
1.9889600000000001
 20
-0.5974600000000001
 30
0.0
 10
1.4835
 20
-0.1047
 30
0.0
 10
1.4835
 20
-0.1047
 30
0.0
 10
1.5546200000000001
 20
-0.2571
 30
0.0
 10
1.5038200000000002
 20
-0.7346200000000001
 30
0.0
 10
1.2625200000000001
 20
-0.49586
 30
0.0
 10
1.2625200000000001
 20
-0.49586
 30
0.0
 10
1.1837800000000001
 20
-0.7346200000000001
 30
0.0
 10
0.9780400000000001
 20
-0.5974600000000001
 30
0.0
 10
0.8535800000000001
 20
-0.4780800000000001
 30
0.0
 10
0.8535800000000001
 20
-0.4780800000000001
 30
0.0
 10
0.8332600000000001
 20
-0.5974600000000001
 30
0.0
 10
0.9424800000000001
 20
-0.7524000000000001
 30
0.0
 10
0.8535800000000001
 20
-0.8362200000000001
 30
0.0
 10
0.8535800000000001
 20
-0.8362200000000001
 30
0.0
 10
0.4802
 20
-0.7524000000000001
 30
0.0
 10
0.35066
 20
-0.5136400000000001
 30
0.0
 10
0.1373
 20
-0.24186
 30
0.0
 10
0.1373
 20
-0.24186
 30
0.0
 10
0.18302
 20
-0.6482600000000001
 30
0.0
 10
0.31764
 20
-1.1435600000000001
 30
0.0
 10
0.66054
 20
-1.41534
 30
0.0
 10
0.66054
 20
-1.41534
 30
0.0
 10
0.66054
 20
-1.41534
 30
0.0
 10
1.06694
 20
-1.0064000000000002
 30
0.0
 10
1.06694
 20
-1.0064000000000002
 30
0.0
 10
1.06694
 20
-1.0064000000000002
 30
0.0
 10
1.1609200000000002
 20
-1.07498
 30
0.0
 10
1.1304400000000001
 20
-1.1943600000000001
 30
0.0
 10
1.14314
 20
-1.29596
 30
0.0
 10
1.14314
 20
-1.29596
 30
0.0
 10
1.2142600000000001
 20
-1.2604000000000002
 30
0.0
 10
1.3184
 20
-1.1588000000000001
 30
0.0
 10
1.4073000000000002
 20
-1.21214
 30
0.0
 10
1.4073000000000002
 20
-1.21214
 30
0.0
 10
1.3666600000000002
 20
-1.3467600000000002
 30
0.0
 10
1.3793600000000001
 20
-1.5169400000000002
 30
0.0
 10
1.4936600000000002
 20
-1.6007600000000002
 30
0.0
 10
1.4936600000000002
 20
-1.6007600000000002
 30
0.0
 10
1.6994000000000002
 20
-1.5169400000000002
 30
0.0
 10
1.7095600000000002
 20
-1.24516
 30
0.0
 10
1.8340200000000002
 20
-1.0902200000000002
 30
0.0
 10
1.8340200000000002
 20
-1.0902200000000002
 30
0.0
 10
1.9838800000000001
 20
-1.0902200000000002
 30
0.0
 10
1.9356200000000001
 20
-1.3137400000000001
 30
0.0
 10
2.0270600000000001
 20
-1.41534
 30
0.0
 10
2.0270600000000001
 20
-1.41534
 30
0.0
 10
2.0270600000000001
 20
-1.41534
 30
0.0
 10
2.29122
 20
-1.21214
 30
0.0
 10
2.29122
 20
-1.21214
 30
0.0
 10
2.29122
 20
-1.21214
 30
0.0
 10
2.3953600000000002
 20
-1.8903200000000002
 30
0.0
 10
3.1903800000000002
 20
-1.7023600000000001
 30
0.0
 10
3.6704400000000001
 20
-1.58552
 30
0.0
 10
3.6704400000000001
 20
-1.58552
 30
0.0
 10
3.2843600000000004
 20
-0.8540000000000001
 30
0.0
 10
3.1878400000000005
 20
0.3169300000000001
 30
0.0
 10
2.2607400000000002
 20
0.47187
 30
0.0
  0
SPLINE
  5
27
100
AcDbEntity
  8
Ebene 1
 62
     7
100
AcDbSpline
210
0.0
220
0.0
230
1.0
 70
     1
 71
     3
 72
   312
 73
   308
 74
     0
 42
0.0000000001
 43
0.0000000001
 40
0.0
 40
0.0
 40
0.0
 40
0.0
 40
0.012987012987013
 40
0.012987012987013
 40
0.012987012987013
 40
0.012987012987013
 40
0.025974025974026
 40
0.025974025974026
 40
0.025974025974026
 40
0.025974025974026
 40
0.038961038961039
 40
0.038961038961039
 40
0.038961038961039
 40
0.038961038961039
 40
0.051948051948052
 40
0.051948051948052
 40
0.051948051948052
 40
0.051948051948052
 40
0.0649350649350649
 40
0.0649350649350649
 40
0.0649350649350649
 40
0.0649350649350649
 40
0.0779220779220779
 40
0.0779220779220779
 40
0.0779220779220779
 40
0.0779220779220779
 40
0.0909090909090909
 40
0.0909090909090909
 40
0.0909090909090909
 40
0.0909090909090909
 40
0.1038961038961039
 40
0.1038961038961039
 40
0.1038961038961039
 40
0.1038961038961039
 40
0.1168831168831169
 40
0.1168831168831169
 40
0.1168831168831169
 40
0.1168831168831169
 40
0.1298701298701299
 40
0.1298701298701299
 40
0.1298701298701299
 40
0.1298701298701299
 40
0.1428571428571429
 40
0.1428571428571429
 40
0.1428571428571429
 40
0.1428571428571429
 40
0.1558441558441559
 40
0.1558441558441559
 40
0.1558441558441559
 40
0.1558441558441559
 40
0.1688311688311689
 40
0.1688311688311689
 40
0.1688311688311689
 40
0.1688311688311689
 40
0.1818181818181819
 40
0.1818181818181819
 40
0.1818181818181819
 40
0.1818181818181819
 40
0.1948051948051948
 40
0.1948051948051948
 40
0.1948051948051948
 40
0.1948051948051948
 40
0.2077922077922078
 40
0.2077922077922078
 40
0.2077922077922078
 40
0.2077922077922078
 40
0.2207792207792208
 40
0.2207792207792208
 40
0.2207792207792208
 40
0.2207792207792208
 40
0.2337662337662338
 40
0.2337662337662338
 40
0.2337662337662338
 40
0.2337662337662338
 40
0.2467532467532468
 40
0.2467532467532468
 40
0.2467532467532468
 40
0.2467532467532468
 40
0.2597402597402598
 40
0.2597402597402598
 40
0.2597402597402598
 40
0.2597402597402598
 40
0.2727272727272728
 40
0.2727272727272728
 40
0.2727272727272728
 40
0.2727272727272728
 40
0.2857142857142858
 40
0.2857142857142858
 40
0.2857142857142858
 40
0.2857142857142858
 40
0.2987012987012988
 40
0.2987012987012988
 40
0.2987012987012988
 40
0.2987012987012988
 40
0.3116883116883117
 40
0.3116883116883117
 40
0.3116883116883117
 40
0.3116883116883117
 40
0.3246753246753247
 40
0.3246753246753247
 40
0.3246753246753247
 40
0.3246753246753247
 40
0.3376623376623377
 40
0.3376623376623377
 40
0.3376623376623377
 40
0.3376623376623377
 40
0.3506493506493507
 40
0.3506493506493507
 40
0.3506493506493507
 40
0.3506493506493507
 40
0.3636363636363637
 40
0.3636363636363637
 40
0.3636363636363637
 40
0.3636363636363637
 40
0.3766233766233767
 40
0.3766233766233767
 40
0.3766233766233767
 40
0.3766233766233767
 40
0.3896103896103897
 40
0.3896103896103897
 40
0.3896103896103897
 40
0.3896103896103897
 40
0.4025974025974027
 40
0.4025974025974027
 40
0.4025974025974027
 40
0.4025974025974027
 40
0.4155844155844157
 40
0.4155844155844157
 40
0.4155844155844157
 40
0.4155844155844157
 40
0.4285714285714287
 40
0.4285714285714287
 40
0.4285714285714287
 40
0.4285714285714287
 40
0.4415584415584417
 40
0.4415584415584417
 40
0.4415584415584417
 40
0.4415584415584417
 40
0.4545454545454546
 40
0.4545454545454546
 40
0.4545454545454546
 40
0.4545454545454546
 40
0.4675324675324676
 40
0.4675324675324676
 40
0.4675324675324676
 40
0.4675324675324676
 40
0.4805194805194806
 40
0.4805194805194806
 40
0.4805194805194806
 40
0.4805194805194806
 40
0.4935064935064936
 40
0.4935064935064936
 40
0.4935064935064936
 40
0.4935064935064936
 40
0.5064935064935066
 40
0.5064935064935066
 40
0.5064935064935066
 40
0.5064935064935066
 40
0.5194805194805195
 40
0.5194805194805195
 40
0.5194805194805195
 40
0.5194805194805195
 40
0.5324675324675325
 40
0.5324675324675325
 40
0.5324675324675325
 40
0.5324675324675325
 40
0.5454545454545455
 40
0.5454545454545455
 40
0.5454545454545455
 40
0.5454545454545455
 40
0.5584415584415585
 40
0.5584415584415585
 40
0.5584415584415585
 40
0.5584415584415585
 40
0.5714285714285715
 40
0.5714285714285715
 40
0.5714285714285715
 40
0.5714285714285715
 40
0.5844155844155845
 40
0.5844155844155845
 40
0.5844155844155845
 40
0.5844155844155845
 40
0.5974025974025975
 40
0.5974025974025975
 40
0.5974025974025975
 40
0.5974025974025975
 40
0.6103896103896105
 40
0.6103896103896105
 40
0.6103896103896105
 40
0.6103896103896105
 40
0.6233766233766235
 40
0.6233766233766235
 40
0.6233766233766235
 40
0.6233766233766235
 40
0.6363636363636365
 40
0.6363636363636365
 40
0.6363636363636365
 40
0.6363636363636365
 40
0.6493506493506495
 40
0.6493506493506495
 40
0.6493506493506495
 40
0.6493506493506495
 40
0.6623376623376625
 40
0.6623376623376625
 40
0.6623376623376625
 40
0.6623376623376625
 40
0.6753246753246754
 40
0.6753246753246754
 40
0.6753246753246754
 40
0.6753246753246754
 40
0.6883116883116884
 40
0.6883116883116884
 40
0.6883116883116884
 40
0.6883116883116884
 40
0.7012987012987014
 40
0.7012987012987014
 40
0.7012987012987014
 40
0.7012987012987014
 40
0.7142857142857144
 40
0.7142857142857144
 40
0.7142857142857144
 40
0.7142857142857144
 40
0.7272727272727274
 40
0.7272727272727274
 40
0.7272727272727274
 40
0.7272727272727274
 40
0.7402597402597404
 40
0.7402597402597404
 40
0.7402597402597404
 40
0.7402597402597404
 40
0.7532467532467534
 40
0.7532467532467534
 40
0.7532467532467534
 40
0.7532467532467534
 40
0.7662337662337664
 40
0.7662337662337664
 40
0.7662337662337664
 40
0.7662337662337664
 40
0.7792207792207794
 40
0.7792207792207794
 40
0.7792207792207794
 40
0.7792207792207794
 40
0.7922077922077924
 40
0.7922077922077924
 40
0.7922077922077924
 40
0.7922077922077924
 40
0.8051948051948054
 40
0.8051948051948054
 40
0.8051948051948054
 40
0.8051948051948054
 40
0.8181818181818183
 40
0.8181818181818183
 40
0.8181818181818183
 40
0.8181818181818183
 40
0.8311688311688313
 40
0.8311688311688313
 40
0.8311688311688313
 40
0.8311688311688313
 40
0.8441558441558443
 40
0.8441558441558443
 40
0.8441558441558443
 40
0.8441558441558443
 40
0.8571428571428573
 40
0.8571428571428573
 40
0.8571428571428573
 40
0.8571428571428573
 40
0.8701298701298703
 40
0.8701298701298703
 40
0.8701298701298703
 40
0.8701298701298703
 40
0.8831168831168833
 40
0.8831168831168833
 40
0.8831168831168833
 40
0.8831168831168833
 40
0.8961038961038963
 40
0.8961038961038963
 40
0.8961038961038963
 40
0.8961038961038963
 40
0.9090909090909093
 40
0.9090909090909093
 40
0.9090909090909093
 40
0.9090909090909093
 40
0.9220779220779223
 40
0.9220779220779223
 40
0.9220779220779223
 40
0.9220779220779223
 40
0.9350649350649353
 40
0.9350649350649353
 40
0.9350649350649353
 40
0.9350649350649353
 40
0.9480519480519483
 40
0.9480519480519483
 40
0.9480519480519483
 40
0.9480519480519483
 40
0.9610389610389613
 40
0.9610389610389613
 40
0.9610389610389613
 40
0.9610389610389613
 40
0.9740259740259742
 40
0.9740259740259742
 40
0.9740259740259742
 40
0.9740259740259742
 40
0.9870129870129872
 40
0.9870129870129872
 40
0.9870129870129872
 40
0.9870129870129872
 40
1.0
 40
1.0
 40
1.0
 40
1.0
 10
-1.6330700000000002
 20
-2.1798800000000003
 30
0.0
 10
-1.5797300000000001
 20
-2.1798800000000003
 30
0.0
 10
-1.5365500000000001
 20
-2.2840200000000004
 30
0.0
 10
-1.4832100000000001
 20
-2.23068
 30
0.0
 10
-1.4832100000000001
 20
-2.23068
 30
0.0
 10
-1.8261100000000001
 20
-1.8725400000000001
 30
0.0
 10
-2.3163300000000002
 20
-1.6871200000000002
 30
0.0
 10
-2.7074900000000004
 20
-1.3645400000000001
 30
0.0
 10
-2.7074900000000004
 20
-1.3645400000000001
 30
0.0
 10
-3.0122900000000001
 20
-1.0572000000000001
 30
0.0
 10
-2.4661900000000001
 20
-0.80066
 30
0.0
 10
-2.2299700000000002
 20
-0.7346200000000001
 30
0.0
 10
-2.2299700000000002
 20
-0.7346200000000001
 30
0.0
 10
-2.60589
 20
-0.69906
 30
0.0
 10
-3.0961100000000004
 20
0.3169300000000001
 30
0.0
 10
-3.2713700000000001
 20
-0.14026
 30
0.0
 10
-3.2713700000000001
 20
-0.14026
 30
0.0
 10
-3.3475700000000002
 20
-0.17328
 30
0.0
 10
-3.4974300000000005
 20
-0.32568
 30
0.0
 10
-3.3120100000000003
 20
-0.24186
 30
0.0
 10
-3.3120100000000003
 20
-0.24186
 30
0.0
 10
-2.48651
 20
-0.14026
 30
0.0
 10
-3.6091900000000003
 20
-0.54666
 30
0.0
 10
-3.9139900000000005
 20
-0.54666
 30
0.0
 10
-3.9139900000000005
 20
-0.54666
 30
0.0
 10
-4.4778700000000002
 20
0.05531
 30
0.0
 10
-5.2703500000000005
 20
0.9671700000000001
 30
0.0
 10
-5.5167300000000008
 20
1.8358500000000002
 30
0.0
 10
-5.5167300000000008
 20
1.8358500000000002
 30
0.0
 10
-5.5700700000000003
 20
2.0161900000000004
 30
0.0
 10
-5.4811700000000005
 20
2.1482700000000001
 30
0.0
 10
-5.4913300000000005
 20
2.3260700000000001
 30
0.0
 10
-5.4913300000000005
 20
2.3260700000000001
 30
0.0
 10
-5.02651
 20
2.8188300000000002
 30
0.0
 10
-4.7648900000000003
 20
3.2455500000000002
 30
0.0
 10
-4.0943300000000002
 20
3.5503500000000003
 30
0.0
 10
-4.0943300000000002
 20
3.5503500000000003
 30
0.0
 10
-3.3069300000000004
 20
3.7738700000000005
 30
0.0
 10
-2.4230100000000001
 20
3.7383100000000002
 30
0.0
 10
-1.58735
 20
3.6367100000000003
 30
0.0
 10
-1.58735
 20
3.6367100000000003
 30
0.0
 10
-1.6051300000000002
 20
3.5503500000000003
 30
0.0
 10
-1.8159500000000002
 20
3.4665300000000001
 30
0.0
 10
-1.7194300000000002
 20
3.3649300000000002
 30
0.0
 10
-1.7194300000000002
 20
3.3649300000000002
 30
0.0
 10
-1.21143
 20
3.8246700000000002
 30
0.0
 10
-0.44689
 20
4.0786700000000007
 30
0.0
 10
0.1119
 20
3.5859100000000002
 30
0.0
 10
0.1119
 20
3.5859100000000002
 30
0.0
 10
0.0484
 20
3.5681300000000005
 30
0.0
 10
-0.12939
 20
3.5503500000000003
 30
0.0
 10
-0.08621
 20
3.4665300000000001
 30
0.0
 10
-0.08621
 20
3.4665300000000001
 30
0.0
 10
0.12968
 20
3.5503500000000003
 30
0.0
 10
0.3786000000000001
 20
3.5503500000000003
 30
0.0
 10
0.6072000000000001
 20
3.4995500000000002
 30
0.0
 10
0.6072000000000001
 20
3.4995500000000002
 30
0.0
 10
0.42686
 20
3.6189300000000002
 30
0.0
 10
0.17286
 20
3.6189300000000002
 30
0.0
 10
0.00268
 20
3.7560900000000004
 30
0.0
 10
0.00268
 20
3.7560900000000004
 30
0.0
 10
1.3539600000000001
 20
3.3649300000000002
 30
0.0
 10
0.95518
 20
3.7205300000000001
 30
0.0
 10
2.1921600000000003
 20
2.97377
 30
0.0
 10
2.1921600000000003
 20
2.97377
 30
0.0
 10
2.5325200000000003
 20
3.0423500000000003
 30
0.0
 10
2.9389200000000004
 20
3.2607900000000001
 30
0.0
 10
3.2615000000000003
 20
3.0753700000000004
 30
0.0
 10
3.2615000000000003
 20
3.0753700000000004
 30
0.0
 10
3.6704400000000001
 20
2.7858100000000001
 30
0.0
 10
3.2208600000000001
 20
2.8366100000000003
 30
0.0
 10
3.0430600000000001
 20
3.0753700000000004
 30
0.0
 10
3.0430600000000001
 20
3.0753700000000004
 30
0.0
 10
3.0430600000000001
 20
3.0753700000000004
 30
0.0
 10
2.9795600000000002
 20
3.0753700000000004
 30
0.0
 10
2.9795600000000002
 20
3.0753700000000004
 30
0.0
 10
2.9795600000000002
 20
3.0753700000000004
 30
0.0
 10
3.1091000000000002
 20
2.7858100000000001
 30
0.0
 10
2.33948
 20
2.97377
 30
0.0
 10
2.7204800000000002
 20
2.8366100000000003
 30
0.0
 10
2.7204800000000002
 20
2.8366100000000003
 30
0.0
 10
2.7204800000000002
 20
2.8366100000000003
 30
0.0
 10
2.9084400000000001
 20
2.8035900000000002
 30
0.0
 10
2.9084400000000001
 20
2.8035900000000002
 30
0.0
 10
2.9084400000000001
 20
2.8035900000000002
 30
0.0
 10
2.9109800000000003
 20
2.7172300000000003
 30
0.0
 10
3.05322
 20
2.5648300000000002
 30
0.0
 10
2.9922600000000004
 20
2.51403
 30
0.0
 10
2.9922600000000004
 20
2.51403
 30
0.0
 10
2.8449400000000002
 20
2.5292700000000004
 30
0.0
 10
2.71794
 20
2.6994500000000001
 30
0.0
 10
2.5706200000000003
 20
2.6308700000000003
 30
0.0
 10
2.5706200000000003
 20
2.6308700000000003
 30
0.0
 10
2.7941400000000001
 20
2.41751
 30
0.0
 10
3.1243400000000001
 20
2.3692500000000001
 30
0.0
 10
3.3453200000000001
 20
2.1381100000000002
 30
0.0
 10
3.3453200000000001
 20
2.1381100000000002
 30
0.0
 10
3.4672400000000003
 20
2.0136500000000002
 30
0.0
 10
3.4875600000000002
 20
2.09239
 30
0.0
 10
3.5332800000000004
 20
2.0542899999999999
 30
0.0
 10
3.5332800000000004
 20
2.0542899999999999
 30
0.0
 10
3.2843600000000004
 20
2.29305
 30
0.0
 10
3.2665800000000003
 20
2.3082900000000004
 30
0.0
 10
3.6552000000000002
 20
2.3082900000000004
 30
0.0
 10
3.6552000000000002
 20
2.3082900000000004
 30
0.0
 10
3.7136200000000001
 20
2.0720700000000001
 30
0.0
 10
4.5518200000000002
 20
1.9018900000000001
 30
0.0
 10
4.8109000000000002
 20
1.4929500000000002
 30
0.0
 10
4.8109000000000002
 20
1.4929500000000002
 30
0.0
 10
4.9455200000000001
 20
1.27197
 30
0.0
 10
4.8947200000000004
 20
1.2668900000000001
 30
0.0
 10
4.7601000000000004
 20
1.2033900000000002
 30
0.0
 10
4.7601000000000004
 20
1.2033900000000002
 30
0.0
 10
4.7296200000000006
 20
1.18815
 30
0.0
 10
4.67882
 20
1.1627500000000002
 30
0.0
 10
4.7143800000000002
 20
1.1170300000000002
 30
0.0
 10
4.7143800000000002
 20
1.1170300000000002
 30
0.0
 10
5.0979200000000002
 20
1.27197
 30
0.0
 10
5.0877600000000003
 20
0.7766700000000001
 30
0.0
 10
4.92774
 20
0.47187
 30
0.0
 10
4.92774
 20
0.47187
 30
0.0
 10
4.9125000000000005
 20
1.0509900000000001
 30
0.0
 10
4.3562400000000006
 20
0.5912500000000001
 30
0.0
 10
4.6051600000000006
 20
1.06877
 30
0.0
 10
4.6051600000000006
 20
1.06877
 30
0.0
 10
4.4730800000000004
 20
0.9646300000000001
 30
0.0
 10
4.3156000000000008
 20
0.8808100000000001
 30
0.0
 10
4.2063800000000002
 20
1.06877
 30
0.0
 10
4.2063800000000002
 20
1.06877
 30
0.0
 10
4.2063800000000002
 20
1.06877
 30
0.0
 10
4.1124000000000001
 20
1.1856100000000001
 30
0.0
 10
4.1124000000000001
 20
1.1856100000000001
 30
0.0
 10
4.1124000000000001
 20
1.1856100000000001
 30
0.0
 10
4.0793800000000005
 20
1.2541900000000001
 30
0.0
 10
3.9041200000000003
 20
1.4929500000000002
 30
0.0
 10
3.9244400000000002
 20
1.3557900000000001
 30
0.0
 10
3.9244400000000002
 20
1.3557900000000001
 30
0.0
 10
3.9930200000000005
 20
1.15259
 30
0.0
 10
4.2216200000000006
 20
1.0154300000000001
 30
0.0
 10
4.2140000000000004
 20
0.7944500000000001
 30
0.0
 10
4.2140000000000004
 20
0.7944500000000001
 30
0.0
 10
3.7364800000000002
 20
1.23641
 30
0.0
 10
3.0913200000000001
 20
0.9316100000000001
 30
0.0
 10
2.8043
 20
0.47187
 30
0.0
 10
2.8043
 20
0.47187
 30
0.0
 10
2.5604600000000004
 20
0.6090300000000001
 30
0.0
 10
2.6569800000000003
 20
1.0001900000000001
 30
0.0
 10
2.4791800000000004
 20
1.2211700000000001
 30
0.0
 10
2.4791800000000004
 20
1.2211700000000001
 30
0.0
 10
2.3699600000000003
 20
1.3049900000000001
 30
0.0
 10
2.4791800000000004
 20
1.1170300000000002
 30
0.0
 10
2.4868000000000001
 20
1.06877
 30
0.0
 10
2.4868000000000001
 20
1.06877
 30
0.0
 10
2.5274400000000004
 20
0.9824100000000001
 30
0.0
 10
2.5350600000000001
 20
0.8960500000000001
 30
0.0
 10
2.5376000000000003
 20
0.7944500000000001
 30
0.0
 10
2.5376000000000003
 20
0.7944500000000001
 30
0.0
 10
2.5299800000000001
 20
0.25089
 30
0.0
 10
2.0550000000000002
 20
1.0001900000000001
 30
0.0
 10
2.05246
 20
0.8630300000000001
 30
0.0
 10
2.05246
 20
0.8630300000000001
 30
0.0
 10
2.0981800000000002
 20
0.7944500000000001
 30
0.0
 10
2.1489800000000003
 20
0.72587
 30
0.0
 10
2.1820000000000004
 20
0.64205
 30
0.0
 10
2.1820000000000004
 20
0.64205
 30
0.0
 10
2.2277200000000001
 20
0.23311
 30
0.0
 10
1.0364600000000002
 20
0.23311
 30
0.0
 10
1.14822
 20
0.8122300000000001
 30
0.0
 10
1.14822
 20
0.8122300000000001
 30
0.0
 10
1.0059800000000001
 20
0.8604900000000001
 30
0.0
 10
1.0796400000000002
 20
0.6928500000000001
 30
0.0
 10
1.0898000000000001
 20
0.64205
 30
0.0
 10
1.0898000000000001
 20
0.64205
 30
0.0
 10
1.15076
 20
0.29153
 30
0.0
 10
0.9221600000000001
 20
0.25089
 30
0.0
 10
0.76722
 20
0.01213
 30
0.0
 10
0.76722
 20
0.01213
 30
0.0
 10
0.86882
 20
0.01975
 30
0.0
 10
0.99582
 20
0.09849
 30
0.0
 10
0.9653400000000001
 20
-0.08692
 30
0.0
 10
0.9653400000000001
 20
-0.08692
 30
0.0
 10
0.9856600000000001
 20
-0.2063
 30
0.0
 10
1.0415400000000001
 20
-0.3079
 30
0.0
 10
1.0872600000000001
 20
-0.3942600000000001
 30
0.0
 10
1.0872600000000001
 20
-0.3942600000000001
 30
0.0
 10
0.93232
 20
-0.88702
 30
0.0
 10
0.57164
 20
0.4540900000000001
 30
0.0
 10
0.5233800000000001
 20
0.20009
 30
0.0
 10
0.5233800000000001
 20
0.20009
 30
0.0
 10
0.5411600000000001
 20
0.08071
 30
0.0
 10
0.50814
 20
-0.03612
 30
0.0
 10
0.47004
 20
-0.12248
 30
0.0
 10
0.47004
 20
-0.12248
 30
0.0
 10
0.14238
 20
-0.4780800000000001
 30
0.0
 10
-0.03033
 20
0.48711
 30
0.0
 10
-0.01763
 20
0.04515
 30
0.0
 10
-0.01763
 20
0.04515
 30
0.0
 10
-0.01763
 20
0.04515
 30
0.0
 10
-0.00239
 20
-0.17328
 30
0.0
 10
-0.00239
 20
-0.17328
 30
0.0
 10
-0.00239
 20
-0.17328
 30
0.0
 10
-0.8964700000000001
 20
0.11373
 30
0.0
 10
-1.2190500000000002
 20
-1.9589000000000001
 30
0.0
 10
-2.18933
 20
-0.80066
 30
0.0
 10
-2.18933
 20
-0.80066
 30
0.0
 10
-2.0928100000000001
 20
-1.3289800000000001
 30
0.0
 10
-1.0717300000000001
 20
-1.2273800000000001
 30
0.0
 10
-1.3562100000000001
 20
-1.4661400000000002
 30
0.0
 10
-1.3562100000000001
 20
-1.4661400000000002
 30
0.0
 10
-1.3562100000000001
 20
-1.4661400000000002
 30
0.0
 10
-1.6533900000000001
 20
-1.6185400000000001
 30
0.0
 10
-1.6533900000000001
 20
-1.6185400000000001
 30
0.0
 10
-1.6533900000000001
 20
-1.6185400000000001
 30
0.0
 10
-1.5263900000000001
 20
-1.9258800000000003
 30
0.0
 10
-0.9472700000000001
 20
-0.8692400000000001
 30
0.0
 10
-0.8964700000000001
 20
-1.3289800000000001
 30
0.0
 10
-0.8964700000000001
 20
-1.3289800000000001
 30
0.0
 10
-1.7245100000000002
 20
-1.5499600000000002
 30
0.0
 10
-1.12507
 20
-2.43642
 30
0.0
 10
-0.54849
 20
-1.83952
 30
0.0
 10
-0.54849
 20
-1.83952
 30
0.0
 10
-0.54849
 20
-1.83952
 30
0.0
 10
-0.8177300000000001
 20
-1.8903200000000002
 30
0.0
 10
-0.8177300000000001
 20
-1.8903200000000002
 30
0.0
 10
-0.8177300000000001
 20
-1.8903200000000002
 30
0.0
 10
-0.9447300000000001
 20
-1.9258800000000003
 30
0.0
 10
-1.0920500000000002
 20
-1.9081000000000001
 30
0.0
 10
-1.1784100000000002
 20
-1.8065000000000002
 30
0.0
 10
-1.1784100000000002
 20
-1.8065000000000002
 30
0.0
 10
-1.4400300000000001
 20
-1.5321800000000001
 30
0.0
 10
-0.5815100000000001
 20
-1.5499600000000002
 30
0.0
 10
-0.8355100000000001
 20
-1.1765800000000002
 30
0.0
 10
-0.8355100000000001
 20
-1.1765800000000002
 30
0.0
 10
-1.0514100000000002
 20
-0.9378200000000001
 30
0.0
 10
-0.63993
 20
-0.41204
 30
0.0
 10
-0.30719
 20
-0.34346
 30
0.0
 10
-0.30719
 20
-0.34346
 30
0.0
 10
0.27192
 20
-0.69906
 30
0.0
 10
0.3786000000000001
 20
-1.4483600000000001
 30
0.0
 10
0.82818
 20
-1.9258800000000003
 30
0.0
 10
0.82818
 20
-1.9258800000000003
 30
0.0
 10
0.8637400000000001
 20
-1.83952
 30
0.0
 10
0.7164200000000001
 20
-1.7709400000000002
 30
0.0
 10
0.7088000000000001
 20
-1.66934
 30
0.0
 10
0.7088000000000001
 20
-1.66934
 30
0.0
 10
0.7062600000000001
 20
-1.5499600000000002
 30
0.0
 10
1.0745600000000002
 20
-1.7557
 30
0.0
 10
1.1533
 20
-1.6363200000000002
 30
0.0
 10
1.1533
 20
-1.6363200000000002
 30
0.0
 10
0.8002400000000001
 20
-1.6541000000000001
 30
0.0
 10
0.9272400000000001
 20
-1.3645400000000001
 30
0.0
 10
1.0491600000000001
 20
-1.1765800000000002
 30
0.0
 10
1.0491600000000001
 20
-1.1765800000000002
 30
0.0
 10
1.0491600000000001
 20
-1.1765800000000002
 30
0.0
 10
1.14314
 20
-1.58552
 30
0.0
 10
1.14314
 20
-1.58552
 30
0.0
 10
1.14314
 20
-1.58552
 30
0.0
 10
1.2091800000000001
 20
-1.5169400000000002
 30
0.0
 10
1.1660000000000001
 20
-1.37978
 30
0.0
 10
1.2904600000000002
 20
-1.3289800000000001
 30
0.0
 10
1.2904600000000002
 20
-1.3289800000000001
 30
0.0
 10
1.2904600000000002
 20
-1.3289800000000001
 30
0.0
 10
1.3819000000000001
 20
-1.66934
 30
0.0
 10
1.3819000000000001
 20
-1.66934
 30
0.0
 10
1.3819000000000001
 20
-1.66934
 30
0.0
 10
1.7298800000000001
 20
-1.6185400000000001
 30
0.0
 10
2.0321400000000001
 20
-1.8065000000000002
 30
0.0
 10
2.4106000000000001
 20
-1.7201400000000002
 30
0.0
 10
2.4106000000000001
 20
-1.7201400000000002
 30
0.0
 10
1.4936600000000002
 20
-2.23068
 30
0.0
 10
2.6976200000000001
 20
-1.66934
 30
0.0
 10
3.2107000000000001
 20
-1.7887200000000001
 30
0.0
 10
3.2107000000000001
 20
-1.7887200000000001
 30
0.0
 10
3.0760800000000001
 20
-1.9258800000000003
 30
0.0
 10
2.7001600000000003
 20
-2.0452600000000003
 30
0.0
 10
2.7204800000000002
 20
-2.1468600000000002
 30
0.0
 10
2.7204800000000002
 20
-2.1468600000000002
 30
0.0
 10
3.0481400000000001
 20
-1.9919200000000001
 30
0.0
 10
3.3808800000000003
 20
-1.8242800000000001
 30
0.0
 10
3.7034600000000002
 20
-1.6541000000000001
 30
0.0
 10
3.7034600000000002
 20
-1.6541000000000001
 30
0.0
 10
3.8558600000000003
 20
-1.9589000000000001
 30
0.0
 10
3.9574600000000002
 20
-2.2840200000000004
 30
0.0
 10
4.0311200000000005
 20
-2.6218400000000002
 30
0.0
 10
4.0311200000000005
 20
-2.6218400000000002
 30
0.0
 10
3.6907600000000005
 20
-2.6294600000000004
 30
0.0
 10
3.3783400000000001
 20
-2.5354800000000002
 30
0.0
 10
3.0252800000000004
 20
-2.52786
 30
0.0
 10
3.0252800000000004
 20
-2.52786
 30
0.0
 10
2.6265000000000001
 20
-2.5202400000000003
 30
0.0
 10
2.1820000000000004
 20
-2.60406
 30
0.0
 10
1.7883000000000002
 20
-2.6396200000000003
 30
0.0
 10
1.7883000000000002
 20
-2.6396200000000003
 30
0.0
 10
1.9407000000000001
 20
-2.4872200000000002
 30
0.0
 10
2.5198200000000002
 20
-2.4008600000000002
 30
0.0
 10
2.4309200000000004
 20
-2.2840200000000004
 30
0.0
 10
2.4309200000000004
 20
-2.2840200000000004
 30
0.0
 10
1.1380600000000001
 20
-2.57104
 30
0.0
 10
-0.16241
 20
-3.3381200000000004
 30
0.0
 10
-1.4908300000000001
 20
-3.1323800000000004
 30
0.0
 10
-1.4908300000000001
 20
-3.1323800000000004
 30
0.0
 10
-1.6787900000000002
 20
-2.9469600000000002
 30
0.0
 10
-1.3485900000000002
 20
-2.69042
 30
0.0
 10
-1.21143
 20
-2.8783800000000004
 30
0.0
 10
-1.21143
 20
-2.8783800000000004
 30
0.0
 10
-1.29017
 20
-2.6218400000000002
 30
0.0
 10
-1.5136900000000002
 20
-2.4186400000000003
 30
0.0
 10
-1.6330700000000002
 20
-2.1798800000000003
 30
0.0
  0
SPLINE
  5
28
100
AcDbEntity
  8
Ebene 1
100
AcDbSpline
210
0.0
220
0.0
230
1.0
 70
     1
 71
     3
 72
    28
 73
    24
 74
     0
 42
0.0000000001
 43
0.0000000001
 40
0.0
 40
0.0
 40
0.0
 40
0.0
 40
0.1666666666666667
 40
0.1666666666666667
 40
0.1666666666666667
 40
0.1666666666666667
 40
0.3333333333333333
 40
0.3333333333333333
 40
0.3333333333333333
 40
0.3333333333333333
 40
0.5
 40
0.5
 40
0.5
 40
0.5
 40
0.6666666666666666
 40
0.6666666666666666
 40
0.6666666666666666
 40
0.6666666666666666
 40
0.8333333333333333
 40
0.8333333333333333
 40
0.8333333333333333
 40
0.8333333333333333
 40
1.0
 40
1.0
 40
1.0
 40
1.0
 10
-3.2510500000000002
 20
3.5503500000000003
 30
0.0
 10
-3.0046700000000004
 20
3.5503500000000003
 30
0.0
 10
-2.7608300000000003
 20
3.5503500000000003
 30
0.0
 10
-2.52969
 20
3.4995500000000002
 30
0.0
 10
-2.52969
 20
3.4995500000000002
 30
0.0
 10
-2.3061700000000003
 20
3.4995500000000002
 30
0.0
 10
-2.0140700000000002
 20
3.4309700000000003
 30
0.0
 10
-1.9759700000000002
 20
3.1769700000000003
 30
0.0
 10
-1.9759700000000002
 20
3.1769700000000003
 30
0.0
 10
-2.6693900000000004
 20
3.3801700000000001
 30
0.0
 10
-3.6193500000000003
 20
3.6011500000000001
 30
0.0
 10
-4.2543500000000005
 20
3.1083900000000004
 30
0.0
 10
-4.2543500000000005
 20
3.1083900000000004
 30
0.0
 10
-4.3610300000000004
 20
2.88741
 30
0.0
 10
-4.3432500000000003
 20
3.1769700000000003
 30
0.0
 10
-4.23149
 20
3.2455500000000002
 30
0.0
 10
-4.23149
 20
3.2455500000000002
 30
0.0
 10
-4.23149
 20
3.2455500000000002
 30
0.0
 10
-4.1121100000000004
 20
3.3293700000000004
 30
0.0
 10
-4.1121100000000004
 20
3.3293700000000004
 30
0.0
 10
-4.1121100000000004
 20
3.3293700000000004
 30
0.0
 10
-3.8454100000000002
 20
3.4665300000000001
 30
0.0
 10
-3.5329900000000003
 20
3.4995500000000002
 30
0.0
 10
-3.2510500000000002
 20
3.5503500000000003
 30
0.0
  0
SPLINE
  5
29
100
AcDbEntity
  8
Ebene 1
100
AcDbSpline
210
0.0
220
0.0
230
1.0
 70
     1
 71
     3
 72
    84
 73
    80
 74
     0
 42
0.0000000001
 43
0.0000000001
 40
0.0
 40
0.0
 40
0.0
 40
0.0
 40
0.05
 40
0.05
 40
0.05
 40
0.05
 40
0.1
 40
0.1
 40
0.1
 40
0.1
 40
0.15
 40
0.15
 40
0.15
 40
0.15
 40
0.2
 40
0.2
 40
0.2
 40
0.2
 40
0.25
 40
0.25
 40
0.25
 40
0.25
 40
0.3
 40
0.3
 40
0.3
 40
0.3
 40
0.35
 40
0.35
 40
0.35
 40
0.35
 40
0.4
 40
0.4
 40
0.4
 40
0.4
 40
0.45
 40
0.45
 40
0.45
 40
0.45
 40
0.4999999999999999
 40
0.4999999999999999
 40
0.4999999999999999
 40
0.4999999999999999
 40
0.5499999999999999
 40
0.5499999999999999
 40
0.5499999999999999
 40
0.5499999999999999
 40
0.6
 40
0.6
 40
0.6
 40
0.6
 40
0.65
 40
0.65
 40
0.65
 40
0.65
 40
0.7000000000000001
 40
0.7000000000000001
 40
0.7000000000000001
 40
0.7000000000000001
 40
0.7500000000000001
 40
0.7500000000000001
 40
0.7500000000000001
 40
0.7500000000000001
 40
0.8000000000000002
 40
0.8000000000000002
 40
0.8000000000000002
 40
0.8000000000000002
 40
0.8500000000000002
 40
0.8500000000000002
 40
0.8500000000000002
 40
0.8500000000000002
 40
0.9000000000000002
 40
0.9000000000000002
 40
0.9000000000000002
 40
0.9000000000000002
 40
0.9500000000000003
 40
0.9500000000000003
 40
0.9500000000000003
 40
0.9500000000000003
 40
1.0
 40
1.0
 40
1.0
 40
1.0
 10
-1.9404100000000002
 20
3.4309700000000003
 30
0.0
 10
-1.7702300000000002
 20
3.3471500000000001
 30
0.0
 10
-1.6686300000000001
 20
3.1439500000000002
 30
0.0
 10
-1.50099
 20
3.3471500000000001
 30
0.0
 10
-1.50099
 20
3.3471500000000001
 30
0.0
 10
-1.5721100000000001
 20
3.1591900000000002
 30
0.0
 10
-1.8896100000000002
 20
2.88741
 30
0.0
 10
-1.6635500000000001
 20
2.6486500000000004
 30
0.0
 10
-1.6635500000000001
 20
2.6486500000000004
 30
0.0
 10
-1.33843
 20
2.4124300000000001
 30
0.0
 10
-1.2698500000000001
 20
3.0245700000000002
 30
0.0
 10
-0.9980700000000001
 20
3.1439500000000002
 30
0.0
 10
-0.9980700000000001
 20
3.1439500000000002
 30
0.0
 10
-0.7110500000000001
 20
3.3801700000000001
 30
0.0
 10
-0.23861
 20
3.2125300000000001
 30
0.0
 10
-0.13701
 20
2.8543900000000004
 30
0.0
 10
-0.13701
 20
2.8543900000000004
 30
0.0
 10
-0.20559
 20
2.6994500000000001
 30
0.0
 10
-0.33767
 20
2.6156300000000003
 30
0.0
 10
-0.44689
 20
2.4784700000000002
 30
0.0
 10
-0.44689
 20
2.4784700000000002
 30
0.0
 10
-1.4298700000000002
 20
2.1050900000000001
 30
0.0
 10
-2.9132300000000004
 20
0.72587
 30
0.0
 10
-1.7803900000000001
 20
-0.24186
 30
0.0
 10
-1.7803900000000001
 20
-0.24186
 30
0.0
 10
-1.6889500000000002
 20
-0.27488
 30
0.0
 10
-1.5670300000000001
 20
-0.3079
 30
0.0
 10
-1.4755900000000002
 20
-0.24186
 30
0.0
 10
-1.4755900000000002
 20
-0.24186
 30
0.0
 10
-1.03363
 20
-0.0031
 30
0.0
 10
-1.3130300000000001
 20
0.48711
 30
0.0
 10
-1.1733300000000002
 20
0.8452500000000001
 30
0.0
 10
-1.1733300000000002
 20
0.8452500000000001
 30
0.0
 10
-1.08697
 20
1.2872100000000002
 30
0.0
 10
-0.59421
 20
1.4243700000000001
 30
0.0
 10
-0.28941
 20
1.10179
 30
0.0
 10
-0.28941
 20
1.10179
 30
0.0
 10
0.08142
 20
0.5404500000000001
 30
0.0
 10
0.17286
 20
1.78251
 30
0.0
 10
0.28208
 20
1.23641
 30
0.0
 10
0.28208
 20
1.23641
 30
0.0
 10
0.28462
 20
1.15259
 30
0.0
 10
0.3024
 20
1.06877
 30
0.0
 10
0.26684
 20
1.0001900000000001
 30
0.0
 10
0.26684
 20
1.0001900000000001
 30
0.0
 10
0.15508
 20
0.74365
 30
0.0
 10
-0.27671
 20
0.6928500000000001
 30
0.0
 10
-0.3757700000000001
 20
1.0001900000000001
 30
0.0
 10
-0.3757700000000001
 20
1.0001900000000001
 30
0.0
 10
-0.45451
 20
1.1703700000000001
 30
0.0
 10
-0.7034300000000001
 20
1.2211700000000001
 30
0.0
 10
-0.84567
 20
1.10179
 30
0.0
 10
-0.84567
 20
1.10179
 30
0.0
 10
-0.9625100000000001
 20
0.9824100000000001
 30
0.0
 10
-1.0285500000000001
 20
0.8122300000000001
 30
0.0
 10
-1.0717300000000001
 20
0.65729
 30
0.0
 10
-1.0717300000000001
 20
0.65729
 30
0.0
 10
-1.0742700000000001
 20
0.5404500000000001
 30
0.0
 10
-1.0615700000000001
 20
0.4210700000000001
 30
0.0
 10
-1.08951
 20
0.3169300000000001
 30
0.0
 10
-1.08951
 20
0.3169300000000001
 30
0.0
 10
-0.9167900000000001
 20
-0.7346200000000001
 30
0.0
 10
-2.56779
 20
-0.5136400000000001
 30
0.0
 10
-2.3671300000000004
 20
0.43885
 30
0.0
 10
-2.3671300000000004
 20
0.43885
 30
0.0
 10
-2.4331700000000001
 20
0.5226700000000001
 30
0.0
 10
-2.5169900000000003
 20
0.6750700000000001
 30
0.0
 10
-2.64907
 20
0.65729
 30
0.0
 10
-2.64907
 20
0.65729
 30
0.0
 10
-3.1799300000000001
 20
0.47187
 30
0.0
 10
-4.0384500000000001
 20
0.6090300000000001
 30
0.0
 10
-3.8758900000000005
 20
1.3557900000000001
 30
0.0
 10
-3.8758900000000005
 20
1.3557900000000001
 30
0.0
 10
-3.4339300000000001
 20
-0.12248
 30
0.0
 10
-0.9345700000000001
 20
1.6275700000000002
 30
0.0
 10
-1.8718300000000001
 20
2.6486500000000004
 30
0.0
 10
-1.8718300000000001
 20
2.6486500000000004
 30
0.0
 10
-1.8718300000000001
 20
2.9382100000000002
 30
0.0
 10
-1.7702300000000002
 20
3.2607900000000001
 30
0.0
 10
-1.9404100000000002
 20
3.4309700000000003
 30
0.0
  0
SPLINE
  5
2A
100
AcDbEntity
  8
Ebene 1
100
AcDbSpline
210
0.0
220
0.0
230
1.0
 70
     1
 71
     3
 72
    32
 73
    28
 74
     0
 42
0.0000000001
 43
0.0000000001
 40
0.0
 40
0.0
 40
0.0
 40
0.0
 40
0.1428571428571429
 40
0.1428571428571429
 40
0.1428571428571429
 40
0.1428571428571429
 40
0.2857142857142857
 40
0.2857142857142857
 40
0.2857142857142857
 40
0.2857142857142857
 40
0.4285714285714286
 40
0.4285714285714286
 40
0.4285714285714286
 40
0.4285714285714286
 40
0.5714285714285714
 40
0.5714285714285714
 40
0.5714285714285714
 40
0.5714285714285714
 40
0.7142857142857142
 40
0.7142857142857142
 40
0.7142857142857142
 40
0.7142857142857142
 40
0.857142857142857
 40
0.857142857142857
 40
0.857142857142857
 40
0.857142857142857
 40
1.0
 40
1.0
 40
1.0
 40
1.0
 10
0.45734
 20
3.3471500000000001
 30
0.0
 10
1.2041000000000002
 20
3.4309700000000003
 30
0.0
 10
1.3285600000000002
 20
2.1558900000000003
 30
0.0
 10
2.1083400000000001
 20
2.4454500000000001
 30
0.0
 10
2.1083400000000001
 20
2.4454500000000001
 30
0.0
 10
2.1083400000000001
 20
2.4454500000000001
 30
0.0
 10
2.3242400000000001
 20
2.4454500000000001
 30
0.0
 10
2.3242400000000001
 20
2.4454500000000001
 30
0.0
 10
2.3242400000000001
 20
2.4454500000000001
 30
0.0
 10
2.2937600000000002
 20
2.3590900000000001
 30
0.0
 10
2.1921600000000003
 20
2.4454500000000001
 30
0.0
 10
2.1591400000000003
 20
2.3590900000000001
 30
0.0
 10
2.1591400000000003
 20
2.3590900000000001
 30
0.0
 10
1.5368400000000002
 20
2.2752700000000003
 30
0.0
 10
2.0016600000000002
 20
1.3049900000000001
 30
0.0
 10
1.3768200000000002
 20
1.2033900000000002
 30
0.0
 10
1.3768200000000002
 20
1.2033900000000002
 30
0.0
 10
0.8205600000000001
 20
1.0840100000000001
 30
0.0
 10
0.6935600000000001
 20
1.7469500000000002
 30
0.0
 10
0.3252600000000001
 20
1.9526900000000003
 30
0.0
 10
0.3252600000000001
 20
1.9526900000000003
 30
0.0
 10
0.2617600000000001
 20
2.08731
 30
0.0
 10
0.39384
 20
2.20669
 30
0.0
 10
0.31764
 20
2.3438500000000002
 30
0.0
 10
0.31764
 20
2.3438500000000002
 30
0.0
 10
-0.04303
 20
2.6486500000000004
 30
0.0
 10
-0.11161
 20
3.2963500000000003
 30
0.0
 10
0.45734
 20
3.3471500000000001
 30
0.0
  0
SPLINE
  5
2B
100
AcDbEntity
  8
Ebene 1
100
AcDbSpline
210
0.0
220
0.0
230
1.0
 70
     1
 71
     3
 72
    24
 73
    20
 74
     0
 42
0.0000000001
 43
0.0000000001
 40
0.0
 40
0.0
 40
0.0
 40
0.0
 40
0.2
 40
0.2
 40
0.2
 40
0.2
 40
0.4
 40
0.4
 40
0.4
 40
0.4
 40
0.6000000000000001
 40
0.6000000000000001
 40
0.6000000000000001
 40
0.6000000000000001
 40
0.8
 40
0.8
 40
0.8
 40
0.8
 40
1.0
 40
1.0
 40
1.0
 40
1.0
 10
1.5952600000000001
 20
3.2277700000000005
 30
0.0
 10
1.8492600000000001
 20
3.1083900000000004
 30
0.0
 10
2.0804
 20
2.9382100000000002
 30
0.0
 10
2.3598000000000003
 20
2.88741
 30
0.0
 10
2.3598000000000003
 20
2.88741
 30
0.0
 10
2.3598000000000003
 20
2.88741
 30
0.0
 10
2.3953600000000002
 20
2.8188300000000002
 30
0.0
 10
2.3953600000000002
 20
2.8188300000000002
 30
0.0
 10
2.3953600000000002
 20
2.8188300000000002
 30
0.0
 10
2.29122
 20
2.6156300000000003
 30
0.0
 10
2.0651600000000001
 20
2.5826100000000003
 30
0.0
 10
1.8746600000000002
 20
2.5648300000000002
 30
0.0
 10
1.8746600000000002
 20
2.5648300000000002
 30
0.0
 10
1.8822800000000002
 20
2.6486500000000004
 30
0.0
 10
2.0626200000000003
 20
2.6308700000000003
 30
0.0
 10
2.0702400000000001
 20
2.7527900000000001
 30
0.0
 10
2.0702400000000001
 20
2.7527900000000001
 30
0.0
 10
1.9051400000000001
 20
2.9051900000000002
 30
0.0
 10
1.6994000000000002
 20
3.0423500000000003
 30
0.0
 10
1.5952600000000001
 20
3.2277700000000005
 30
0.0
  0
SPLINE
  5
2C
100
AcDbEntity
  8
Ebene 1
 62
     7
100
AcDbSpline
210
0.0
220
0.0
230
1.0
 70
     1
 71
     3
 72
    20
 73
    16
 74
     0
 42
0.0000000001
 43
0.0000000001
 40
0.0
 40
0.0
 40
0.0
 40
0.0
 40
0.25
 40
0.25
 40
0.25
 40
0.25
 40
0.5
 40
0.5
 40
0.5
 40
0.5
 40
0.75
 40
0.75
 40
0.75
 40
0.75
 40
1.0
 40
1.0
 40
1.0
 40
1.0
 10
1.06948
 20
2.4784700000000002
 30
0.0
 10
1.1533
 20
2.4784700000000002
 30
0.0
 10
1.2422000000000002
 20
2.4784700000000002
 30
0.0
 10
1.3082400000000001
 20
2.42767
 30
0.0
 10
1.3082400000000001
 20
2.42767
 30
0.0
 10
1.3793600000000001
 20
2.4454500000000001
 30
0.0
 10
1.4657200000000001
 20
2.3590900000000001
 30
0.0
 10
1.4911200000000002
 20
2.29305
 30
0.0
 10
1.4911200000000002
 20
2.29305
 30
0.0
 10
1.3412600000000001
 20
2.2244700000000002
 30
0.0
 10
1.1304400000000001
 20
2.2244700000000002
 30
0.0
 10
0.9729600000000001
 20
2.2752700000000003
 30
0.0
 10
0.9729600000000001
 20
2.2752700000000003
 30
0.0
 10
0.9653400000000001
 20
2.3590900000000001
 30
0.0
 10
1.0085200000000001
 20
2.4454500000000001
 30
0.0
 10
1.06948
 20
2.4784700000000002
 30
0.0
  0
SPLINE
  5
2D
100
AcDbEntity
  8
Ebene 1
100
AcDbSpline
210
0.0
220
0.0
230
1.0
 70
     1
 71
     3
 72
    40
 73
    36
 74
     0
 42
0.0000000001
 43
0.0000000001
 40
0.0
 40
0.0
 40
0.0
 40
0.0
 40
0.1111111111111111
 40
0.1111111111111111
 40
0.1111111111111111
 40
0.1111111111111111
 40
0.2222222222222222
 40
0.2222222222222222
 40
0.2222222222222222
 40
0.2222222222222222
 40
0.3333333333333333
 40
0.3333333333333333
 40
0.3333333333333333
 40
0.3333333333333333
 40
0.4444444444444444
 40
0.4444444444444444
 40
0.4444444444444444
 40
0.4444444444444444
 40
0.5555555555555556
 40
0.5555555555555556
 40
0.5555555555555556
 40
0.5555555555555556
 40
0.6666666666666667
 40
0.6666666666666667
 40
0.6666666666666667
 40
0.6666666666666667
 40
0.7777777777777779
 40
0.7777777777777779
 40
0.7777777777777779
 40
0.7777777777777779
 40
0.8888888888888891
 40
0.8888888888888891
 40
0.8888888888888891
 40
0.8888888888888891
 40
1.0
 40
1.0
 40
1.0
 40
1.0
 10
-5.3592500000000003
 20
2.3260700000000001
 30
0.0
 10
-5.4278300000000002
 20
1.7469500000000002
 30
0.0
 10
-4.8233100000000002
 20
1.2541900000000001
 30
0.0
 10
-4.2924500000000005
 20
1.06877
 30
0.0
 10
-4.2924500000000005
 20
1.06877
 30
0.0
 10
-4.4397700000000002
 20
0.9316100000000001
 30
0.0
 10
-4.4092900000000004
 20
0.7106300000000001
 30
0.0
 10
-4.3330900000000003
 20
0.5404500000000001
 30
0.0
 10
-4.3330900000000003
 20
0.5404500000000001
 30
0.0
 10
-4.1222700000000003
 20
0.4210700000000001
 30
0.0
 10
-3.7184100000000004
 20
0.21533
 30
0.0
 10
-3.5939500000000004
 20
0.48711
 30
0.0
 10
-3.5939500000000004
 20
0.48711
 30
0.0
 10
-3.3551900000000003
 20
0.06293
 30
0.0
 10
-4.1146500000000001
 20
0.38551
 30
0.0
 10
-3.9774900000000004
 20
-0.0539
 30
0.0
 10
-3.9774900000000004
 20
-0.0539
 30
0.0
 10
-3.9343100000000004
 20
-0.2063
 30
0.0
 10
-3.7234900000000004
 20
-0.22408
 30
0.0
 10
-3.6447500000000002
 20
-0.3079
 30
0.0
 10
-3.6447500000000002
 20
-0.3079
 30
0.0
 10
-3.7488900000000003
 20
-0.3079
 30
0.0
 10
-3.8631900000000003
 20
-0.27488
 30
0.0
 10
-3.9419300000000002
 20
-0.2063
 30
0.0
 10
-3.9419300000000002
 20
-0.2063
 30
0.0
 10
-4.1019500000000004
 20
-0.07168
 30
0.0
 10
-4.0943300000000002
 20
0.14929
 30
0.0
 10
-4.1730700000000001
 20
0.3169300000000001
 30
0.0
 10
-4.1730700000000001
 20
0.3169300000000001
 30
0.0
 10
-4.6810700000000001
 20
0.6928500000000001
 30
0.0
 10
-5.0188900000000007
 20
1.27197
 30
0.0
 10
-5.3567100000000005
 20
1.7977500000000002
 30
0.0
 10
-5.3567100000000005
 20
1.7977500000000002
 30
0.0
 10
-5.4252900000000004
 20
1.9958700000000003
 30
0.0
 10
-5.4837100000000003
 20
2.1889100000000004
 30
0.0
 10
-5.3592500000000003
 20
2.3260700000000001
 30
0.0
  0
SPLINE
  5
2E
100
AcDbEntity
  8
Ebene 1
100
AcDbSpline
210
0.0
220
0.0
230
1.0
 70
     1
 71
     3
 72
    20
 73
    16
 74
     0
 42
0.0000000001
 43
0.0000000001
 40
0.0
 40
0.0
 40
0.0
 40
0.0
 40
0.25
 40
0.25
 40
0.25
 40
0.25
 40
0.5
 40
0.5
 40
0.5
 40
0.5
 40
0.75
 40
0.75
 40
0.75
 40
0.75
 40
1.0
 40
1.0
 40
1.0
 40
1.0
 10
0.0484
 20
2.3082900000000004
 30
0.0
 10
0.08904
 20
2.3082900000000004
 30
0.0
 10
0.22874
 20
2.3260700000000001
 30
0.0
 10
0.16524
 20
2.2574900000000002
 30
0.0
 10
0.16524
 20
2.2574900000000002
 30
0.0
 10
-0.25131
 20
2.20669
 30
0.0
 10
0.22874
 20
1.7469500000000002
 30
0.0
 10
0.08904
 20
1.5589900000000001
 30
0.0
 10
0.08904
 20
1.5589900000000001
 30
0.0
 10
0.08904
 20
1.6453500000000001
 30
0.0
 10
0.06364
 20
1.7291700000000001
 30
0.0
 10
0.03316
 20
1.7977500000000002
 30
0.0
 10
0.03316
 20
1.7977500000000002
 30
0.0
 10
-0.12685
 20
1.9526900000000003
 30
0.0
 10
-0.22083
 20
2.2422500000000003
 30
0.0
 10
0.0484
 20
2.3082900000000004
 30
0.0
  0
SPLINE
  5
2F
100
AcDbEntity
  8
Ebene 1
 62
     7
100
AcDbSpline
210
0.0
220
0.0
230
1.0
 70
     1
 71
     3
 72
    20
 73
    16
 74
     0
 42
0.0000000001
 43
0.0000000001
 40
0.0
 40
0.0
 40
0.0
 40
0.0
 40
0.25
 40
0.25
 40
0.25
 40
0.25
 40
0.5
 40
0.5
 40
0.5
 40
0.5
 40
0.75
 40
0.75
 40
0.75
 40
0.75
 40
1.0
 40
1.0
 40
1.0
 40
1.0
 10
4.6940600000000003
 20
2.17367
 30
0.0
 10
4.7601000000000004
 20
2.17367
 30
0.0
 10
4.7982000000000005
 20
2.03905
 30
0.0
 10
4.84138
 20
2.0034900000000002
 30
0.0
 10
4.84138
 20
2.0034900000000002
 30
0.0
 10
4.8007400000000002
 20
1.6631300000000002
 30
0.0
 10
5.1893600000000006
 20
1.5945500000000001
 30
0.0
 10
5.2858800000000006
 20
1.32277
 30
0.0
 10
5.2858800000000006
 20
1.32277
 30
0.0
 10
5.2858800000000006
 20
1.32277
 30
0.0
 10
5.1258600000000003
 20
1.3049900000000001
 30
0.0
 10
5.1258600000000003
 20
1.3049900000000001
 30
0.0
 10
5.1258600000000003
 20
1.3049900000000001
 30
0.0
 10
4.9429800000000004
 20
1.5767700000000002
 30
0.0
 10
4.7118400000000005
 20
1.8485500000000001
 30
0.0
 10
4.6940600000000003
 20
2.17367
 30
0.0
  0
SPLINE
  5
30
100
AcDbEntity
  8
Ebene 1
 62
     7
100
AcDbSpline
210
0.0
220
0.0
230
1.0
 70
     1
 71
     3
 72
    20
 73
    16
 74
     0
 42
0.0000000001
 43
0.0000000001
 40
0.0
 40
0.0
 40
0.0
 40
0.0
 40
0.25
 40
0.25
 40
0.25
 40
0.25
 40
0.5
 40
0.5
 40
0.5
 40
0.5
 40
0.75
 40
0.75
 40
0.75
 40
0.75
 40
1.0
 40
1.0
 40
1.0
 40
1.0
 10
5.2554000000000007
 20
1.23641
 30
0.0
 10
5.5068600000000005
 20
1.23641
 30
0.0
 10
5.5246400000000007
 20
0.8808100000000001
 30
0.0
 10
5.5576600000000003
 20
0.6928500000000001
 30
0.0
 10
5.5576600000000003
 20
0.6928500000000001
 30
0.0
 10
5.4052600000000002
 20
0.8122300000000001
 30
0.0
 10
5.2274600000000007
 20
0.91383
 30
0.0
 10
5.1182400000000001
 20
1.06877
 30
0.0
 10
5.1182400000000001
 20
1.06877
 30
0.0
 10
5.1334800000000005
 20
1.1170300000000002
 30
0.0
 10
5.2096800000000005
 20
1.0840100000000001
 30
0.0
 10
5.2173000000000007
 20
1.1348100000000001
 30
0.0
 10
5.2173000000000007
 20
1.1348100000000001
 30
0.0
 10
5.2173000000000007
 20
1.1348100000000001
 30
0.0
 10
5.2554000000000007
 20
1.23641
 30
0.0
 10
5.2554000000000007
 20
1.23641
 30
0.0
  0
SPLINE
  5
31
100
AcDbEntity
  8
Ebene 1
 62
     7
100
AcDbSpline
210
0.0
220
0.0
230
1.0
 70
     1
 71
     3
 72
    68
 73
    64
 74
     0
 42
0.0000000001
 43
0.0000000001
 40
0.0
 40
0.0
 40
0.0
 40
0.0
 40
0.0625
 40
0.0625
 40
0.0625
 40
0.0625
 40
0.125
 40
0.125
 40
0.125
 40
0.125
 40
0.1875
 40
0.1875
 40
0.1875
 40
0.1875
 40
0.25
 40
0.25
 40
0.25
 40
0.25
 40
0.3125
 40
0.3125
 40
0.3125
 40
0.3125
 40
0.375
 40
0.375
 40
0.375
 40
0.375
 40
0.4375
 40
0.4375
 40
0.4375
 40
0.4375
 40
0.5
 40
0.5
 40
0.5
 40
0.5
 40
0.5625
 40
0.5625
 40
0.5625
 40
0.5625
 40
0.625
 40
0.625
 40
0.625
 40
0.625
 40
0.6875
 40
0.6875
 40
0.6875
 40
0.6875
 40
0.75
 40
0.75
 40
0.75
 40
0.75
 40
0.8125
 40
0.8125
 40
0.8125
 40
0.8125
 40
0.875
 40
0.875
 40
0.875
 40
0.875
 40
0.9375
 40
0.9375
 40
0.9375
 40
0.9375
 40
1.0
 40
1.0
 40
1.0
 40
1.0
 10
3.9955600000000002
 20
0.7614300000000001
 30
0.0
 10
4.3994200000000001
 20
0.28391
 30
0.0
 10
4.4451400000000003
 20
-0.3942600000000001
 30
0.0
 10
4.4349800000000004
 20
-0.9886200000000001
 30
0.0
 10
4.4349800000000004
 20
-0.9886200000000001
 30
0.0
 10
4.4349800000000004
 20
-0.9886200000000001
 30
0.0
 10
4.0997000000000003
 20
-0.3307600000000001
 30
0.0
 10
4.0997000000000003
 20
-0.3307600000000001
 30
0.0
 10
4.0997000000000003
 20
-0.3307600000000001
 30
0.0
 10
4.0997000000000003
 20
-0.3307600000000001
 30
0.0
 10
3.9930200000000005
 20
-0.22408
 30
0.0
 10
3.9930200000000005
 20
-0.22408
 30
0.0
 10
3.9930200000000005
 20
-0.22408
 30
0.0
 10
4.3308400000000002
 20
-0.8692400000000001
 30
0.0
 10
4.64072
 20
-1.6185400000000001
 30
0.0
 10
4.5746800000000007
 20
-2.4008600000000002
 30
0.0
 10
4.5746800000000007
 20
-2.4008600000000002
 30
0.0
 10
4.5365800000000007
 20
-2.8098000000000001
 30
0.0
 10
4.4705400000000006
 20
-3.2009600000000002
 30
0.0
 10
4.3511600000000001
 20
-3.5743400000000003
 30
0.0
 10
4.3511600000000001
 20
-3.5743400000000003
 30
0.0
 10
4.1454200000000005
 20
-2.8961600000000001
 30
0.0
 10
4.0717600000000003
 20
-2.1621000000000001
 30
0.0
 10
3.9930200000000005
 20
-1.4305800000000002
 30
0.0
 10
3.9930200000000005
 20
-1.4305800000000002
 30
0.0
 10
3.8787200000000004
 20
-1.4483600000000001
 30
0.0
 10
3.9930200000000005
 20
-1.7557
 30
0.0
 10
3.9752400000000003
 20
-1.8725400000000001
 30
0.0
 10
3.9752400000000003
 20
-1.8725400000000001
 30
0.0
 10
3.7110800000000004
 20
-1.12578
 30
0.0
 10
3.0557600000000003
 20
-0.37648
 30
0.0
 10
3.0811600000000001
 20
0.40329
 30
0.0
 10
3.0811600000000001
 20
0.40329
 30
0.0
 10
3.0811600000000001
 20
0.40329
 30
0.0
 10
3.4062800000000002
 20
-0.3079
 30
0.0
 10
3.4062800000000002
 20
-0.3079
 30
0.0
 10
3.4062800000000002
 20
-0.3079
 30
0.0
 10
3.4062800000000002
 20
-0.3079
 30
0.0
 10
3.7644200000000003
 20
-1.21214
 30
0.0
 10
3.7644200000000003
 20
-1.21214
 30
0.0
 10
3.7644200000000003
 20
-1.21214
 30
0.0
 10
3.7161600000000004
 20
-0.8692400000000001
 30
0.0
 10
3.5815400000000004
 20
-0.50856
 30
0.0
 10
3.4494600000000002
 20
-0.1682
 30
0.0
 10
3.4494600000000002
 20
-0.1682
 30
0.0
 10
3.1522800000000002
 20
0.25597
 30
0.0
 10
3.1167200000000004
 20
1.0001900000000001
 30
0.0
 10
3.8050600000000001
 20
0.9316100000000001
 30
0.0
 10
3.8050600000000001
 20
0.9316100000000001
 30
0.0
 10
3.8050600000000001
 20
0.9316100000000001
 30
0.0
 10
3.8660200000000002
 20
0.7944500000000001
 30
0.0
 10
3.8660200000000002
 20
0.7944500000000001
 30
0.0
 10
3.8660200000000002
 20
0.7944500000000001
 30
0.0
 10
3.8660200000000002
 20
0.7944500000000001
 30
0.0
 10
4.1098600000000003
 20
0.01213
 30
0.0
 10
4.1098600000000003
 20
0.01213
 30
0.0
 10
4.1098600000000003
 20
0.01213
 30
0.0
 10
4.1098600000000003
 20
0.01213
 30
0.0
 10
4.2140000000000004
 20
-0.12248
 30
0.0
 10
4.2140000000000004
 20
-0.12248
 30
0.0
 10
4.2140000000000004
 20
-0.12248
 30
0.0
 10
4.2140000000000004
 20
-0.12248
 30
0.0
 10
3.9955600000000002
 20
0.7614300000000001
 30
0.0
 10
3.9955600000000002
 20
0.7614300000000001
 30
0.0
  0
SPLINE
  5
32
100
AcDbEntity
  8
Ebene 1
 62
     7
100
AcDbSpline
210
0.0
220
0.0
230
1.0
 70
     1
 71
     3
 72
    32
 73
    28
 74
     0
 42
0.0000000001
 43
0.0000000001
 40
0.0
 40
0.0
 40
0.0
 40
0.0
 40
0.1428571428571429
 40
0.1428571428571429
 40
0.1428571428571429
 40
0.1428571428571429
 40
0.2857142857142857
 40
0.2857142857142857
 40
0.2857142857142857
 40
0.2857142857142857
 40
0.4285714285714286
 40
0.4285714285714286
 40
0.4285714285714286
 40
0.4285714285714286
 40
0.5714285714285714
 40
0.5714285714285714
 40
0.5714285714285714
 40
0.5714285714285714
 40
0.7142857142857142
 40
0.7142857142857142
 40
0.7142857142857142
 40
0.7142857142857142
 40
0.857142857142857
 40
0.857142857142857
 40
0.857142857142857
 40
0.857142857142857
 40
1.0
 40
1.0
 40
1.0
 40
1.0
 10
1.4936600000000002
 20
0.3169300000000001
 30
0.0
 10
1.4936600000000002
 20
0.3169300000000001
 30
0.0
 10
1.8314800000000002
 20
0.25089
 30
0.0
 10
1.8314800000000002
 20
0.25089
 30
0.0
 10
1.8314800000000002
 20
0.25089
 30
0.0
 10
1.8975200000000001
 20
0.16453
 30
0.0
 10
1.8746600000000002
 20
0.02991
 30
0.0
 10
1.8060800000000001
 20
-0.03612
 30
0.0
 10
1.8060800000000001
 20
-0.03612
 30
0.0
 10
1.8060800000000001
 20
-0.03612
 30
0.0
 10
1.7222600000000001
 20
0.09849
 30
0.0
 10
1.7222600000000001
 20
0.09849
 30
0.0
 10
1.7222600000000001
 20
0.09849
 30
0.0
 10
1.7222600000000001
 20
0.09849
 30
0.0
 10
1.6308200000000002
 20
0.10865
 30
0.0
 10
1.6308200000000002
 20
0.10865
 30
0.0
 10
1.6308200000000002
 20
0.10865
 30
0.0
 10
1.6308200000000002
 20
0.10865
 30
0.0
 10
1.7679800000000001
 20
-0.20122
 30
0.0
 10
1.7679800000000001
 20
-0.20122
 30
0.0
 10
1.7679800000000001
 20
-0.20122
 30
0.0
 10
1.5520800000000001
 20
-0.15042
 30
0.0
 10
1.35904
 20
0.06293
 30
0.0
 10
1.39714
 20
0.28391
 30
0.0
 10
1.39714
 20
0.28391
 30
0.0
 10
1.39714
 20
0.28391
 30
0.0
 10
1.4936600000000002
 20
0.3169300000000001
 30
0.0
 10
1.4936600000000002
 20
0.3169300000000001
 30
0.0
  0
SPLINE
  5
33
100
AcDbEntity
  8
Ebene 1
 62
     7
100
AcDbSpline
210
0.0
220
0.0
230
1.0
 70
     1
 71
     3
 72
    24
 73
    20
 74
     0
 42
0.0000000001
 43
0.0000000001
 40
0.0
 40
0.0
 40
0.0
 40
0.0
 40
0.2
 40
0.2
 40
0.2
 40
0.2
 40
0.4
 40
0.4
 40
0.4
 40
0.4
 40
0.6000000000000001
 40
0.6000000000000001
 40
0.6000000000000001
 40
0.6000000000000001
 40
0.8
 40
0.8
 40
0.8
 40
0.8
 40
1.0
 40
1.0
 40
1.0
 40
1.0
 10
1.06948
 20
0.18231
 30
0.0
 10
1.06948
 20
0.18231
 30
0.0
 10
1.23712
 20
0.18231
 30
0.0
 10
1.23712
 20
0.18231
 30
0.0
 10
1.23712
 20
0.18231
 30
0.0
 10
1.3412600000000001
 20
-0.03612
 30
0.0
 10
1.4682600000000001
 20
-0.27488
 30
0.0
 10
1.4073000000000002
 20
-0.5136400000000001
 30
0.0
 10
1.4073000000000002
 20
-0.5136400000000001
 30
0.0
 10
1.19648
 20
-0.41204
 30
0.0
 10
1.0440800000000001
 20
-0.18852
 30
0.0
 10
1.06948
 20
0.04515
 30
0.0
 10
1.06948
 20
0.04515
 30
0.0
 10
1.06948
 20
0.04515
 30
0.0
 10
1.02376
 20
0.13151
 30
0.0
 10
1.02376
 20
0.13151
 30
0.0
 10
1.02376
 20
0.13151
 30
0.0
 10
1.02376
 20
0.13151
 30
0.0
 10
1.06948
 20
0.18231
 30
0.0
 10
1.06948
 20
0.18231
 30
0.0
  0
SPLINE
  5
34
100
AcDbEntity
  8
Ebene 1
 62
     7
100
AcDbSpline
210
0.0
220
0.0
230
1.0
 70
     1
 71
     3
 72
    28
 73
    24
 74
     0
 42
0.0000000001
 43
0.0000000001
 40
0.0
 40
0.0
 40
0.0
 40
0.0
 40
0.1666666666666667
 40
0.1666666666666667
 40
0.1666666666666667
 40
0.1666666666666667
 40
0.3333333333333333
 40
0.3333333333333333
 40
0.3333333333333333
 40
0.3333333333333333
 40
0.5
 40
0.5
 40
0.5
 40
0.5
 40
0.6666666666666666
 40
0.6666666666666666
 40
0.6666666666666666
 40
0.6666666666666666
 40
0.8333333333333333
 40
0.8333333333333333
 40
0.8333333333333333
 40
0.8333333333333333
 40
1.0
 40
1.0
 40
1.0
 40
1.0
 10
0.45988
 20
-0.2063
 30
0.0
 10
0.76468
 20
-0.12248
 30
0.0
 10
0.8002400000000001
 20
-0.49586
 30
0.0
 10
0.82818
 20
-0.7346200000000001
 30
0.0
 10
0.82818
 20
-0.7346200000000001
 30
0.0
 10
0.65546
 20
-0.6482600000000001
 30
0.0
 10
0.5665600000000001
 20
-0.44506
 30
0.0
 10
0.49036
 20
-0.29266
 30
0.0
 10
0.49036
 20
-0.29266
 30
0.0
 10
0.4548
 20
-0.32568
 30
0.0
 10
0.4802
 20
-0.3942600000000001
 30
0.0
 10
0.4802
 20
-0.44506
 30
0.0
 10
0.4802
 20
-0.44506
 30
0.0
 10
0.4802
 20
-0.44506
 30
0.0
 10
0.5056000000000001
 20
-0.5822200000000001
 30
0.0
 10
0.5056000000000001
 20
-0.5822200000000001
 30
0.0
 10
0.5056000000000001
 20
-0.5822200000000001
 30
0.0
 10
0.5056000000000001
 20
-0.5822200000000001
 30
0.0
 10
0.34812
 20
-0.23678
 30
0.0
 10
0.34812
 20
-0.23678
 30
0.0
 10
0.34812
 20
-0.23678
 30
0.0
 10
0.34812
 20
-0.23678
 30
0.0
 10
0.45988
 20
-0.2063
 30
0.0
 10
0.45988
 20
-0.2063
 30
0.0
  0
SPLINE
  5
35
100
AcDbEntity
  8
Ebene 1
 62
     7
100
AcDbSpline
210
0.0
220
0.0
230
1.0
 70
     1
 71
     3
 72
    12
 73
     8
 74
     0
 42
0.0000000001
 43
0.0000000001
 40
0.0
 40
0.0
 40
0.0
 40
0.0
 40
0.5
 40
0.5
 40
0.5
 40
0.5
 40
1.0
 40
1.0
 40
1.0
 40
1.0
 10
5.4255800000000001
 20
-0.8692400000000001
 30
0.0
 10
5.4890800000000004
 20
-1.0241800000000001
 30
0.0
 10
5.4459000000000009
 20
-1.3137400000000001
 30
0.0
 10
5.2604800000000003
 20
-1.37978
 30
0.0
 10
5.2604800000000003
 20
-1.37978
 30
0.0
 10
5.3366800000000003
 20
-1.2273800000000001
 30
0.0
 10
5.3849400000000003
 20
-1.04196
 30
0.0
 10
5.4255800000000001
 20
-0.8692400000000001
 30
0.0
  0
SPLINE
  5
36
100
AcDbEntity
  8
Ebene 1
 62
     7
100
AcDbSpline
210
0.0
220
0.0
230
1.0
 70
     1
 71
     3
 72
    28
 73
    24
 74
     0
 42
0.0000000001
 43
0.0000000001
 40
0.0
 40
0.0
 40
0.0
 40
0.0
 40
0.1666666666666667
 40
0.1666666666666667
 40
0.1666666666666667
 40
0.1666666666666667
 40
0.3333333333333333
 40
0.3333333333333333
 40
0.3333333333333333
 40
0.3333333333333333
 40
0.5
 40
0.5
 40
0.5
 40
0.5
 40
0.6666666666666666
 40
0.6666666666666666
 40
0.6666666666666666
 40
0.6666666666666666
 40
0.8333333333333333
 40
0.8333333333333333
 40
0.8333333333333333
 40
0.8333333333333333
 40
1.0
 40
1.0
 40
1.0
 40
1.0
 10
5.0852200000000005
 20
-0.88702
 30
0.0
 10
5.1309400000000007
 20
-1.04196
 30
0.0
 10
5.1334800000000005
 20
-1.2273800000000001
 30
0.0
 10
5.0826800000000008
 20
-1.3975600000000001
 30
0.0
 10
5.0826800000000008
 20
-1.3975600000000001
 30
0.0
 10
5.0826800000000008
 20
-1.3975600000000001
 30
0.0
 10
4.7829600000000001
 20
-1.5169400000000002
 30
0.0
 10
4.7829600000000001
 20
-1.5169400000000002
 30
0.0
 10
4.7829600000000001
 20
-1.5169400000000002
 30
0.0
 10
4.7829600000000001
 20
-1.5169400000000002
 30
0.0
 10
4.7499400000000005
 20
-1.4839200000000001
 30
0.0
 10
4.7499400000000005
 20
-1.4839200000000001
 30
0.0
 10
4.7499400000000005
 20
-1.4839200000000001
 30
0.0
 10
4.7499400000000005
 20
-1.4839200000000001
 30
0.0
 10
4.9201200000000007
 20
-1.12578
 30
0.0
 10
4.9201200000000007
 20
-1.12578
 30
0.0
 10
4.9201200000000007
 20
-1.12578
 30
0.0
 10
4.9480600000000008
 20
-1.1435600000000001
 30
0.0
 10
4.9125000000000005
 20
-1.24516
 30
0.0
 10
4.9810800000000004
 20
-1.2273800000000001
 30
0.0
 10
4.9810800000000004
 20
-1.2273800000000001
 30
0.0
 10
4.9810800000000004
 20
-1.2273800000000001
 30
0.0
 10
5.0852200000000005
 20
-0.88702
 30
0.0
 10
5.0852200000000005
 20
-0.88702
 30
0.0
  0
SPLINE
  5
37
100
AcDbEntity
  8
Ebene 1
 62
     7
100
AcDbSpline
210
0.0
220
0.0
230
1.0
 70
     1
 71
     3
 72
    16
 73
    12
 74
     0
 42
0.0000000001
 43
0.0000000001
 40
0.0
 40
0.0
 40
0.0
 40
0.0
 40
0.3333333333333333
 40
0.3333333333333333
 40
0.3333333333333333
 40
0.3333333333333333
 40
0.6666666666666666
 40
0.6666666666666666
 40
0.6666666666666666
 40
0.6666666666666666
 40
1.0
 40
1.0
 40
1.0
 40
1.0
 10
1.8695800000000002
 20
-1.1588000000000001
 30
0.0
 10
1.9127600000000002
 20
-1.3137400000000001
 30
0.0
 10
2.1108800000000003
 20
-1.49916
 30
0.0
 10
1.9381600000000001
 20
-1.6541000000000001
 30
0.0
 10
1.9381600000000001
 20
-1.6541000000000001
 30
0.0
 10
1.8467200000000001
 20
-1.6185400000000001
 30
0.0
 10
1.7527400000000002
 20
-1.5677400000000001
 30
0.0
 10
1.7324200000000001
 20
-1.4661400000000002
 30
0.0
 10
1.7324200000000001
 20
-1.4661400000000002
 30
0.0
 10
1.78068
 20
-1.3645400000000001
 30
0.0
 10
1.8518000000000001
 20
-1.2781800000000001
 30
0.0
 10
1.8695800000000002
 20
-1.1588000000000001
 30
0.0
  0
SPLINE
  5
38
100
AcDbEntity
  8
Ebene 1
 62
     7
100
AcDbSpline
210
0.0
220
0.0
230
1.0
 70
     1
 71
     3
 72
    16
 73
    12
 74
     0
 42
0.0000000001
 43
0.0000000001
 40
0.0
 40
0.0
 40
0.0
 40
0.0
 40
0.3333333333333333
 40
0.3333333333333333
 40
0.3333333333333333
 40
0.3333333333333333
 40
0.6666666666666666
 40
0.6666666666666666
 40
0.6666666666666666
 40
0.6666666666666666
 40
1.0
 40
1.0
 40
1.0
 40
1.0
 10
2.2607400000000002
 20
-1.2781800000000001
 30
0.0
 10
2.2607400000000002
 20
-1.2781800000000001
 30
0.0
 10
2.4131400000000003
 20
-1.58552
 30
0.0
 10
2.4131400000000003
 20
-1.58552
 30
0.0
 10
2.4131400000000003
 20
-1.58552
 30
0.0
 10
2.38774
 20
-1.7023600000000001
 30
0.0
 10
2.2455000000000003
 20
-1.6363200000000002
 30
0.0
 10
2.1642200000000003
 20
-1.6541000000000001
 30
0.0
 10
2.1642200000000003
 20
-1.6541000000000001
 30
0.0
 10
2.0804
 20
-1.5169400000000002
 30
0.0
 10
2.25312
 20
-1.41534
 30
0.0
 10
2.2607400000000002
 20
-1.2781800000000001
 30
0.0
  0
SPLINE
  5
39
100
AcDbEntity
  8
Ebene 1
 62
     7
100
AcDbSpline
210
0.0
220
0.0
230
1.0
 70
     1
 71
     3
 72
    32
 73
    28
 74
     0
 42
0.0000000001
 43
0.0000000001
 40
0.0
 40
0.0
 40
0.0
 40
0.0
 40
0.1428571428571429
 40
0.1428571428571429
 40
0.1428571428571429
 40
0.1428571428571429
 40
0.2857142857142857
 40
0.2857142857142857
 40
0.2857142857142857
 40
0.2857142857142857
 40
0.4285714285714286
 40
0.4285714285714286
 40
0.4285714285714286
 40
0.4285714285714286
 40
0.5714285714285714
 40
0.5714285714285714
 40
0.5714285714285714
 40
0.5714285714285714
 40
0.7142857142857142
 40
0.7142857142857142
 40
0.7142857142857142
 40
0.7142857142857142
 40
0.857142857142857
 40
0.857142857142857
 40
0.857142857142857
 40
0.857142857142857
 40
1.0
 40
1.0
 40
1.0
 40
1.0
 10
5.18682
 20
-1.4661400000000002
 30
0.0
 10
5.3824000000000005
 20
-1.7379200000000001
 30
0.0
 10
4.8871000000000002
 20
-1.9081000000000001
 30
0.0
 10
4.7956600000000007
 20
-2.1468600000000002
 30
0.0
 10
4.7956600000000007
 20
-2.1468600000000002
 30
0.0
 10
4.7880400000000005
 20
-2.1621000000000001
 30
0.0
 10
4.8058200000000006
 20
-2.1976600000000004
 30
0.0
 10
4.8261400000000005
 20
-2.1798800000000003
 30
0.0
 10
4.8261400000000005
 20
-2.1798800000000003
 30
0.0
 10
4.8261400000000005
 20
-2.1798800000000003
 30
0.0
 10
4.8972600000000002
 20
-2.1138400000000002
 30
0.0
 10
4.8972600000000002
 20
-2.1138400000000002
 30
0.0
 10
4.8972600000000002
 20
-2.1138400000000002
 30
0.0
 10
5.1309400000000007
 20
-2.2840200000000004
 30
0.0
 10
4.8972600000000002
 20
-2.57104
 30
0.0
 10
4.6762800000000002
 20
-2.60406
 30
0.0
 10
4.6762800000000002
 20
-2.60406
 30
0.0
 10
4.6762800000000002
 20
-2.60406
 30
0.0
 10
4.6661200000000003
 20
-1.6541000000000001
 30
0.0
 10
4.6661200000000003
 20
-1.6541000000000001
 30
0.0
 10
4.6661200000000003
 20
-1.6541000000000001
 30
0.0
 10
4.7474000000000007
 20
-1.7557
 30
0.0
 10
4.7448600000000001
 20
-1.8242800000000001
 30
0.0
 10
4.7753400000000008
 20
-1.9436600000000002
 30
0.0
 10
4.7753400000000008
 20
-1.9436600000000002
 30
0.0
 10
4.8058200000000006
 20
-1.7201400000000002
 30
0.0
 10
4.9861600000000008
 20
-1.5499600000000002
 30
0.0
 10
5.18682
 20
-1.4661400000000002
 30
0.0
  0
SPLINE
  5
3A
100
AcDbEntity
  8
Ebene 1
100
AcDbSpline
210
0.0
220
0.0
230
1.0
 70
     1
 71
     3
 72
    32
 73
    28
 74
     0
 42
0.0000000001
 43
0.0000000001
 40
0.0
 40
0.0
 40
0.0
 40
0.0
 40
0.1428571428571429
 40
0.1428571428571429
 40
0.1428571428571429
 40
0.1428571428571429
 40
0.2857142857142857
 40
0.2857142857142857
 40
0.2857142857142857
 40
0.2857142857142857
 40
0.4285714285714286
 40
0.4285714285714286
 40
0.4285714285714286
 40
0.4285714285714286
 40
0.5714285714285714
 40
0.5714285714285714
 40
0.5714285714285714
 40
0.5714285714285714
 40
0.7142857142857142
 40
0.7142857142857142
 40
0.7142857142857142
 40
0.7142857142857142
 40
0.857142857142857
 40
0.857142857142857
 40
0.857142857142857
 40
0.857142857142857
 40
1.0
 40
1.0
 40
1.0
 40
1.0
 10
-0.08621
 20
-1.83952
 30
0.0
 10
0.22112
 20
-1.8242800000000001
 30
0.0
 10
0.57164
 20
-2.0452600000000003
 30
0.0
 10
0.64022
 20
-2.3678400000000002
 30
0.0
 10
0.64022
 20
-2.3678400000000002
 30
0.0
 10
0.38114
 20
-2.8275800000000002
 30
0.0
 10
-0.16495
 20
-2.5888200000000001
 30
0.0
 10
-0.4926100000000001
 20
-2.9622000000000002
 30
0.0
 10
-0.4926100000000001
 20
-2.9622000000000002
 30
0.0
 10
-0.4926100000000001
 20
-2.9622000000000002
 30
0.0
 10
-0.7313700000000001
 20
-2.9469600000000002
 30
0.0
 10
-0.7313700000000001
 20
-2.9469600000000002
 30
0.0
 10
-0.7313700000000001
 20
-2.9469600000000002
 30
0.0
 10
-0.52563
 20
-2.8783800000000004
 30
0.0
 10
-0.33767
 20
-2.7412200000000002
 30
0.0
 10
-0.15225
 20
-2.60406
 30
0.0
 10
-0.15225
 20
-2.60406
 30
0.0
 10
0.01792
 20
-2.5024600000000001
 30
0.0
 10
0.27954
 20
-2.4694400000000001
 30
0.0
 10
0.33796
 20
-2.2484600000000001
 30
0.0
 10
0.33796
 20
-2.2484600000000001
 30
0.0
 10
0.277
 20
-2.0097
 30
0.0
 10
0.03316
 20
-1.83952
 30
0.0
 10
-0.21575
 20
-1.9258800000000003
 30
0.0
 10
-0.21575
 20
-1.9258800000000003
 30
0.0
 10
-0.24369
 20
-1.83952
 30
0.0
 10
-0.11161
 20
-1.8725400000000001
 30
0.0
 10
-0.08621
 20
-1.83952
 30
0.0
  0
ENDSEC
  0
SECTION
  2
OBJECTS
  0
DICTIONARY
  5
19
100
AcDbDictionary
280
     0
281
     1
  3
ACAD_GROUP
350
1A
  3
ACAD_MLINESTYLE
350
1B
  3
ACAD_LAYOUT
350
1E
  3
ACAD_PLOTSETTINGS
350
22
  3
ACAD_PLOTSTYLENAME
350
1F
  3
ACAD_WIPEOUT_VARS
350
23
  0
DICTIONARY
  5
1A
102
{ACAD_REACTORS
330
19
102
}
100
AcDbDictionary
280
     0
281
     1
  0
DICTIONARY
  5
1B
102
{ACAD_REACTORS
330
19
102
}
100
AcDbDictionary
280
     0
281
     1
  3
Standard
350
1C
  0
MLINESTYLE
  5
1C
102
{ACAD_REACTORS
330
1B
102
}
100
AcDbMlineStyle
  2
Standard
 70
     0
  3

 62
     0
 51
90.0
 52
90.0
 71
     2
 49
0.5
 62
   256
  6
BYLAYER
 49
-0.5
 62
   256
  6
BYLAYER
  0
ACDBDICTIONARYWDFLT
  5
1F
102
{ACAD_REACTORS
330
19
102
}
100
AcDbDictionary
281
     1
  3
Normal
350
1D
100
AcDbDictionaryWithDefault
340
1D
  0
ACDBPLACEHOLDER
  5
1D
102
{ACAD_REACTORS
330
1F
102
}
  0
LAYOUT
  5
20
102
{ACAD_REACTORS
330
1E
102
}
100
AcDbPlotSettings
  1

  2

  4

  6

 40
0.0
 41
0.0
 42
0.0
 43
0.0
 44
0.0
 45
0.0
 46
0.0
 47
0.0
 48
0.0
 49
0.0
140
0.0
141
0.0
142
1.0
143
1.0
 70
  1024
 72
     0
 73
     0
 74
     0
  7

 75
     0
147
1.0
148
0.0
149
0.0
100
AcDbLayout
  1
Model
 70
     0
 71
     0
 10
0.0
 20
0.0
 11
0.0
 21
0.0
 12
0.0
 22
0.0
 32
0.0
 14
0.0
 24
0.0
 34
0.0
 15
0.0
 25
0.0
 35
0.0
146
0.0
 13
0.0
 23
0.0
 33
0.0
 16
0.0
 26
0.0
 36
0.0
 17
0.0
 27
0.0
 37
0.0
 76
     0
330
A
331
0
345
0
346
0
  0
LAYOUT
  5
21
102
{ACAD_REACTORS
330
1E
102
}
100
AcDbPlotSettings
  1

  2

  4

  6

 40
0.0
 41
0.0
 42
0.0
 43
0.0
 44
0.0
 45
0.0
 46
0.0
 47
0.0
 48
0.0
 49
0.0
140
0.0
141
0.0
142
1.0
143
1.0
 70
     0
 72
     0
 73
     0
 74
     0
  7

 75
     0
147
1.0
148
0.0
149
0.0
100
AcDbLayout
  1
Layout1
 70
     0
 71
     0
 10
0.0
 20
0.0
 11
0.0
 21
0.0
 12
0.0
 22
0.0
 32
0.0
 14
0.0
 24
0.0
 34
0.0
 15
0.0
 25
0.0
 35
0.0
146
0.0
 13
0.0
 23
0.0
 33
0.0
 16
0.0
 26
0.0
 36
0.0
 17
0.0
 27
0.0
 37
0.0
 76
     0
330
B
331
0
345
0
346
0
  0
DICTIONARY
  5
1E
102
{ACAD_REACTORS
330
19
102
}
100
AcDbDictionary
280
     0
281
     1
  3
Layout1
350
21
  3
Model
350
20
  0
DICTIONARY
  5
22
102
{ACAD_REACTORS
330
19
102
}
100
AcDbDictionary
280
     0
281
     1
  0
WIPEOUTVARIABLES
  5
23
100
AcDbWipeoutVariables
 70
     1
  0
ENDSEC
  0
EOF
