  0
SECTION
  2
HEADER
  9
$ACADVER
  1
AC1015
  9
$ACADMAINTVER
 70
     6
  9
$DWGCODEPAGE
  3
DOS850
  9
$INSBASE
 10
0.0
 20
0.0
 30
0.0
  9
$EXTMIN
 10
-5.64627
 20
-5.4351
 30
1.000000E+20
  9
$EXTMAX
 10
5.65164
 20
5.42995
 30
-1.000000E+20
  9
$LIMMIN
 10
0.0
 20
0.0
  9
$LIMMAX
 10
0.0
 20
0.0
  9
$ORTHOMODE
 70
     0
  9
$REGENMODE
 70
     1
  9
$FILLMODE
 70
     1
  9
$QTEXTMODE
 70
     0
  9
$MIRRTEXT
 70
     1
  9
$LTSCALE
 40
1.0
  9
$ATTMODE
 70
     1
  9
$TEXTSIZE
 40
0.2
  9
$TRACEWID
 40
0.05
  9
$TEXTSTYLE
  7
Standard
  9
$CLAYER
  8
0
  9
$CELTYPE
  6
Continuous
  9
$CECOLOR
 62
   256
  9
$CELTSCALE
 40
1.0
  9
$DISPSILH
 70
     0
  9
$DIMSCALE
 40
1.0
  9
$DIMASZ
 40
0.18
  9
$DIMEXO
 40
0.0625
  9
$DIMDLI
 40
0.38
  9
$DIMRND
 40
0.0
  9
$DIMDLE
 40
0.0
  9
$DIMEXE
 40
0.18
  9
$DIMTP
 40
0.0
  9
$DIMTM
 40
0.0
  9
$DIMTXT
 40
0.18
  9
$DIMCEN
 40
0.09
  9
$DIMTSZ
 40
0.0
  9
$DIMTOL
 70
     0
  9
$DIMLIM
 70
     0
  9
$DIMTIH
 70
     1
  9
$DIMTOH
 70
     1
  9
$DIMSE1
 70
     0
  9
$DIMSE2
 70
     0
  9
$DIMTAD
 70
     0
  9
$DIMZIN
 70
     0
  9
$DIMBLK
  1

  9
$DIMASO
 70
     1
  9
$DIMSHO
 70
     1
  9
$DIMPOST
  1

  9
$DIMAPOST
  1

  9
$DIMALT
 70
     0
  9
$DIMALTD
 70
     2
  9
$DIMALTF
 40
25.4
  9
$DIMLFAC
 40
1.0
  9
$DIMTOFL
 70
     0
  9
$DIMTVP
 40
0.0
  9
$DIMTIX
 70
     0
  9
$DIMSOXD
 70
     0
  9
$DIMSAH
 70
     0
  9
$DIMBLK1
  1

  9
$DIMBLK2
  1

  9
$DIMSTYLE
  2
Standard
  9
$DIMCLRD
 70
     0
  9
$DIMCLRE
 70
     0
  9
$DIMCLRT
 70
     0
  9
$DIMTFAC
 40
1.0
  9
$DIMGAP
 40
0.09
  9
$DIMJUST
 70
     0
  9
$DIMSD1
 70
     0
  9
$DIMSD2
 70
     0
  9
$DIMTOLJ
 70
     1
  9
$DIMTZIN
 70
     0
  9
$DIMALTZ
 70
     0
  9
$DIMALTTZ
 70
     0
  9
$DIMUPT
 70
     0
  9
$DIMDEC
 70
     4
  9
$DIMTDEC
 70
     4
  9
$DIMALTU
 70
     2
  9
$DIMALTTD
 70
     2
  9
$DIMTXSTY
  7
Standard
  9
$DIMAUNIT
 70
     0
  9
$DIMADEC
 70
     0
  9
$DIMALTRND
 40
0.0
  9
$DIMAZIN
 70
     0
  9
$DIMDSEP
 70
     0
  9
$DIMATFIT
 70
     3
  9
$DIMFRAC
 70
     0
  9
$DIMLDRBLK
  1

  9
$DIMLUNIT
 70
     2
  9
$DIMLWD
 70
     0
  9
$DIMLWE
 70
     0
  9
$DIMTMOVE
 70
     0
  9
$LUNITS
 70
     2
  9
$LUPREC
 70
     4
  9
$SKETCHINC
 40
0.1
  9
$FILLETRAD
 40
0.0
  9
$AUNITS
 70
     0
  9
$AUPREC
 70
     0
  9
$MENU
  1
acad
  9
$ELEVATION
 40
0.0
  9
$PELEVATION
 40
0.0
  9
$THICKNESS
 40
0.0
  9
$LIMCHECK
 70
     0
  9
$CHAMFERA
 40
0.0
  9
$CHAMFERB
 40
0.0
  9
$CHAMFERC
 40
0.0
  9
$CHAMFERD
 40
0.0
  9
$SKPOLY
 70
     0
  9
$TDCREATE
 40
0.000000000
  9
$TDUCREATE
 40
0.000000000
  9
$TDUPDATE
 40
0.000000000
  9
$TDUUPDATE
 40
0.000000000
  9
$TDINDWG
 40
0.0000000000
  9
$TDUSRTIMER
 40
0.0000000000
  9
$USRTIMER
 70
     1
  9
$ANGBASE
 50
0.0
  9
$ANGDIR
 70
     0
  9
$PDMODE
 70
     0
  9
$PDSIZE
 40
0.0
  9
$PLINEWID
 40
0.0
  9
$SPLFRAME
 70
     0
  9
$SPLINETYPE
 70
     6
  9
$SPLINESEGS
 70
     8
  9
$HANDSEED
  5
31
  9
$SURFTAB1
 70
     6
  9
$SURFTAB2
 70
     6
  9
$SURFTYPE
 70
     6
  9
$SURFU
 70
     6
  9
$SURFV
 70
     6
  9
$UCSBASE
  2

  9
$UCSNAME
  2

  9
$UCSORG
 10
0.0
 20
0.0
 30
0.0
  9
$UCSXDIR
 10
1.0
 20
0.0
 30
0.0
  9
$UCSYDIR
 10
0.0
 20
1.0
 30
0.0
  9
$UCSORTHOREF
  2

  9
$UCSORTHOVIEW
 70
     0
  9
$UCSORGTOP
 10
0.0
 20
0.0
 30
0.0
  9
$UCSORGBOTTOM
 10
0.0
 20
0.0
 30
0.0
  9
$UCSORGLEFT
 10
0.0
 20
0.0
 30
0.0
  9
$UCSORGRIGHT
 10
0.0
 20
0.0
 30
0.0
  9
$UCSORGFRONT
 10
0.0
 20
0.0
 30
0.0
  9
$UCSORGBACK
 10
0.0
 20
0.0
 30
0.0
  9
$PUCSBASE
  2

  9
$PUCSNAME
  2

  9
$PUCSORG
 10
0.0
 20
0.0
 30
0.0
  9
$PUCSXDIR
 10
1.0
 20
0.0
 30
0.0
  9
$PUCSYDIR
 10
0.0
 20
1.0
 30
0.0
  9
$PUCSORTHOREF
  2

  9
$PUCSORTHOVIEW
 70
     0
  9
$PUCSORGTOP
 10
0.0
 20
0.0
 30
0.0
  9
$PUCSORGBOTTOM
 10
0.0
 20
0.0
 30
0.0
  9
$PUCSORGLEFT
 10
0.0
 20
0.0
 30
0.0
  9
$PUCSORGRIGHT
 10
0.0
 20
0.0
 30
0.0
  9
$PUCSORGFRONT
 10
0.0
 20
0.0
 30
0.0
  9
$PUCSORGBACK
 10
0.0
 20
0.0
 30
0.0
  9
$USERI1
 70
     0
  9
$USERI2
 70
     0
  9
$USERI3
 70
     0
  9
$USERI4
 70
     0
  9
$USERI5
 70
     0
  9
$USERR1
 40
0.0
  9
$USERR2
 40
0.0
  9
$USERR3
 40
0.0
  9
$USERR4
 40
0.0
  9
$USERR5
 40
0.0
  9
$WORLDVIEW
 70
     1
  9
$SHADEDGE
 70
     3
  9
$SHADEDIF
 70
    70
  9
$TILEMODE
 70
     1
  9
$MAXACTVP
 70
    16
  9
$PINSBASE
 10
0.0
 20
0.0
 30
0.0
  9
$PLIMCHECK
 70
     0
  9
$PEXTMIN
 10
1.000000E+20
 20
1.000000E+20
 30
1.000000E+20
  9
$PEXTMAX
 10
-1.000000E+20
 20
-1.000000E+20
 30
-1.000000E+20
  9
$PLIMMIN
 10
0.0
 20
0.0
  9
$PLIMMAX
 10
12.0
 20
9.0
  9
$UNITMODE
 70
     0
  9
$VISRETAIN
 70
     0
  9
$PLINEGEN
 70
     1
  9
$PSLTSCALE
 70
     0
  9
$TREEDEPTH
 70
  3020
  9
$CMLSTYLE
  2
Standard
  9
$CMLJUST
 70
     0
  9
$CMLSCALE
 40
1.0
  9
$PROXYGRAPHICS
 70
     0
  9
$MEASUREMENT
 70
     0
  9
$CELWEIGHT
370
     0
  9
$ENDCAPS
280
     0
  9
$JOINSTYLE
280
     0
  9
$LWDISPLAY
290
     0
  9
$INSUNITS
 70
     5
  9
$HYPERLINKBASE
  1

  9
$XEDIT
290
     1
  9
$CEPSNTYPE
380
     0
  9
$PSTYLEMODE
290
     1
  9
$FINGERPRINTGUID
  2

  9
$VERSIONGUID
  2

  9
$EXTNAMES
290
     1
  9
$PSVPSCALE
 40
0.0
  0
ENDSEC
  0
SECTION
  2
CLASSES
  0
CLASS
  1
LWPOLYLINE
  2
AcDbPolyline
  3
AutoCAD 2000
 90
    32768
280
     0
281
     1
  0
CLASS
  1
IMAGE
  2
AcDbRasterImage
  3
ISM
 90
    32895
280
     0
281
     1
  0
CLASS
  1
OLE2FRAME
  2
AcDbOle2Frame
  3
AutoCAD 2000
 90
    32768
280
     0
281
     1
  0
CLASS
  1
HATCH
  2
AcDbHatch
  3
AutoCAD 2000
 90
    32768
280
     0
281
     1
  0
CLASS
  1
DICTIONARYVAR
  2
AcDbDictionaryVar
  3
AutoCAD 2000
 90
    32768
280
     0
281
     0
  0
CLASS
  1
RASTERVARIABLES
  2
AcDbRasterVariables
  3
ISM
 90
    32768
280
     0
281
     0
  0
CLASS
  1
IMAGEDEF
  2
AcDbRasterImageDef
  3
ISM
 90
    32768
280
     0
281
     0
  0
CLASS
  1
IMAGEDEF_REACTOR
  2
AcDbRasterImageDefReactor
  3
ISM
 90
    32769
280
     0
281
     0
  0
CLASS
  1
IDBUFFER
  2
AcDbIdBuffer
  3
AutoCAD 2000
 90
    32768
280
     0
281
     0
  0
CLASS
  1
SPATIAL_FILTER
  2
AcDbSpatialFilter
  3
AutoCAD 2000
 90
    32768
280
     0
281
     0
  0
CLASS
  1
XRECORD
  2
AcDbXrecord
  3
AutoCAD 2000
 90
    32768
280
     0
281
     0
  0
CLASS
  1
SORTENTSTABLE
  2
AcDbSortentsTable
  3
AutoCAD 2000
 90
    32768
280
     0
281
     0
  0
CLASS
  1
LAYER_INDEX
  2
AcDbLayerIndex
  3
AutoCAD 2000
 90
    32768
280
     0
281
     0
  0
CLASS
  1
SPATIAL_INDEX
  2
AcDbSpatialIndex
  3
AutoCAD 2000
 90
    32768
280
     0
281
     0
  0
CLASS
  1
OBJECT_PTR
  2
CAseDLPNTableRecord
  3
"ASE-LPNTableRecord"
 90
    32769
280
     0
281
     0
  0
CLASS
  1
LAYOUT
  2
AcDbLayout
  3
AutoCAD 2000
 90
        0
280
     0
281
     0
  0
CLASS
  1
PLOTSETTINGS
  2
AcDbPlotSettings
  3
AutoCAD 2000
 90
    32768
280
     0
281
     0
  0
CLASS
  1
ACDBDICTIONARYWDFLT
  2
AcDbDictionaryWithDefault
  3
AutoCAD 2000
 90
        0
280
     0
281
     0
  0
CLASS
  1
ACDBPLACEHOLDER
  2
AcDbPlaceHolder
  3
AutoCAD 2000
 90
        0
280
     0
281
     0
  0
CLASS
  1
VBA_PROJECT
  2
AcDbVbaProject
  3
acadvba
 90
    32768
280
     0
281
     0
  0
CLASS
  1
WIPEOUT
  2
AcDbWipeout
  3
WipeOut|AutoCAD Express Tool|expresstools@autodesk.com
 90
    32895
280
     0
281
     1
  0
CLASS
  1
WIPEOUTVARIABLES
  2
AcDbWipeoutVariables
  3
WipeOut|AutoCAD Express Tool|expresstools@autodesk.com
 90
        0
280
     0
281
     0
  0
CLASS
  1
RTEXT
  2
RText
  3
RText|AutoCAD Express Tool|expresstools@autodesk.com
 90
    32768
280
     0
281
     1
  0
CLASS
  1
ARCALIGNEDTEXT
  2
AcDbArcAlignedText
  3
ATEXT|AutoCAD Express Tool|expresstools@autodesk.com
 90
    32768
280
     0
281
     1
  0
ENDSEC
  0
SECTION
  2
TABLES
  0
TABLE
  2
VPORT
  5
7
100
AcDbSymbolTable
 70
     1
  0
VPORT
  5
15
100
AcDbSymbolTableRecord
100
AcDbViewportTableRecord
  2
*ACTIVE
 70
     0
 10
0.0
 20
0.0
 11
1.0
 21
1.0
 12
6.591288
 22
4.579184
 13
0.0
 23
0.0
 14
1.0
 24
1.0
 15
0.0
 25
0.0
 16
0.0
 26
0.0
 36
1.0
 17
0.0
 27
0.0
 37
0.0
 40
9.158369
 41
0.688564
 42
50.0
 43
0.0
 44
0.0
 50
0.0
 51
0.0
 71
     0
 72
   100
 73
     1
 74
     1
 75
     0
 76
     0
 77
     0
 78
     0
281
     0
 65
     0
110
0.0
120
0.0
130
0.0
111
1.0
121
0.0
131
0.0
112
0.0
122
1.0
132
0.0
345
0
346
0
 79
     0
146
0.0
  0
ENDTAB
  0
TABLE
  2
LTYPE
  5
4
100
AcDbSymbolTable
 70
     3
  0
LTYPE
  5
11
100
AcDbSymbolTableRecord
100
AcDbLinetypeTableRecord
  2
ByBlock
 70
    64
  3

 72
    65
 73
     0
 40
0.0
  0
LTYPE
  5
12
100
AcDbSymbolTableRecord
100
AcDbLinetypeTableRecord
  2
ByLayer
 70
    64
  3

 72
    65
 73
     0
 40
0.0
  0
LTYPE
  5
13
100
AcDbSymbolTableRecord
100
AcDbLinetypeTableRecord
  2
Continuous
 70
    64
  3
Solid line
 72
    65
 73
     0
 40
0.0
  0
ENDTAB
  0
TABLE
  2
LAYER
  5
2
100
AcDbSymbolTable
 70
     2
  0
LAYER
  5
14
100
AcDbSymbolTableRecord
100
AcDbLayerTableRecord
  2
0
 70
     0
 62
     7
  6
Continuous
290
     1
370
    -3
390
1D
  0
LAYER
  5
24
100
AcDbSymbolTableRecord
100
AcDbLayerTableRecord
  2
Ebene 1
 70
     0
 62
     7
  6
Continuous
290
     1
370
    -3
390
1F
  0
ENDTAB
  0
TABLE
  2
STYLE
  5
3
100
AcDbSymbolTable
 70
     1
  0
STYLE
  5
17
100
AcDbSymbolTableRecord
100
AcDbTextStyleTableRecord
  2
Standard
 70
     0
 40
0.0
 41
1.0
 50
0.0
 71
     0
 42
0.0
  3
txt
  4

  0
ENDTAB
  0
TABLE
  2
VIEW
  5
5
100
AcDbSymbolTable
 70
     0
  0
ENDTAB
  0
TABLE
  2
UCS
  5
6
100
AcDbSymbolTable
 70
     0
  0
ENDTAB
  0
TABLE
  2
APPID
  5
8
100
AcDbSymbolTable
 70
     1
  0
APPID
  5
16
100
AcDbSymbolTableRecord
100
AcDbRegAppTableRecord
  2
ACAD
 70
     0
  0
ENDTAB
  0
TABLE
  2
DIMSTYLE
  5
9
100
AcDbSymbolTable
 70
     1
100
AcDbDimStyleTable
 71
     0
  0
DIMSTYLE
105
18
100
AcDbSymbolTableRecord
100
AcDbDimStyleTableRecord
  2
Standard
 70
     0
  3

  4

 40
1.0
 41
0.18
 42
0.0625
 43
0.38
 44
0.18
 45
0.0
 46
0.0
 47
0.0
 48
0.0
 71
     0
 72
     0
 73
     1
 74
     1
 75
     0
 76
     0
 77
     0
 78
     0
 79
     0
140
0.18
141
0.09
142
0.0
143
25.4
144
1.0
145
0.0
146
1.0
147
0.09
148
0.0
170
     0
171
     2
172
     0
173
     0
174
     0
175
     0
176
     0
177
     0
178
     0
179
     0
271
     4
272
     4
273
     2
274
     2
275
     0
276
     0
277
     2
278
    46
279
     0
280
     0
281
     0
282
     0
283
     1
284
     0
285
     0
286
     0
288
     0
340
17
341
0
342
0
343
0
344
0
371
    -2
372
    -2
  0
ENDTAB
  0
TABLE
  2
BLOCK_RECORD
  5
1
100
AcDbSymbolTable
 70
     0
  0
BLOCK_RECORD
  5
A
100
AcDbSymbolTableRecord
100
AcDbBlockTableRecord
  2
*MODEL_SPACE
340
20
  0
BLOCK_RECORD
  5
B
100
AcDbSymbolTableRecord
100
AcDbBlockTableRecord
  2
*PAPER_SPACE
340
21
  0
ENDTAB
  0
ENDSEC
  0
SECTION
  2
BLOCKS
  0
BLOCK
  5
D
100
AcDbEntity
  8
0
100
AcDbBlockBegin
  2
*MODEL_SPACE
 70
     0
 10
0.0
 20
0.0
 30
0.0
  3
*MODEL_SPACE
  1

  0
ENDBLK
  5
E
100
AcDbEntity
  8
0
100
AcDbBlockEnd
  0
BLOCK
  5
F
100
AcDbEntity
 67
     1
  8
0
100
AcDbBlockBegin
  2
*PAPER_SPACE
 70
     0
 10
0.0
 20
0.0
 30
0.0
  3
*PAPER_SPACE
  1

  0
ENDBLK
  5
10
100
AcDbEntity
 67
     1
  8
0
100
AcDbBlockEnd
  0
ENDSEC
  0
SECTION
  2
ENTITIES
  0
SPLINE
  5
25
100
AcDbEntity
  8
Ebene 1
100
AcDbSpline
210
0.0
220
0.0
230
1.0
 70
     1
 71
     3
 72
    76
 73
    72
 74
     0
 42
0.0000000001
 43
0.0000000001
 40
0.0
 40
0.0
 40
0.0
 40
0.0
 40
0.0555555555555556
 40
0.0555555555555556
 40
0.0555555555555556
 40
0.0555555555555556
 40
0.1111111111111111
 40
0.1111111111111111
 40
0.1111111111111111
 40
0.1111111111111111
 40
0.1666666666666667
 40
0.1666666666666667
 40
0.1666666666666667
 40
0.1666666666666667
 40
0.2222222222222222
 40
0.2222222222222222
 40
0.2222222222222222
 40
0.2222222222222222
 40
0.2777777777777778
 40
0.2777777777777778
 40
0.2777777777777778
 40
0.2777777777777778
 40
0.3333333333333334
 40
0.3333333333333334
 40
0.3333333333333334
 40
0.3333333333333334
 40
0.388888888888889
 40
0.388888888888889
 40
0.388888888888889
 40
0.388888888888889
 40
0.4444444444444445
 40
0.4444444444444445
 40
0.4444444444444445
 40
0.4444444444444445
 40
0.5000000000000001
 40
0.5000000000000001
 40
0.5000000000000001
 40
0.5000000000000001
 40
0.5555555555555557
 40
0.5555555555555557
 40
0.5555555555555557
 40
0.5555555555555557
 40
0.6111111111111113
 40
0.6111111111111113
 40
0.6111111111111113
 40
0.6111111111111113
 40
0.6666666666666669
 40
0.6666666666666669
 40
0.6666666666666669
 40
0.6666666666666669
 40
0.7222222222222224
 40
0.7222222222222224
 40
0.7222222222222224
 40
0.7222222222222224
 40
0.777777777777778
 40
0.777777777777778
 40
0.777777777777778
 40
0.777777777777778
 40
0.8333333333333336
 40
0.8333333333333336
 40
0.8333333333333336
 40
0.8333333333333336
 40
0.8888888888888892
 40
0.8888888888888892
 40
0.8888888888888892
 40
0.8888888888888892
 40
0.9444444444444448
 40
0.9444444444444448
 40
0.9444444444444448
 40
0.9444444444444448
 40
1.0
 40
1.0
 40
1.0
 40
1.0
 10
-3.8809700000000005
 20
5.4299500000000007
 30
0.0
 10
-3.1316700000000002
 20
5.4299500000000007
 30
0.0
 10
-2.6389100000000001
 20
4.7771700000000008
 30
0.0
 10
-2.0191500000000002
 20
4.4495100000000001
 30
0.0
 10
-2.0191500000000002
 20
4.4495100000000001
 30
0.0
 10
-0.99299
 20
4.4037900000000008
 30
0.0
 10
-0.29449
 20
3.4411300000000002
 30
0.0
 10
-0.17003
 20
2.4937100000000001
 30
0.0
 10
-0.17003
 20
2.4937100000000001
 30
0.0
 10
0.04586
 20
2.4784700000000002
 30
0.0
 10
0.21604
 20
2.38449
 30
0.0
 10
0.38622
 20
2.2447900000000001
 30
0.0
 10
0.38622
 20
2.2447900000000001
 30
0.0
 10
1.7222600000000001
 20
2.38449
 30
0.0
 10
2.4512400000000003
 20
1.0332100000000002
 30
0.0
 10
3.3377000000000003
 20
0.22549
 30
0.0
 10
3.3377000000000003
 20
0.22549
 30
0.0
 10
3.2615000000000003
 20
-0.8590800000000001
 30
0.0
 10
4.6102400000000001
 20
-1.6363200000000002
 30
0.0
 10
5.5576600000000003
 20
-1.12324
 30
0.0
 10
5.5576600000000003
 20
-1.12324
 30
0.0
 10
5.6821200000000003
 20
-1.1384800000000002
 30
0.0
 10
5.6211600000000006
 20
-1.3391400000000002
 30
0.0
 10
5.6516400000000004
 20
-1.4331200000000002
 30
0.0
 10
5.6516400000000004
 20
-1.4331200000000002
 30
0.0
 10
5.4814600000000002
 20
-2.4897600000000004
 30
0.0
 10
4.1454200000000005
 20
-2.7996400000000001
 30
0.0
 10
3.2437200000000002
 20
-2.6447000000000003
 30
0.0
 10
3.2437200000000002
 20
-2.6447000000000003
 30
0.0
 10
2.3598000000000003
 20
-2.9545800000000004
 30
0.0
 10
1.2091800000000001
 20
-3.0485600000000002
 30
0.0
 10
0.57418
 20
-2.1951200000000002
 30
0.0
 10
0.57418
 20
-2.1951200000000002
 30
0.0
 10
-0.6500900000000001
 20
-2.1468600000000002
 30
0.0
 10
-1.4425700000000001
 20
-3.4219400000000002
 30
0.0
 10
-1.5822700000000001
 20
-4.4608000000000008
 30
0.0
 10
-1.5822700000000001
 20
-4.4608000000000008
 30
0.0
 10
-1.92517
 20
-4.6309800000000001
 30
0.0
 10
-2.18933
 20
-4.9281600000000001
 30
0.0
 10
-2.4230100000000001
 20
-5.2075600000000009
 30
0.0
 10
-2.4230100000000001
 20
-5.2075600000000009
 30
0.0
 10
-2.9386300000000003
 20
-5.4234600000000004
 30
0.0
 10
-3.5533100000000002
 20
-5.4869600000000007
 30
0.0
 10
-4.1095700000000006
 20
-5.3929800000000006
 30
0.0
 10
-4.1095700000000006
 20
-5.3929800000000006
 30
0.0
 10
-4.18323
 20
-5.2532800000000002
 30
0.0
 10
-3.9724100000000004
 20
-5.1288200000000002
 30
0.0
 10
-3.8835100000000002
 20
-5.0196000000000005
 30
0.0
 10
-3.8835100000000002
 20
-5.0196000000000005
 30
0.0
 10
-2.3899900000000001
 20
-4.0721800000000004
 30
0.0
 10
-2.2985500000000001
 20
-2.2713200000000002
 30
0.0
 10
-2.4230100000000001
 20
-0.71938
 30
0.0
 10
-2.4230100000000001
 20
-0.71938
 30
0.0
 10
-2.3595100000000002
 20
-0.4857
 30
0.0
 10
-2.3112500000000002
 20
-0.2063
 30
0.0
 10
-2.0801100000000003
 20
-0.0666
 30
0.0
 10
-2.0801100000000003
 20
-0.0666
 30
0.0
 10
-2.0801100000000003
 20
-0.0666
 30
0.0
 10
-2.4230100000000001
 20
0.11881
 30
0.0
 10
-2.4230100000000001
 20
0.11881
 30
0.0
 10
-2.4230100000000001
 20
0.11881
 30
0.0
 10
-2.7481300000000002
 20
1.6859900000000001
 30
0.0
 10
-3.7488900000000003
 20
3.1617300000000004
 30
0.0
 10
-4.8461700000000008
 20
4.3098100000000006
 30
0.0
 10
-4.8461700000000008
 20
4.3098100000000006
 30
0.0
 10
-5.0976300000000005
 20
4.4672900000000002
 30
0.0
 10
-5.4633900000000004
 20
4.12439
 30
0.0
 10
-5.6462700000000003
 20
4.2793300000000007
 30
0.0
 10
-5.6462700000000003
 20
4.2793300000000007
 30
0.0
 10
-5.4379900000000001
 20
5.0413300000000003
 30
0.0
 10
-4.5616900000000005
 20
5.3207300000000002
 30
0.0
 10
-3.8809700000000005
 20
5.4299500000000007
 30
0.0
  0
SPLINE
  5
26
100
AcDbEntity
  8
Ebene 1
100
AcDbSpline
210
0.0
220
0.0
230
1.0
 70
     1
 71
     3
 72
    16
 73
    12
 74
     0
 42
0.0000000001
 43
0.0000000001
 40
0.0
 40
0.0
 40
0.0
 40
0.0
 40
0.3333333333333333
 40
0.3333333333333333
 40
0.3333333333333333
 40
0.3333333333333333
 40
0.6666666666666666
 40
0.6666666666666666
 40
0.6666666666666666
 40
0.6666666666666666
 40
1.0
 40
1.0
 40
1.0
 40
1.0
 10
-1.5517900000000002
 20
-2.2560800000000003
 30
0.0
 10
-1.5517900000000002
 20
-2.2560800000000003
 30
0.0
 10
-1.7854700000000001
 20
-2.4415
 30
0.0
 10
-1.7854700000000001
 20
-2.4415
 30
0.0
 10
-1.7854700000000001
 20
-2.4415
 30
0.0
 10
-2.1105900000000002
 20
-3.0790400000000004
 30
0.0
 10
-2.3747500000000001
 20
-3.7318200000000004
 30
0.0
 10
-2.4687300000000003
 20
-4.43032
 30
0.0
 10
-2.4687300000000003
 20
-4.43032
 30
0.0
 10
-1.9708900000000003
 20
-3.8080200000000004
 30
0.0
 10
-1.6127500000000001
 20
-3.0638000000000001
 30
0.0
 10
-1.5517900000000002
 20
-2.2560800000000003
 30
0.0
  0
SPLINE
  5
27
100
AcDbEntity
  8
Ebene 1
100
AcDbSpline
210
0.0
220
0.0
230
1.0
 70
     1
 71
     3
 72
    24
 73
    20
 74
     0
 42
0.0000000001
 43
0.0000000001
 40
0.0
 40
0.0
 40
0.0
 40
0.0
 40
0.2
 40
0.2
 40
0.2
 40
0.2
 40
0.4
 40
0.4
 40
0.4
 40
0.4
 40
0.6000000000000001
 40
0.6000000000000001
 40
0.6000000000000001
 40
0.6000000000000001
 40
0.8
 40
0.8
 40
0.8
 40
0.8
 40
1.0
 40
1.0
 40
1.0
 40
1.0
 10
-0.82281
 20
-0.26726
 30
0.0
 10
-1.0539500000000002
 20
-0.3307600000000001
 30
0.0
 10
-1.3663700000000001
 20
-0.3002800000000001
 30
0.0
 10
-1.5517900000000002
 20
-0.5009400000000001
 30
0.0
 10
-1.5517900000000002
 20
-0.5009400000000001
 30
0.0
 10
-1.6914900000000002
 20
-0.6254000000000001
 30
0.0
 10
-1.6914900000000002
 20
-0.9378200000000001
 30
0.0
 10
-1.5213100000000002
 20
-1.0140200000000001
 30
0.0
 10
-1.5213100000000002
 20
-1.0140200000000001
 30
0.0
 10
-1.2723900000000001
 20
-0.9200400000000001
 30
0.0
 10
-1.0691900000000001
 20
-0.7016000000000001
 30
0.0
 10
-0.80503
 20
-0.6406400000000001
 30
0.0
 10
-0.80503
 20
-0.6406400000000001
 30
0.0
 10
-0.80503
 20
-0.6406400000000001
 30
0.0
 10
-0.49515
 20
-0.26726
 30
0.0
 10
-0.49515
 20
-0.26726
 30
0.0
 10
-0.49515
 20
-0.26726
 30
0.0
 10
-0.49515
 20
-0.26726
 30
0.0
 10
-0.82281
 20
-0.26726
 30
0.0
 10
-0.82281
 20
-0.26726
 30
0.0
  0
SPLINE
  5
28
100
AcDbEntity
  8
Ebene 1
100
AcDbSpline
210
0.0
220
0.0
230
1.0
 70
     1
 71
     3
 72
    20
 73
    16
 74
     0
 42
0.0000000001
 43
0.0000000001
 40
0.0
 40
0.0
 40
0.0
 40
0.0
 40
0.25
 40
0.25
 40
0.25
 40
0.25
 40
0.5
 40
0.5
 40
0.5
 40
0.5
 40
0.75
 40
0.75
 40
0.75
 40
0.75
 40
1.0
 40
1.0
 40
1.0
 40
1.0
 10
-2.65415
 20
2.8620100000000002
 30
0.0
 10
-2.7481300000000002
 20
2.84423
 30
0.0
 10
-2.8090900000000003
 20
2.7375500000000001
 30
0.0
 10
-2.8395700000000001
 20
2.6435700000000004
 30
0.0
 10
-2.8395700000000001
 20
2.6435700000000004
 30
0.0
 10
-2.8090900000000003
 20
2.1000100000000002
 30
0.0
 10
-2.40523
 20
1.3380100000000001
 30
0.0
 10
-1.7702300000000002
 20
1.4319900000000001
 30
0.0
 10
-1.7702300000000002
 20
1.4319900000000001
 30
0.0
 10
-1.7067300000000001
 20
1.4954900000000002
 30
0.0
 10
-1.7067300000000001
 20
1.57169
 30
0.0
 10
-1.7067300000000001
 20
1.6656700000000002
 30
0.0
 10
-1.7067300000000001
 20
1.6656700000000002
 30
0.0
 10
-1.9708900000000003
 20
2.0847700000000002
 30
0.0
 10
-2.2502900000000001
 20
2.5495900000000002
 30
0.0
 10
-2.65415
 20
2.8620100000000002
 30
0.0
  0
SPLINE
  5
29
100
AcDbEntity
  8
Ebene 1
 62
     7
100
AcDbSpline
210
0.0
220
0.0
230
1.0
 70
     1
 71
     3
 72
   216
 73
   212
 74
     0
 42
0.0000000001
 43
0.0000000001
 40
0.0
 40
0.0
 40
0.0
 40
0.0
 40
0.0188679245283019
 40
0.0188679245283019
 40
0.0188679245283019
 40
0.0188679245283019
 40
0.0377358490566038
 40
0.0377358490566038
 40
0.0377358490566038
 40
0.0377358490566038
 40
0.0566037735849057
 40
0.0566037735849057
 40
0.0566037735849057
 40
0.0566037735849057
 40
0.0754716981132075
 40
0.0754716981132075
 40
0.0754716981132075
 40
0.0754716981132075
 40
0.0943396226415094
 40
0.0943396226415094
 40
0.0943396226415094
 40
0.0943396226415094
 40
0.1132075471698113
 40
0.1132075471698113
 40
0.1132075471698113
 40
0.1132075471698113
 40
0.1320754716981132
 40
0.1320754716981132
 40
0.1320754716981132
 40
0.1320754716981132
 40
0.1509433962264151
 40
0.1509433962264151
 40
0.1509433962264151
 40
0.1509433962264151
 40
0.169811320754717
 40
0.169811320754717
 40
0.169811320754717
 40
0.169811320754717
 40
0.1886792452830189
 40
0.1886792452830189
 40
0.1886792452830189
 40
0.1886792452830189
 40
0.2075471698113207
 40
0.2075471698113207
 40
0.2075471698113207
 40
0.2075471698113207
 40
0.2264150943396226
 40
0.2264150943396226
 40
0.2264150943396226
 40
0.2264150943396226
 40
0.2452830188679245
 40
0.2452830188679245
 40
0.2452830188679245
 40
0.2452830188679245
 40
0.2641509433962264
 40
0.2641509433962264
 40
0.2641509433962264
 40
0.2641509433962264
 40
0.2830188679245283
 40
0.2830188679245283
 40
0.2830188679245283
 40
0.2830188679245283
 40
0.3018867924528302
 40
0.3018867924528302
 40
0.3018867924528302
 40
0.3018867924528302
 40
0.3207547169811321
 40
0.3207547169811321
 40
0.3207547169811321
 40
0.3207547169811321
 40
0.3396226415094339
 40
0.3396226415094339
 40
0.3396226415094339
 40
0.3396226415094339
 40
0.3584905660377358
 40
0.3584905660377358
 40
0.3584905660377358
 40
0.3584905660377358
 40
0.3773584905660377
 40
0.3773584905660377
 40
0.3773584905660377
 40
0.3773584905660377
 40
0.3962264150943396
 40
0.3962264150943396
 40
0.3962264150943396
 40
0.3962264150943396
 40
0.4150943396226415
 40
0.4150943396226415
 40
0.4150943396226415
 40
0.4150943396226415
 40
0.4339622641509434
 40
0.4339622641509434
 40
0.4339622641509434
 40
0.4339622641509434
 40
0.4528301886792452
 40
0.4528301886792452
 40
0.4528301886792452
 40
0.4528301886792452
 40
0.4716981132075471
 40
0.4716981132075471
 40
0.4716981132075471
 40
0.4716981132075471
 40
0.490566037735849
 40
0.490566037735849
 40
0.490566037735849
 40
0.490566037735849
 40
0.5094339622641509
 40
0.5094339622641509
 40
0.5094339622641509
 40
0.5094339622641509
 40
0.5283018867924528
 40
0.5283018867924528
 40
0.5283018867924528
 40
0.5283018867924528
 40
0.5471698113207547
 40
0.5471698113207547
 40
0.5471698113207547
 40
0.5471698113207547
 40
0.5660377358490566
 40
0.5660377358490566
 40
0.5660377358490566
 40
0.5660377358490566
 40
0.5849056603773585
 40
0.5849056603773585
 40
0.5849056603773585
 40
0.5849056603773585
 40
0.6037735849056604
 40
0.6037735849056604
 40
0.6037735849056604
 40
0.6037735849056604
 40
0.6226415094339622
 40
0.6226415094339622
 40
0.6226415094339622
 40
0.6226415094339622
 40
0.6415094339622641
 40
0.6415094339622641
 40
0.6415094339622641
 40
0.6415094339622641
 40
0.660377358490566
 40
0.660377358490566
 40
0.660377358490566
 40
0.660377358490566
 40
0.6792452830188679
 40
0.6792452830188679
 40
0.6792452830188679
 40
0.6792452830188679
 40
0.6981132075471698
 40
0.6981132075471698
 40
0.6981132075471698
 40
0.6981132075471698
 40
0.7169811320754717
 40
0.7169811320754717
 40
0.7169811320754717
 40
0.7169811320754717
 40
0.7358490566037735
 40
0.7358490566037735
 40
0.7358490566037735
 40
0.7358490566037735
 40
0.7547169811320754
 40
0.7547169811320754
 40
0.7547169811320754
 40
0.7547169811320754
 40
0.7735849056603773
 40
0.7735849056603773
 40
0.7735849056603773
 40
0.7735849056603773
 40
0.7924528301886792
 40
0.7924528301886792
 40
0.7924528301886792
 40
0.7924528301886792
 40
0.8113207547169811
 40
0.8113207547169811
 40
0.8113207547169811
 40
0.8113207547169811
 40
0.830188679245283
 40
0.830188679245283
 40
0.830188679245283
 40
0.830188679245283
 40
0.8490566037735848
 40
0.8490566037735848
 40
0.8490566037735848
 40
0.8490566037735848
 40
0.8679245283018867
 40
0.8679245283018867
 40
0.8679245283018867
 40
0.8679245283018867
 40
0.8867924528301886
 40
0.8867924528301886
 40
0.8867924528301886
 40
0.8867924528301886
 40
0.9056603773584905
 40
0.9056603773584905
 40
0.9056603773584905
 40
0.9056603773584905
 40
0.9245283018867924
 40
0.9245283018867924
 40
0.9245283018867924
 40
0.9245283018867924
 40
0.9433962264150942
 40
0.9433962264150942
 40
0.9433962264150942
 40
0.9433962264150942
 40
0.9622641509433961
 40
0.9622641509433961
 40
0.9622641509433961
 40
0.9622641509433961
 40
0.981132075471698
 40
0.981132075471698
 40
0.981132075471698
 40
0.981132075471698
 40
1.0
 40
1.0
 40
1.0
 40
1.0
 10
-0.12685
 20
2.3870300000000002
 30
0.0
 10
-0.12685
 20
2.3870300000000002
 30
0.0
 10
0.29224
 20
1.8714100000000002
 30
0.0
 10
0.29224
 20
1.8714100000000002
 30
0.0
 10
0.29224
 20
1.8714100000000002
 30
0.0
 10
0.18302
 20
1.7469500000000002
 30
0.0
 10
0.51068
 20
1.4675500000000001
 30
0.0
 10
0.2617600000000001
 20
1.5005700000000002
 30
0.0
 10
0.2617600000000001
 20
1.5005700000000002
 30
0.0
 10
0.1373
 20
1.53105
 30
0.0
 10
0.10682
 20
1.3913500000000001
 30
0.0
 10
0.1373
 20
1.2973700000000001
 30
0.0
 10
0.1373
 20
1.2973700000000001
 30
0.0
 10
0.12206
 20
1.2516500000000002
 30
0.0
 10
0.10682
 20
1.2033900000000002
 30
0.0
 10
0.10682
 20
1.1576700000000002
 30
0.0
 10
0.10682
 20
1.1576700000000002
 30
0.0
 10
0.15508
 20
1.0967100000000001
 30
0.0
 10
0.2008
 20
1.3126100000000001
 30
0.0
 10
0.277
 20
1.40659
 30
0.0
 10
0.277
 20
1.40659
 30
0.0
 10
0.91454
 20
1.11195
 30
0.0
 10
0.9780400000000001
 20
-0.02088
 30
0.0
 10
1.7679800000000001
 20
-0.0031
 30
0.0
 10
1.7679800000000001
 20
-0.0031
 30
0.0
 10
1.5978000000000001
 20
0.10103
 30
0.0
 10
1.39714
 20
0.17977
 30
0.0
 10
1.2396600000000002
 20
0.33471
 30
0.0
 10
1.2396600000000002
 20
0.33471
 30
0.0
 10
1.0390000000000001
 20
0.5201300000000001
 30
0.0
 10
0.8993000000000001
 20
0.7995300000000001
 30
0.0
 10
0.8383400000000001
 20
1.0814700000000002
 30
0.0
 10
0.8383400000000001
 20
1.0814700000000002
 30
0.0
 10
0.8205600000000001
 20
1.36087
 30
0.0
 10
0.9297800000000001
 20
0.9239900000000001
 30
0.0
 10
1.0085200000000001
 20
0.8325500000000001
 30
0.0
 10
1.0085200000000001
 20
0.8325500000000001
 30
0.0
 10
1.1634600000000002
 20
0.59887
 30
0.0
 10
1.3819000000000001
 20
0.34995
 30
0.0
 10
1.6765400000000001
 20
0.36519
 30
0.0
 10
1.6765400000000001
 20
0.36519
 30
0.0
 10
1.6765400000000001
 20
0.36519
 30
0.0
 10
1.9559400000000002
 20
0.34995
 30
0.0
 10
1.9559400000000002
 20
0.34995
 30
0.0
 10
1.9559400000000002
 20
0.34995
 30
0.0
 10
2.0321400000000001
 20
0.3804300000000001
 30
0.0
 10
2.1261200000000002
 20
0.36519
 30
0.0
 10
2.1870800000000004
 20
0.30423
 30
0.0
 10
2.1870800000000004
 20
0.30423
 30
0.0
 10
2.3902800000000002
 20
0.11881
 30
0.0
 10
1.6435200000000001
 20
0.21025
 30
0.0
 10
1.8314800000000002
 20
0.10103
 30
0.0
 10
1.8314800000000002
 20
0.10103
 30
0.0
 10
1.8314800000000002
 20
0.10103
 30
0.0
 10
1.9711800000000002
 20
0.10103
 30
0.0
 10
1.9711800000000002
 20
0.10103
 30
0.0
 10
1.9711800000000002
 20
0.10103
 30
0.0
 10
1.9711800000000002
 20
0.10103
 30
0.0
 10
2.1566000000000001
 20
0.08579
 30
0.0
 10
2.1566000000000001
 20
0.08579
 30
0.0
 10
2.1566000000000001
 20
0.08579
 30
0.0
 10
2.2988400000000002
 20
0.13405
 30
0.0
 10
2.4664800000000002
 20
0.16453
 30
0.0
 10
2.5909400000000002
 20
0.07055
 30
0.0
 10
2.5909400000000002
 20
0.07055
 30
0.0
 10
2.0321400000000001
 20
0.55315
 30
0.0
 10
1.5216000000000001
 20
1.3430900000000001
 30
0.0
 10
0.7291200000000001
 20
1.3913500000000001
 30
0.0
 10
0.7291200000000001
 20
1.3913500000000001
 30
0.0
 10
0.63514
 20
1.4218300000000001
 30
0.0
 10
0.5411600000000001
 20
1.4827900000000001
 30
0.0
 10
0.4497200000000001
 20
1.53105
 30
0.0
 10
0.4497200000000001
 20
1.53105
 30
0.0
 10
0.4497200000000001
 20
1.53105
 30
0.0
 10
0.3405
 20
1.8714100000000002
 30
0.0
 10
0.3405
 20
1.8714100000000002
 30
0.0
 10
0.3405
 20
1.8714100000000002
 30
0.0
 10
0.4954400000000001
 20
1.9196700000000002
 30
0.0
 10
0.57418
 20
1.6859900000000001
 30
0.0
 10
0.7291200000000001
 20
1.6859900000000001
 30
0.0
 10
0.7291200000000001
 20
1.6859900000000001
 30
0.0
 10
0.7291200000000001
 20
1.6859900000000001
 30
0.0
 10
0.57418
 20
1.8561700000000001
 30
0.0
 10
0.57418
 20
1.8561700000000001
 30
0.0
 10
0.57418
 20
1.8561700000000001
 30
0.0
 10
0.57418
 20
1.8561700000000001
 30
0.0
 10
0.4497200000000001
 20
2.01111
 30
0.0
 10
0.4497200000000001
 20
2.01111
 30
0.0
 10
0.4497200000000001
 20
2.01111
 30
0.0
 10
0.7900800000000001
 20
2.0746100000000003
 30
0.0
 10
1.1634600000000002
 20
2.0593700000000004
 30
0.0
 10
1.4733400000000001
 20
1.9196700000000002
 30
0.0
 10
1.4733400000000001
 20
1.9196700000000002
 30
0.0
 10
1.8772000000000002
 20
1.5767700000000002
 30
0.0
 10
2.17184
 20
1.0967100000000001
 30
0.0
 10
2.4055200000000001
 20
0.6293500000000001
 30
0.0
 10
2.4055200000000001
 20
0.6293500000000001
 30
0.0
 10
2.4055200000000001
 20
0.6293500000000001
 30
0.0
 10
2.6239600000000003
 20
0.41345
 30
0.0
 10
2.6239600000000003
 20
0.41345
 30
0.0
 10
2.6239600000000003
 20
0.41345
 30
0.0
 10
2.5909400000000002
 20
0.65983
 30
0.0
 10
2.3471000000000002
 20
0.8249300000000001
 30
0.0
 10
2.30138
 20
1.07131
 30
0.0
 10
2.30138
 20
1.07131
 30
0.0
 10
2.6417400000000004
 20
0.7919100000000001
 30
0.0
 10
3.4926400000000002
 20
0.30423
 30
0.0
 10
3.1370400000000003
 20
-0.1428
 30
0.0
 10
3.1370400000000003
 20
-0.1428
 30
0.0
 10
3.0583000000000005
 20
-0.08184
 30
0.0
 10
2.9795600000000002
 20
0.13405
 30
0.0
 10
2.9033600000000002
 20
0.08579
 30
0.0
 10
2.9033600000000002
 20
0.08579
 30
0.0
 10
3.1218000000000004
 20
-0.26726
 30
0.0
 10
3.1980000000000004
 20
-0.7016000000000001
 30
0.0
 10
3.1675200000000001
 20
-1.1054600000000001
 30
0.0
 10
3.1675200000000001
 20
-1.1054600000000001
 30
0.0
 10
3.2767400000000002
 20
-0.95052
 30
0.0
 10
3.2132400000000003
 20
-0.71938
 30
0.0
 10
3.2132400000000003
 20
-0.53142
 30
0.0
 10
3.2132400000000003
 20
-0.53142
 30
0.0
 10
3.7110800000000004
 20
-1.0445
 30
0.0
 10
4.3943400000000006
 20
-1.71252
 30
0.0
 10
5.1080800000000002
 20
-1.58806
 30
0.0
 10
5.1080800000000002
 20
-1.58806
 30
0.0
 10
5.1080800000000002
 20
-1.58806
 30
0.0
 10
4.7677200000000006
 20
-1.4966200000000001
 30
0.0
 10
4.7677200000000006
 20
-1.4966200000000001
 30
0.0
 10
4.7677200000000006
 20
-1.4966200000000001
 30
0.0
 10
4.8134400000000008
 20
-1.4331200000000002
 30
0.0
 10
5.26302
 20
-1.3848600000000002
 30
0.0
 10
5.4332000000000003
 20
-1.2781800000000001
 30
0.0
 10
5.4332000000000003
 20
-1.2781800000000001
 30
0.0
 10
5.3570000000000002
 20
-2.10114
 30
0.0
 10
4.4095800000000001
 20
-2.4745200000000001
 30
0.0
 10
3.6806000000000001
 20
-2.35006
 30
0.0
 10
3.6806000000000001
 20
-2.35006
 30
0.0
 10
3.7415600000000002
 20
-2.2560800000000003
 30
0.0
 10
4.0997000000000003
 20
-2.3018000000000001
 30
0.0
 10
3.9269800000000004
 20
-2.1951200000000002
 30
0.0
 10
3.9269800000000004
 20
-2.1951200000000002
 30
0.0
 10
3.1827600000000005
 20
-2.2256
 30
0.0
 10
2.3267800000000003
 20
-2.6294600000000004
 30
0.0
 10
1.6613000000000002
 20
-2.1468600000000002
 30
0.0
 10
1.6613000000000002
 20
-2.1468600000000002
 30
0.0
 10
1.3819000000000001
 20
-1.8522200000000002
 30
0.0
 10
1.7070200000000002
 20
-1.3569200000000001
 30
0.0
 10
2.04738
 20
-1.2781800000000001
 30
0.0
 10
2.04738
 20
-1.2781800000000001
 30
0.0
 10
2.3115400000000004
 20
-1.6668000000000001
 30
0.0
 10
2.8093800000000004
 20
-1.3086600000000002
 30
0.0
 10
3.1675200000000001
 20
-1.4636
 30
0.0
 10
3.1675200000000001
 20
-1.4636
 30
0.0
 10
3.1675200000000001
 20
-1.3848600000000002
 30
0.0
 10
3.0583000000000005
 20
-1.4026400000000001
 30
0.0
 10
3.0278200000000002
 20
-1.3391400000000002
 30
0.0
 10
3.0278200000000002
 20
-1.3391400000000002
 30
0.0
 10
2.8398600000000003
 20
-1.3086600000000002
 30
0.0
 10
2.6696800000000001
 20
-1.41788
 30
0.0
 10
2.4842600000000004
 20
-1.3696200000000001
 30
0.0
 10
2.4842600000000004
 20
-1.3696200000000001
 30
0.0
 10
2.4842600000000004
 20
-1.3696200000000001
 30
0.0
 10
2.2988400000000002
 20
-1.3239000000000001
 30
0.0
 10
2.2988400000000002
 20
-1.3239000000000001
 30
0.0
 10
2.2988400000000002
 20
-1.3239000000000001
 30
0.0
 10
2.0169000000000001
 20
-0.65588
 30
0.0
 10
1.09996
 20
-0.9987800000000001
 30
0.0
 10
0.4954400000000001
 20
-0.9200400000000001
 30
0.0
 10
0.4954400000000001
 20
-0.9200400000000001
 30
0.0
 10
-0.03033
 20
-0.7346200000000001
 30
0.0
 10
0.38622
 20
-0.22154
 30
0.0
 10
0.57418
 20
-0.02088
 30
0.0
 10
0.57418
 20
-0.02088
 30
0.0
 10
0.31002
 20
-0.02088
 30
0.0
 10
0.03062
 20
-0.08184
 30
0.0
 10
-0.21575
 20
0.00959
 30
0.0
 10
-0.21575
 20
0.00959
 30
0.0
 10
-1.8007100000000003
 20
1.2033900000000002
 30
0.0
 10
-2.2045700000000004
 20
3.7840300000000004
 30
0.0
 10
-4.2797499999999999
 20
4.4342700000000006
 30
0.0
 10
-4.2797499999999999
 20
4.4342700000000006
 30
0.0
 10
-3.6523700000000003
 20
4.49777
 30
0.0
 10
-3.0681700000000003
 20
4.2793300000000007
 30
0.0
 10
-2.6846300000000003
 20
3.7662500000000003
 30
0.0
 10
-2.6846300000000003
 20
3.7662500000000003
 30
0.0
 10
-2.6693900000000004
 20
3.7205300000000001
 30
0.0
 10
-2.6389100000000001
 20
3.6722700000000001
 30
0.0
 10
-2.5906500000000001
 20
3.6722700000000001
 30
0.0
 10
-2.5906500000000001
 20
3.6722700000000001
 30
0.0
 10
-2.9183100000000004
 20
4.1701100000000002
 30
0.0
 10
-3.4720300000000002
 20
4.7619300000000004
 30
0.0
 10
-4.0689299999999999
 20
4.7619300000000004
 30
0.0
 10
-4.0689299999999999
 20
4.7619300000000004
 30
0.0
 10
-4.0689299999999999
 20
4.7619300000000004
 30
0.0
 10
-3.6650700000000005
 20
4.5587300000000006
 30
0.0
 10
-3.6650700000000005
 20
4.5587300000000006
 30
0.0
 10
-3.6650700000000005
 20
4.5587300000000006
 30
0.0
 10
-3.8581100000000004
 20
4.49777
 30
0.0
 10
-4.8487100000000005
 20
4.6374700000000004
 30
0.0
 10
-5.3211500000000003
 20
4.4342700000000006
 30
0.0
 10
-5.3211500000000003
 20
4.4342700000000006
 30
0.0
 10
-4.7496500000000008
 20
5.8007900000000001
 30
0.0
 10
-2.5906500000000001
 20
5.3664500000000004
 30
0.0
 10
-2.26553
 20
4.0939100000000002
 30
0.0
 10
-2.26553
 20
4.0939100000000002
 30
0.0
 10
-0.99299
 20
4.7924100000000003
 30
0.0
 10
-0.4494300000000001
 20
2.9280500000000003
 30
0.0
 10
-0.06081
 20
2.0898500000000002
 30
0.0
 10
-0.06081
 20
2.0898500000000002
 30
0.0
 10
-0.06081
 20
2.0898500000000002
 30
0.0
 10
-0.12685
 20
2.3870300000000002
 30
0.0
 10
-0.12685
 20
2.3870300000000002
 30
0.0
  0
SPLINE
  5
2A
100
AcDbEntity
  8
Ebene 1
100
AcDbSpline
210
0.0
220
0.0
230
1.0
 70
     1
 71
     3
 72
    44
 73
    40
 74
     0
 42
0.0000000001
 43
0.0000000001
 40
0.0
 40
0.0
 40
0.0
 40
0.0
 40
0.1
 40
0.1
 40
0.1
 40
0.1
 40
0.2
 40
0.2
 40
0.2
 40
0.2
 40
0.3
 40
0.3
 40
0.3
 40
0.3
 40
0.4
 40
0.4
 40
0.4
 40
0.4
 40
0.5
 40
0.5
 40
0.5
 40
0.5
 40
0.6
 40
0.6
 40
0.6
 40
0.6
 40
0.7
 40
0.7
 40
0.7
 40
0.7
 40
0.7999999999999999
 40
0.7999999999999999
 40
0.7999999999999999
 40
0.7999999999999999
 40
0.8999999999999999
 40
0.8999999999999999
 40
0.8999999999999999
 40
0.8999999999999999
 40
1.0
 40
1.0
 40
1.0
 40
1.0
 10
-1.7067300000000001
 20
3.9516700000000005
 30
0.0
 10
-1.2571500000000002
 20
3.8907100000000003
 30
0.0
 10
-0.7897900000000001
 20
3.5198700000000005
 30
0.0
 10
-0.7288300000000001
 20
3.0372700000000004
 30
0.0
 10
-0.7288300000000001
 20
3.0372700000000004
 30
0.0
 10
-0.7745500000000001
 20
2.9280500000000003
 30
0.0
 10
-0.8837700000000001
 20
2.8670900000000001
 30
0.0
 10
-1.0082300000000002
 20
2.8670900000000001
 30
0.0
 10
-1.0082300000000002
 20
2.8670900000000001
 30
0.0
 10
-1.0234700000000001
 20
2.9280500000000003
 30
0.0
 10
-0.80503
 20
2.9280500000000003
 30
0.0
 10
-0.80503
 20
3.0525100000000003
 30
0.0
 10
-0.80503
 20
3.0525100000000003
 30
0.0
 10
-0.80503
 20
3.0525100000000003
 30
0.0
 10
-0.8532900000000001
 20
3.1007700000000002
 30
0.0
 10
-0.8532900000000001
 20
3.1007700000000002
 30
0.0
 10
-0.8532900000000001
 20
3.1007700000000002
 30
0.0
 10
-1.1936500000000001
 20
2.9890100000000004
 30
0.0
 10
-1.6000500000000002
 20
3.3319100000000001
 30
0.0
 10
-1.6457700000000002
 20
3.6722700000000001
 30
0.0
 10
-1.6457700000000002
 20
3.6722700000000001
 30
0.0
 10
-1.92517
 20
3.5655900000000003
 30
0.0
 10
-1.5365500000000001
 20
3.2404700000000002
 30
0.0
 10
-1.5365500000000001
 20
3.1464900000000005
 30
0.0
 10
-1.5365500000000001
 20
3.1464900000000005
 30
0.0
 10
-1.7397500000000001
 20
3.2709500000000005
 30
0.0
 10
-2.0191500000000002
 20
3.6265500000000004
 30
0.0
 10
-1.7067300000000001
 20
3.7840300000000004
 30
0.0
 10
-1.7067300000000001
 20
3.7840300000000004
 30
0.0
 10
-1.6610100000000001
 20
3.8297500000000002
 30
0.0
 10
-1.7524500000000001
 20
3.7992700000000004
 30
0.0
 10
-1.7676900000000002
 20
3.7992700000000004
 30
0.0
 10
-1.7676900000000002
 20
3.7992700000000004
 30
0.0
 10
-1.8794500000000001
 20
3.7840300000000004
 30
0.0
 10
-2.06487
 20
3.7357700000000005
 30
0.0
 10
-2.1258300000000001
 20
3.7992700000000004
 30
0.0
 10
-2.1258300000000001
 20
3.7992700000000004
 30
0.0
 10
-2.1258300000000001
 20
3.7992700000000004
 30
0.0
 10
-1.7067300000000001
 20
3.9516700000000005
 30
0.0
 10
-1.7067300000000001
 20
3.9516700000000005
 30
0.0
  0
SPLINE
  5
2B
100
AcDbEntity
  8
Ebene 1
 62
     7
100
AcDbSpline
210
0.0
220
0.0
230
1.0
 70
     1
 71
     3
 72
    32
 73
    28
 74
     0
 42
0.0000000001
 43
0.0000000001
 40
0.0
 40
0.0
 40
0.0
 40
0.0
 40
0.1428571428571429
 40
0.1428571428571429
 40
0.1428571428571429
 40
0.1428571428571429
 40
0.2857142857142857
 40
0.2857142857142857
 40
0.2857142857142857
 40
0.2857142857142857
 40
0.4285714285714286
 40
0.4285714285714286
 40
0.4285714285714286
 40
0.4285714285714286
 40
0.5714285714285714
 40
0.5714285714285714
 40
0.5714285714285714
 40
0.5714285714285714
 40
0.7142857142857142
 40
0.7142857142857142
 40
0.7142857142857142
 40
0.7142857142857142
 40
0.857142857142857
 40
0.857142857142857
 40
0.857142857142857
 40
0.857142857142857
 40
1.0
 40
1.0
 40
1.0
 40
1.0
 10
-2.3442700000000003
 20
0.7080900000000001
 30
0.0
 10
-2.3442700000000003
 20
0.7080900000000001
 30
0.0
 10
-2.2198100000000003
 20
0.5074300000000001
 30
0.0
 10
-2.2198100000000003
 20
0.5074300000000001
 30
0.0
 10
-2.2198100000000003
 20
0.5074300000000001
 30
0.0
 10
-2.2198100000000003
 20
0.5074300000000001
 30
0.0
 10
-2.0953500000000003
 20
0.47695
 30
0.0
 10
-2.0953500000000003
 20
0.47695
 30
0.0
 10
-2.0953500000000003
 20
0.47695
 30
0.0
 10
-2.6846300000000003
 20
1.31515
 30
0.0
 10
-3.2180300000000002
 20
2.3057500000000002
 30
0.0
 10
-3.7107900000000003
 20
3.1769700000000003
 30
0.0
 10
-3.7107900000000003
 20
3.1769700000000003
 30
0.0
 10
-2.9513300000000005
 20
2.5546700000000002
 30
0.0
 10
-2.8090900000000003
 20
1.4827900000000001
 30
0.0
 10
-2.0801100000000003
 20
0.8325500000000001
 30
0.0
 10
-2.0801100000000003
 20
0.8325500000000001
 30
0.0
 10
-2.0801100000000003
 20
0.8325500000000001
 30
0.0
 10
-1.8311900000000001
 20
0.3804300000000001
 30
0.0
 10
-1.8311900000000001
 20
0.3804300000000001
 30
0.0
 10
-1.8311900000000001
 20
0.3804300000000001
 30
0.0
 10
-1.8311900000000001
 20
0.28899
 30
0.0
 10
-1.7219700000000002
 20
0.19501
 30
0.0
 10
-1.8159500000000002
 20
0.13405
 30
0.0
 10
-1.8159500000000002
 20
0.13405
 30
0.0
 10
-2.1588500000000002
 20
0.04007
 30
0.0
 10
-2.3290300000000004
 20
0.42869
 30
0.0
 10
-2.3442700000000003
 20
0.7080900000000001
 30
0.0
  0
SPLINE
  5
2C
100
AcDbEntity
  8
Ebene 1
100
AcDbSpline
210
0.0
220
0.0
230
1.0
 70
     1
 71
     3
 72
    28
 73
    24
 74
     0
 42
0.0000000001
 43
0.0000000001
 40
0.0
 40
0.0
 40
0.0
 40
0.0
 40
0.1666666666666667
 40
0.1666666666666667
 40
0.1666666666666667
 40
0.1666666666666667
 40
0.3333333333333333
 40
0.3333333333333333
 40
0.3333333333333333
 40
0.3333333333333333
 40
0.5
 40
0.5
 40
0.5
 40
0.5
 40
0.6666666666666666
 40
0.6666666666666666
 40
0.6666666666666666
 40
0.6666666666666666
 40
0.8333333333333333
 40
0.8333333333333333
 40
0.8333333333333333
 40
0.8333333333333333
 40
1.0
 40
1.0
 40
1.0
 40
1.0
 10
-0.86853
 20
2.7731100000000004
 30
0.0
 10
-0.13955
 20
2.7731100000000004
 30
0.0
 10
-0.20051
 20
1.7799700000000001
 30
0.0
 10
-0.04557
 20
1.3126100000000001
 30
0.0
 10
-0.04557
 20
1.3126100000000001
 30
0.0
 10
-0.12177
 20
1.1576700000000002
 30
0.0
 10
-0.30973
 20
1.1576700000000002
 30
0.0
 10
-0.4799100000000001
 20
1.1576700000000002
 30
0.0
 10
-0.4799100000000001
 20
1.1576700000000002
 30
0.0
 10
-0.6831100000000001
 20
1.2668900000000001
 30
0.0
 10
-0.4799100000000001
 20
1.0484500000000001
 30
0.0
 10
-0.46467
 20
1.01797
 30
0.0
 10
-0.46467
 20
1.01797
 30
0.0
 10
-0.5840500000000001
 20
1.0890900000000001
 30
0.0
 10
-0.63993
 20
1.1602100000000002
 30
0.0
 10
-0.7085100000000001
 20
1.23895
 30
0.0
 10
-0.7085100000000001
 20
1.23895
 30
0.0
 10
-1.03363
 20
1.6301100000000002
 30
0.0
 10
-1.2241300000000002
 20
2.1609700000000003
 30
0.0
 10
-1.0691900000000001
 20
2.6486500000000004
 30
0.0
 10
-1.0691900000000001
 20
2.6486500000000004
 30
0.0
 10
-1.0234700000000001
 20
2.7096100000000001
 30
0.0
 10
-0.92949
 20
2.7426300000000001
 30
0.0
 10
-0.86853
 20
2.7731100000000004
 30
0.0
  0
SPLINE
  5
2D
100
AcDbEntity
  8
Ebene 1
 62
     7
100
AcDbSpline
210
0.0
220
0.0
230
1.0
 70
     1
 71
     3
 72
    12
 73
     8
 74
     0
 42
0.0000000001
 43
0.0000000001
 40
0.0
 40
0.0
 40
0.0
 40
0.0
 40
0.5
 40
0.5
 40
0.5
 40
0.5
 40
1.0
 40
1.0
 40
1.0
 40
1.0
 10
1.06948
 20
1.1576700000000002
 30
0.0
 10
1.3184
 20
1.0484500000000001
 30
0.0
 10
1.56732
 20
0.89351
 30
0.0
 10
1.7222600000000001
 20
0.6445900000000001
 30
0.0
 10
1.7222600000000001
 20
0.6445900000000001
 30
0.0
 10
1.44286
 20
0.7080900000000001
 30
0.0
 10
1.14822
 20
0.8630300000000001
 30
0.0
 10
1.06948
 20
1.1576700000000002
 30
0.0
  0
SPLINE
  5
2E
100
AcDbEntity
  8
Ebene 1
 62
     7
100
AcDbSpline
210
0.0
220
0.0
230
1.0
 70
     1
 71
     3
 72
    92
 73
    88
 74
     0
 42
0.0000000001
 43
0.0000000001
 40
0.0
 40
0.0
 40
0.0
 40
0.0
 40
0.0454545454545455
 40
0.0454545454545455
 40
0.0454545454545455
 40
0.0454545454545455
 40
0.0909090909090909
 40
0.0909090909090909
 40
0.0909090909090909
 40
0.0909090909090909
 40
0.1363636363636364
 40
0.1363636363636364
 40
0.1363636363636364
 40
0.1363636363636364
 40
0.1818181818181818
 40
0.1818181818181818
 40
0.1818181818181818
 40
0.1818181818181818
 40
0.2272727272727273
 40
0.2272727272727273
 40
0.2272727272727273
 40
0.2272727272727273
 40
0.2727272727272728
 40
0.2727272727272728
 40
0.2727272727272728
 40
0.2727272727272728
 40
0.3181818181818182
 40
0.3181818181818182
 40
0.3181818181818182
 40
0.3181818181818182
 40
0.3636363636363637
 40
0.3636363636363637
 40
0.3636363636363637
 40
0.3636363636363637
 40
0.4090909090909092
 40
0.4090909090909092
 40
0.4090909090909092
 40
0.4090909090909092
 40
0.4545454545454546
 40
0.4545454545454546
 40
0.4545454545454546
 40
0.4545454545454546
 40
0.5000000000000001
 40
0.5000000000000001
 40
0.5000000000000001
 40
0.5000000000000001
 40
0.5454545454545455
 40
0.5454545454545455
 40
0.5454545454545455
 40
0.5454545454545455
 40
0.5909090909090909
 40
0.5909090909090909
 40
0.5909090909090909
 40
0.5909090909090909
 40
0.6363636363636364
 40
0.6363636363636364
 40
0.6363636363636364
 40
0.6363636363636364
 40
0.6818181818181818
 40
0.6818181818181818
 40
0.6818181818181818
 40
0.6818181818181818
 40
0.7272727272727272
 40
0.7272727272727272
 40
0.7272727272727272
 40
0.7272727272727272
 40
0.7727272727272726
 40
0.7727272727272726
 40
0.7727272727272726
 40
0.7727272727272726
 40
0.818181818181818
 40
0.818181818181818
 40
0.818181818181818
 40
0.818181818181818
 40
0.8636363636363634
 40
0.8636363636363634
 40
0.8636363636363634
 40
0.8636363636363634
 40
0.9090909090909088
 40
0.9090909090909088
 40
0.9090909090909088
 40
0.9090909090909088
 40
0.9545454545454543
 40
0.9545454545454543
 40
0.9545454545454543
 40
0.9545454545454543
 40
1.0
 40
1.0
 40
1.0
 40
1.0
 10
-0.41895
 20
-2.2408400000000004
 30
0.0
 10
-0.3859300000000001
 20
-2.1163800000000004
 30
0.0
 10
-0.13955
 20
-1.9157200000000001
 30
0.0
 10
-0.20051
 20
-1.8217400000000001
 30
0.0
 10
-0.20051
 20
-1.8217400000000001
 30
0.0
 10
-0.5586500000000001
 20
-2.2230600000000003
 30
0.0
 10
-0.9066300000000001
 20
-2.6497800000000002
 30
0.0
 10
-1.1860300000000001
 20
-3.11206
 30
0.0
 10
-1.1860300000000001
 20
-3.11206
 30
0.0
 10
-1.5162300000000002
 20
-3.6530800000000001
 30
0.0
 10
-1.7803900000000001
 20
-4.2271200000000002
 30
0.0
 10
-2.26553
 20
-4.6640000000000006
 30
0.0
 10
-2.26553
 20
-4.6640000000000006
 30
0.0
 10
-2.1258300000000001
 20
-4.7249600000000003
 30
0.0
 10
-1.92517
 20
-4.3846000000000007
 30
0.0
 10
-1.7397500000000001
 20
-4.30586
 30
0.0
 10
-1.7397500000000001
 20
-4.30586
 30
0.0
 10
-1.9708900000000003
 20
-4.6944800000000004
 30
0.0
 10
-2.40523
 20
-4.9891200000000007
 30
0.0
 10
-2.8243300000000002
 20
-5.1288200000000002
 30
0.0
 10
-2.8243300000000002
 20
-5.1288200000000002
 30
0.0
 10
-2.8878300000000001
 20
-5.2990000000000004
 30
0.0
 10
-2.5779500000000004
 20
-5.0526200000000001
 30
0.0
 10
-2.4687300000000003
 20
-5.0526200000000001
 30
0.0
 10
-2.4687300000000003
 20
-5.0526200000000001
 30
0.0
 10
-2.9183100000000004
 20
-5.4717200000000004
 30
0.0
 10
-3.3247100000000001
 20
-5.2075600000000009
 30
0.0
 10
-3.9292300000000004
 20
-5.3777400000000002
 30
0.0
 10
-3.9292300000000004
 20
-5.3777400000000002
 30
0.0
 10
-3.9647900000000003
 20
-5.3777400000000002
 30
0.0
 10
-3.9927300000000003
 20
-5.3929800000000006
 30
0.0
 10
-3.9927300000000003
 20
-5.3472600000000003
 30
0.0
 10
-3.9927300000000003
 20
-5.3472600000000003
 30
0.0
 10
-3.9647900000000003
 20
-5.3472600000000003
 30
0.0
 10
-4.0384500000000001
 20
-5.2990000000000004
 30
0.0
 10
-4.0359100000000003
 20
-5.3320200000000009
 30
0.0
 10
-4.0359100000000003
 20
-5.3320200000000009
 30
0.0
 10
-4.0562300000000002
 20
-5.3472600000000003
 30
0.0
 10
-4.0740100000000004
 20
-5.3625000000000007
 30
0.0
 10
-4.0943300000000002
 20
-5.3472600000000003
 30
0.0
 10
-4.0943300000000002
 20
-5.3472600000000003
 30
0.0
 10
-4.0740100000000004
 20
-5.2685200000000005
 30
0.0
 10
-4.0155900000000004
 20
-5.2228000000000003
 30
0.0
 10
-3.9597100000000003
 20
-5.1745400000000004
 30
0.0
 10
-3.9597100000000003
 20
-5.1745400000000004
 30
0.0
 10
-3.9597100000000003
 20
-5.2228000000000003
 30
0.0
 10
-4.0409900000000007
 20
-5.28376
 30
0.0
 10
-3.9597100000000003
 20
-5.3142400000000007
 30
0.0
 10
-3.9597100000000003
 20
-5.3142400000000007
 30
0.0
 10
-2.77861
 20
-5.1288200000000002
 30
0.0
 10
-1.8921500000000002
 20
-4.05694
 30
0.0
 10
-1.5670300000000001
 20
-2.9393400000000001
 30
0.0
 10
-1.5670300000000001
 20
-2.9393400000000001
 30
0.0
 10
-1.4425700000000001
 20
-1.9004800000000002
 30
0.0
 10
-1.08697
 20
-0.6711200000000001
 30
0.0
 10
-0.10653
 20
-0.16058
 30
0.0
 10
-0.10653
 20
-0.16058
 30
0.0
 10
-0.6500900000000001
 20
-0.5619000000000001
 30
0.0
 10
-1.08697
 20
-1.1842000000000001
 30
0.0
 10
-1.16317
 20
-1.8369800000000001
 30
0.0
 10
-1.16317
 20
-1.8369800000000001
 30
0.0
 10
-1.16317
 20
-1.8369800000000001
 30
0.0
 10
-1.2571500000000002
 20
-2.3373600000000003
 30
0.0
 10
-1.2571500000000002
 20
-2.3373600000000003
 30
0.0
 10
-1.2571500000000002
 20
-2.3373600000000003
 30
0.0
 10
-1.2571500000000002
 20
-2.3373600000000003
 30
0.0
 10
-1.2571500000000002
 20
-2.6599400000000002
 30
0.0
 10
-1.2571500000000002
 20
-2.6599400000000002
 30
0.0
 10
-1.2571500000000002
 20
-2.6599400000000002
 30
0.0
 10
-1.1479300000000001
 20
-1.8522200000000002
 30
0.0
 10
-0.8380500000000001
 20
-0.45522
 30
0.0
 10
0.23128
 20
-0.19106
 30
0.0
 10
0.23128
 20
-0.19106
 30
0.0
 10
0.09158
 20
-0.37648
 30
0.0
 10
-0.01509
 20
-0.5796800000000001
 30
0.0
 10
0.00014
 20
-0.8108200000000001
 30
0.0
 10
0.00014
 20
-0.8108200000000001
 30
0.0
 10
-0.21575
 20
-0.9657600000000001
 30
0.0
 10
-0.3859300000000001
 20
-1.3391400000000002
 30
0.0
 10
-0.10653
 20
-1.5093200000000002
 30
0.0
 10
-0.10653
 20
-1.5093200000000002
 30
0.0
 10
0.46496
 20
-1.4331200000000002
 30
0.0
 10
0.8840600000000001
 20
-0.82606
 30
0.0
 10
1.5038200000000002
 20
-1.0597400000000001
 30
0.0
 10
1.5038200000000002
 20
-1.0597400000000001
 30
0.0
 10
1.5216000000000001
 20
-2.0071600000000003
 30
0.0
 10
0.277
 20
-2.0859000000000001
 30
0.0
 10
-0.41895
 20
-2.2408400000000004
 30
0.0
  0
SPLINE
  5
2F
100
AcDbEntity
  8
Ebene 1
 62
     7
100
AcDbSpline
210
0.0
220
0.0
230
1.0
 70
     1
 71
     3
 72
    28
 73
    24
 74
     0
 42
0.0000000001
 43
0.0000000001
 40
0.0
 40
0.0
 40
0.0
 40
0.0
 40
0.1666666666666667
 40
0.1666666666666667
 40
0.1666666666666667
 40
0.1666666666666667
 40
0.3333333333333333
 40
0.3333333333333333
 40
0.3333333333333333
 40
0.3333333333333333
 40
0.5
 40
0.5
 40
0.5
 40
0.5
 40
0.6666666666666666
 40
0.6666666666666666
 40
0.6666666666666666
 40
0.6666666666666666
 40
0.8333333333333333
 40
0.8333333333333333
 40
0.8333333333333333
 40
0.8333333333333333
 40
1.0
 40
1.0
 40
1.0
 40
1.0
 10
-3.8352500000000003
 20
-5.03484
 30
0.0
 10
-3.8352500000000003
 20
-5.03484
 30
0.0
 10
-3.4847300000000003
 20
-4.7656000000000001
 30
0.0
 10
-3.4847300000000003
 20
-4.7656000000000001
 30
0.0
 10
-3.4847300000000003
 20
-4.7656000000000001
 30
0.0
 10
-2.8014700000000001
 20
-4.2245800000000004
 30
0.0
 10
-2.52969
 20
-3.3584400000000003
 30
0.0
 10
-2.3595100000000002
 20
-2.5507200000000001
 30
0.0
 10
-2.3595100000000002
 20
-2.5507200000000001
 30
0.0
 10
-2.3468100000000001
 20
-2.31704
 30
0.0
 10
-2.3290300000000004
 20
-2.0808200000000001
 30
0.0
 10
-2.3341100000000004
 20
-1.8496800000000002
 30
0.0
 10
-2.3341100000000004
 20
-1.8496800000000002
 30
0.0
 10
-2.3442700000000003
 20
-1.46106
 30
0.0
 10
-2.3722100000000004
 20
-1.0826
 30
0.0
 10
-2.26553
 20
-0.7016000000000001
 30
0.0
 10
-2.26553
 20
-0.7016000000000001
 30
0.0
 10
-2.26553
 20
-1.0902200000000002
 30
0.0
 10
-2.2350500000000002
 20
-1.4483600000000001
 30
0.0
 10
-2.2833100000000002
 20
-1.8217400000000001
 30
0.0
 10
-2.2833100000000002
 20
-1.8217400000000001
 30
0.0
 10
-2.2350500000000002
 20
-3.0333200000000002
 30
0.0
 10
-2.6389100000000001
 20
-4.4608000000000008
 30
0.0
 10
-3.8352500000000003
 20
-5.03484
 30
0.0
  0
SPLINE
  5
30
100
AcDbEntity
  8
Ebene 1
 62
     7
100
AcDbSpline
210
0.0
220
0.0
230
1.0
 70
     1
 71
     3
 72
    16
 73
    12
 74
     0
 42
0.0000000001
 43
0.0000000001
 40
0.0
 40
0.0
 40
0.0
 40
0.0
 40
0.3333333333333333
 40
0.3333333333333333
 40
0.3333333333333333
 40
0.3333333333333333
 40
0.6666666666666666
 40
0.6666666666666666
 40
0.6666666666666666
 40
0.6666666666666666
 40
1.0
 40
1.0
 40
1.0
 40
1.0
 10
-1.2571500000000002
 20
-0.95052
 30
0.0
 10
-1.2571500000000002
 20
-0.95052
 30
0.0
 10
-1.20889
 20
-0.9657600000000001
 30
0.0
 10
-1.20889
 20
-0.9657600000000001
 30
0.0
 10
-1.20889
 20
-0.9657600000000001
 30
0.0
 10
-1.4273300000000002
 20
-1.1384800000000002
 30
0.0
 10
-1.6457700000000002
 20
-1.3239000000000001
 30
0.0
 10
-1.7854700000000001
 20
-1.5575800000000002
 30
0.0
 10
-1.7854700000000001
 20
-1.5575800000000002
 30
0.0
 10
-1.7524500000000001
 20
-1.2629400000000002
 30
0.0
 10
-1.4882900000000001
 20
-1.07752
 30
0.0
 10
-1.2571500000000002
 20
-0.95052
 30
0.0
  0
ENDSEC
  0
SECTION
  2
OBJECTS
  0
DICTIONARY
  5
19
100
AcDbDictionary
280
     0
281
     1
  3
ACAD_GROUP
350
1A
  3
ACAD_MLINESTYLE
350
1B
  3
ACAD_LAYOUT
350
1E
  3
ACAD_PLOTSETTINGS
350
22
  3
ACAD_PLOTSTYLENAME
350
1F
  3
ACAD_WIPEOUT_VARS
350
23
  0
DICTIONARY
  5
1A
102
{ACAD_REACTORS
330
19
102
}
100
AcDbDictionary
280
     0
281
     1
  0
DICTIONARY
  5
1B
102
{ACAD_REACTORS
330
19
102
}
100
AcDbDictionary
280
     0
281
     1
  3
Standard
350
1C
  0
MLINESTYLE
  5
1C
102
{ACAD_REACTORS
330
1B
102
}
100
AcDbMlineStyle
  2
Standard
 70
     0
  3

 62
     0
 51
90.0
 52
90.0
 71
     2
 49
0.5
 62
   256
  6
BYLAYER
 49
-0.5
 62
   256
  6
BYLAYER
  0
ACDBDICTIONARYWDFLT
  5
1F
102
{ACAD_REACTORS
330
19
102
}
100
AcDbDictionary
281
     1
  3
Normal
350
1D
100
AcDbDictionaryWithDefault
340
1D
  0
ACDBPLACEHOLDER
  5
1D
102
{ACAD_REACTORS
330
1F
102
}
  0
LAYOUT
  5
20
102
{ACAD_REACTORS
330
1E
102
}
100
AcDbPlotSettings
  1

  2

  4

  6

 40
0.0
 41
0.0
 42
0.0
 43
0.0
 44
0.0
 45
0.0
 46
0.0
 47
0.0
 48
0.0
 49
0.0
140
0.0
141
0.0
142
1.0
143
1.0
 70
  1024
 72
     0
 73
     0
 74
     0
  7

 75
     0
147
1.0
148
0.0
149
0.0
100
AcDbLayout
  1
Model
 70
     0
 71
     0
 10
0.0
 20
0.0
 11
0.0
 21
0.0
 12
0.0
 22
0.0
 32
0.0
 14
0.0
 24
0.0
 34
0.0
 15
0.0
 25
0.0
 35
0.0
146
0.0
 13
0.0
 23
0.0
 33
0.0
 16
0.0
 26
0.0
 36
0.0
 17
0.0
 27
0.0
 37
0.0
 76
     0
330
A
331
0
345
0
346
0
  0
LAYOUT
  5
21
102
{ACAD_REACTORS
330
1E
102
}
100
AcDbPlotSettings
  1

  2

  4

  6

 40
0.0
 41
0.0
 42
0.0
 43
0.0
 44
0.0
 45
0.0
 46
0.0
 47
0.0
 48
0.0
 49
0.0
140
0.0
141
0.0
142
1.0
143
1.0
 70
     0
 72
     0
 73
     0
 74
     0
  7

 75
     0
147
1.0
148
0.0
149
0.0
100
AcDbLayout
  1
Layout1
 70
     0
 71
     0
 10
0.0
 20
0.0
 11
0.0
 21
0.0
 12
0.0
 22
0.0
 32
0.0
 14
0.0
 24
0.0
 34
0.0
 15
0.0
 25
0.0
 35
0.0
146
0.0
 13
0.0
 23
0.0
 33
0.0
 16
0.0
 26
0.0
 36
0.0
 17
0.0
 27
0.0
 37
0.0
 76
     0
330
B
331
0
345
0
346
0
  0
DICTIONARY
  5
1E
102
{ACAD_REACTORS
330
19
102
}
100
AcDbDictionary
280
     0
281
     1
  3
Layout1
350
21
  3
Model
350
20
  0
DICTIONARY
  5
22
102
{ACAD_REACTORS
330
19
102
}
100
AcDbDictionary
280
     0
281
     1
  0
WIPEOUTVARIABLES
  5
23
100
AcDbWipeoutVariables
 70
     1
  0
ENDSEC
  0
EOF
