  0
SECTION
  2
HEADER
  9
$ACADVER
  1
AC1015
  9
$ACADMAINTVER
 70
     6
  9
$DWGCODEPAGE
  3
DOS850
  9
$INSBASE
 10
0.0
 20
0.0
 30
0.0
  9
$EXTMIN
 10
-5.3503
 20
-5.56316
 30
1.000000E+20
  9
$EXTMAX
 10
5.35627
 20
5.55695
 30
-1.000000E+20
  9
$LIMMIN
 10
0.0
 20
0.0
  9
$LIMMAX
 10
0.0
 20
0.0
  9
$ORTHOMODE
 70
     0
  9
$REGENMODE
 70
     1
  9
$FILLMODE
 70
     1
  9
$QTEXTMODE
 70
     0
  9
$MIRRTEXT
 70
     1
  9
$LTSCALE
 40
1.0
  9
$ATTMODE
 70
     1
  9
$TEXTSIZE
 40
0.2
  9
$TRACEWID
 40
0.05
  9
$TEXTSTYLE
  7
Standard
  9
$CLAYER
  8
0
  9
$CELTYPE
  6
Continuous
  9
$CECOLOR
 62
   256
  9
$CELTSCALE
 40
1.0
  9
$DISPSILH
 70
     0
  9
$DIMSCALE
 40
1.0
  9
$DIMASZ
 40
0.18
  9
$DIMEXO
 40
0.0625
  9
$DIMDLI
 40
0.38
  9
$DIMRND
 40
0.0
  9
$DIMDLE
 40
0.0
  9
$DIMEXE
 40
0.18
  9
$DIMTP
 40
0.0
  9
$DIMTM
 40
0.0
  9
$DIMTXT
 40
0.18
  9
$DIMCEN
 40
0.09
  9
$DIMTSZ
 40
0.0
  9
$DIMTOL
 70
     0
  9
$DIMLIM
 70
     0
  9
$DIMTIH
 70
     1
  9
$DIMTOH
 70
     1
  9
$DIMSE1
 70
     0
  9
$DIMSE2
 70
     0
  9
$DIMTAD
 70
     0
  9
$DIMZIN
 70
     0
  9
$DIMBLK
  1

  9
$DIMASO
 70
     1
  9
$DIMSHO
 70
     1
  9
$DIMPOST
  1

  9
$DIMAPOST
  1

  9
$DIMALT
 70
     0
  9
$DIMALTD
 70
     2
  9
$DIMALTF
 40
25.4
  9
$DIMLFAC
 40
1.0
  9
$DIMTOFL
 70
     0
  9
$DIMTVP
 40
0.0
  9
$DIMTIX
 70
     0
  9
$DIMSOXD
 70
     0
  9
$DIMSAH
 70
     0
  9
$DIMBLK1
  1

  9
$DIMBLK2
  1

  9
$DIMSTYLE
  2
Standard
  9
$DIMCLRD
 70
     0
  9
$DIMCLRE
 70
     0
  9
$DIMCLRT
 70
     0
  9
$DIMTFAC
 40
1.0
  9
$DIMGAP
 40
0.09
  9
$DIMJUST
 70
     0
  9
$DIMSD1
 70
     0
  9
$DIMSD2
 70
     0
  9
$DIMTOLJ
 70
     1
  9
$DIMTZIN
 70
     0
  9
$DIMALTZ
 70
     0
  9
$DIMALTTZ
 70
     0
  9
$DIMUPT
 70
     0
  9
$DIMDEC
 70
     4
  9
$DIMTDEC
 70
     4
  9
$DIMALTU
 70
     2
  9
$DIMALTTD
 70
     2
  9
$DIMTXSTY
  7
Standard
  9
$DIMAUNIT
 70
     0
  9
$DIMADEC
 70
     0
  9
$DIMALTRND
 40
0.0
  9
$DIMAZIN
 70
     0
  9
$DIMDSEP
 70
     0
  9
$DIMATFIT
 70
     3
  9
$DIMFRAC
 70
     0
  9
$DIMLDRBLK
  1

  9
$DIMLUNIT
 70
     2
  9
$DIMLWD
 70
     0
  9
$DIMLWE
 70
     0
  9
$DIMTMOVE
 70
     0
  9
$LUNITS
 70
     2
  9
$LUPREC
 70
     4
  9
$SKETCHINC
 40
0.1
  9
$FILLETRAD
 40
0.0
  9
$AUNITS
 70
     0
  9
$AUPREC
 70
     0
  9
$MENU
  1
acad
  9
$ELEVATION
 40
0.0
  9
$PELEVATION
 40
0.0
  9
$THICKNESS
 40
0.0
  9
$LIMCHECK
 70
     0
  9
$CHAMFERA
 40
0.0
  9
$CHAMFERB
 40
0.0
  9
$CHAMFERC
 40
0.0
  9
$CHAMFERD
 40
0.0
  9
$SKPOLY
 70
     0
  9
$TDCREATE
 40
0.000000000
  9
$TDUCREATE
 40
0.000000000
  9
$TDUPDATE
 40
0.000000000
  9
$TDUUPDATE
 40
0.000000000
  9
$TDINDWG
 40
0.0000000000
  9
$TDUSRTIMER
 40
0.0000000000
  9
$USRTIMER
 70
     1
  9
$ANGBASE
 50
0.0
  9
$ANGDIR
 70
     0
  9
$PDMODE
 70
     0
  9
$PDSIZE
 40
0.0
  9
$PLINEWID
 40
0.0
  9
$SPLFRAME
 70
     0
  9
$SPLINETYPE
 70
     6
  9
$SPLINESEGS
 70
     8
  9
$HANDSEED
  5
43
  9
$SURFTAB1
 70
     6
  9
$SURFTAB2
 70
     6
  9
$SURFTYPE
 70
     6
  9
$SURFU
 70
     6
  9
$SURFV
 70
     6
  9
$UCSBASE
  2

  9
$UCSNAME
  2

  9
$UCSORG
 10
0.0
 20
0.0
 30
0.0
  9
$UCSXDIR
 10
1.0
 20
0.0
 30
0.0
  9
$UCSYDIR
 10
0.0
 20
1.0
 30
0.0
  9
$UCSORTHOREF
  2

  9
$UCSORTHOVIEW
 70
     0
  9
$UCSORGTOP
 10
0.0
 20
0.0
 30
0.0
  9
$UCSORGBOTTOM
 10
0.0
 20
0.0
 30
0.0
  9
$UCSORGLEFT
 10
0.0
 20
0.0
 30
0.0
  9
$UCSORGRIGHT
 10
0.0
 20
0.0
 30
0.0
  9
$UCSORGFRONT
 10
0.0
 20
0.0
 30
0.0
  9
$UCSORGBACK
 10
0.0
 20
0.0
 30
0.0
  9
$PUCSBASE
  2

  9
$PUCSNAME
  2

  9
$PUCSORG
 10
0.0
 20
0.0
 30
0.0
  9
$PUCSXDIR
 10
1.0
 20
0.0
 30
0.0
  9
$PUCSYDIR
 10
0.0
 20
1.0
 30
0.0
  9
$PUCSORTHOREF
  2

  9
$PUCSORTHOVIEW
 70
     0
  9
$PUCSORGTOP
 10
0.0
 20
0.0
 30
0.0
  9
$PUCSORGBOTTOM
 10
0.0
 20
0.0
 30
0.0
  9
$PUCSORGLEFT
 10
0.0
 20
0.0
 30
0.0
  9
$PUCSORGRIGHT
 10
0.0
 20
0.0
 30
0.0
  9
$PUCSORGFRONT
 10
0.0
 20
0.0
 30
0.0
  9
$PUCSORGBACK
 10
0.0
 20
0.0
 30
0.0
  9
$USERI1
 70
     0
  9
$USERI2
 70
     0
  9
$USERI3
 70
     0
  9
$USERI4
 70
     0
  9
$USERI5
 70
     0
  9
$USERR1
 40
0.0
  9
$USERR2
 40
0.0
  9
$USERR3
 40
0.0
  9
$USERR4
 40
0.0
  9
$USERR5
 40
0.0
  9
$WORLDVIEW
 70
     1
  9
$SHADEDGE
 70
     3
  9
$SHADEDIF
 70
    70
  9
$TILEMODE
 70
     1
  9
$MAXACTVP
 70
    16
  9
$PINSBASE
 10
0.0
 20
0.0
 30
0.0
  9
$PLIMCHECK
 70
     0
  9
$PEXTMIN
 10
1.000000E+20
 20
1.000000E+20
 30
1.000000E+20
  9
$PEXTMAX
 10
-1.000000E+20
 20
-1.000000E+20
 30
-1.000000E+20
  9
$PLIMMIN
 10
0.0
 20
0.0
  9
$PLIMMAX
 10
12.0
 20
9.0
  9
$UNITMODE
 70
     0
  9
$VISRETAIN
 70
     0
  9
$PLINEGEN
 70
     1
  9
$PSLTSCALE
 70
     0
  9
$TREEDEPTH
 70
  3020
  9
$CMLSTYLE
  2
Standard
  9
$CMLJUST
 70
     0
  9
$CMLSCALE
 40
1.0
  9
$PROXYGRAPHICS
 70
     0
  9
$MEASUREMENT
 70
     0
  9
$CELWEIGHT
370
     0
  9
$ENDCAPS
280
     0
  9
$JOINSTYLE
280
     0
  9
$LWDISPLAY
290
     0
  9
$INSUNITS
 70
     5
  9
$HYPERLINKBASE
  1

  9
$XEDIT
290
     1
  9
$CEPSNTYPE
380
     0
  9
$PSTYLEMODE
290
     1
  9
$FINGERPRINTGUID
  2

  9
$VERSIONGUID
  2

  9
$EXTNAMES
290
     1
  9
$PSVPSCALE
 40
0.0
  0
ENDSEC
  0
SECTION
  2
CLASSES
  0
CLASS
  1
LWPOLYLINE
  2
AcDbPolyline
  3
AutoCAD 2000
 90
    32768
280
     0
281
     1
  0
CLASS
  1
IMAGE
  2
AcDbRasterImage
  3
ISM
 90
    32895
280
     0
281
     1
  0
CLASS
  1
OLE2FRAME
  2
AcDbOle2Frame
  3
AutoCAD 2000
 90
    32768
280
     0
281
     1
  0
CLASS
  1
HATCH
  2
AcDbHatch
  3
AutoCAD 2000
 90
    32768
280
     0
281
     1
  0
CLASS
  1
DICTIONARYVAR
  2
AcDbDictionaryVar
  3
AutoCAD 2000
 90
    32768
280
     0
281
     0
  0
CLASS
  1
RASTERVARIABLES
  2
AcDbRasterVariables
  3
ISM
 90
    32768
280
     0
281
     0
  0
CLASS
  1
IMAGEDEF
  2
AcDbRasterImageDef
  3
ISM
 90
    32768
280
     0
281
     0
  0
CLASS
  1
IMAGEDEF_REACTOR
  2
AcDbRasterImageDefReactor
  3
ISM
 90
    32769
280
     0
281
     0
  0
CLASS
  1
IDBUFFER
  2
AcDbIdBuffer
  3
AutoCAD 2000
 90
    32768
280
     0
281
     0
  0
CLASS
  1
SPATIAL_FILTER
  2
AcDbSpatialFilter
  3
AutoCAD 2000
 90
    32768
280
     0
281
     0
  0
CLASS
  1
XRECORD
  2
AcDbXrecord
  3
AutoCAD 2000
 90
    32768
280
     0
281
     0
  0
CLASS
  1
SORTENTSTABLE
  2
AcDbSortentsTable
  3
AutoCAD 2000
 90
    32768
280
     0
281
     0
  0
CLASS
  1
LAYER_INDEX
  2
AcDbLayerIndex
  3
AutoCAD 2000
 90
    32768
280
     0
281
     0
  0
CLASS
  1
SPATIAL_INDEX
  2
AcDbSpatialIndex
  3
AutoCAD 2000
 90
    32768
280
     0
281
     0
  0
CLASS
  1
OBJECT_PTR
  2
CAseDLPNTableRecord
  3
"ASE-LPNTableRecord"
 90
    32769
280
     0
281
     0
  0
CLASS
  1
LAYOUT
  2
AcDbLayout
  3
AutoCAD 2000
 90
        0
280
     0
281
     0
  0
CLASS
  1
PLOTSETTINGS
  2
AcDbPlotSettings
  3
AutoCAD 2000
 90
    32768
280
     0
281
     0
  0
CLASS
  1
ACDBDICTIONARYWDFLT
  2
AcDbDictionaryWithDefault
  3
AutoCAD 2000
 90
        0
280
     0
281
     0
  0
CLASS
  1
ACDBPLACEHOLDER
  2
AcDbPlaceHolder
  3
AutoCAD 2000
 90
        0
280
     0
281
     0
  0
CLASS
  1
VBA_PROJECT
  2
AcDbVbaProject
  3
acadvba
 90
    32768
280
     0
281
     0
  0
CLASS
  1
WIPEOUT
  2
AcDbWipeout
  3
WipeOut|AutoCAD Express Tool|expresstools@autodesk.com
 90
    32895
280
     0
281
     1
  0
CLASS
  1
WIPEOUTVARIABLES
  2
AcDbWipeoutVariables
  3
WipeOut|AutoCAD Express Tool|expresstools@autodesk.com
 90
        0
280
     0
281
     0
  0
CLASS
  1
RTEXT
  2
RText
  3
RText|AutoCAD Express Tool|expresstools@autodesk.com
 90
    32768
280
     0
281
     1
  0
CLASS
  1
ARCALIGNEDTEXT
  2
AcDbArcAlignedText
  3
ATEXT|AutoCAD Express Tool|expresstools@autodesk.com
 90
    32768
280
     0
281
     1
  0
ENDSEC
  0
SECTION
  2
TABLES
  0
TABLE
  2
VPORT
  5
7
100
AcDbSymbolTable
 70
     1
  0
VPORT
  5
15
100
AcDbSymbolTableRecord
100
AcDbViewportTableRecord
  2
*ACTIVE
 70
     0
 10
0.0
 20
0.0
 11
1.0
 21
1.0
 12
6.591288
 22
4.579184
 13
0.0
 23
0.0
 14
1.0
 24
1.0
 15
0.0
 25
0.0
 16
0.0
 26
0.0
 36
1.0
 17
0.0
 27
0.0
 37
0.0
 40
9.158369
 41
0.688564
 42
50.0
 43
0.0
 44
0.0
 50
0.0
 51
0.0
 71
     0
 72
   100
 73
     1
 74
     1
 75
     0
 76
     0
 77
     0
 78
     0
281
     0
 65
     0
110
0.0
120
0.0
130
0.0
111
1.0
121
0.0
131
0.0
112
0.0
122
1.0
132
0.0
345
0
346
0
 79
     0
146
0.0
  0
ENDTAB
  0
TABLE
  2
LTYPE
  5
4
100
AcDbSymbolTable
 70
     3
  0
LTYPE
  5
11
100
AcDbSymbolTableRecord
100
AcDbLinetypeTableRecord
  2
ByBlock
 70
    64
  3

 72
    65
 73
     0
 40
0.0
  0
LTYPE
  5
12
100
AcDbSymbolTableRecord
100
AcDbLinetypeTableRecord
  2
ByLayer
 70
    64
  3

 72
    65
 73
     0
 40
0.0
  0
LTYPE
  5
13
100
AcDbSymbolTableRecord
100
AcDbLinetypeTableRecord
  2
Continuous
 70
    64
  3
Solid line
 72
    65
 73
     0
 40
0.0
  0
ENDTAB
  0
TABLE
  2
LAYER
  5
2
100
AcDbSymbolTable
 70
     2
  0
LAYER
  5
14
100
AcDbSymbolTableRecord
100
AcDbLayerTableRecord
  2
0
 70
     0
 62
     7
  6
Continuous
290
     1
370
    -3
390
1D
  0
LAYER
  5
24
100
AcDbSymbolTableRecord
100
AcDbLayerTableRecord
  2
Ebene 1
 70
     0
 62
     7
  6
Continuous
290
     1
370
    -3
390
1F
  0
ENDTAB
  0
TABLE
  2
STYLE
  5
3
100
AcDbSymbolTable
 70
     1
  0
STYLE
  5
17
100
AcDbSymbolTableRecord
100
AcDbTextStyleTableRecord
  2
Standard
 70
     0
 40
0.0
 41
1.0
 50
0.0
 71
     0
 42
0.0
  3
txt
  4

  0
ENDTAB
  0
TABLE
  2
VIEW
  5
5
100
AcDbSymbolTable
 70
     0
  0
ENDTAB
  0
TABLE
  2
UCS
  5
6
100
AcDbSymbolTable
 70
     0
  0
ENDTAB
  0
TABLE
  2
APPID
  5
8
100
AcDbSymbolTable
 70
     1
  0
APPID
  5
16
100
AcDbSymbolTableRecord
100
AcDbRegAppTableRecord
  2
ACAD
 70
     0
  0
ENDTAB
  0
TABLE
  2
DIMSTYLE
  5
9
100
AcDbSymbolTable
 70
     1
100
AcDbDimStyleTable
 71
     0
  0
DIMSTYLE
105
18
100
AcDbSymbolTableRecord
100
AcDbDimStyleTableRecord
  2
Standard
 70
     0
  3

  4

 40
1.0
 41
0.18
 42
0.0625
 43
0.38
 44
0.18
 45
0.0
 46
0.0
 47
0.0
 48
0.0
 71
     0
 72
     0
 73
     1
 74
     1
 75
     0
 76
     0
 77
     0
 78
     0
 79
     0
140
0.18
141
0.09
142
0.0
143
25.4
144
1.0
145
0.0
146
1.0
147
0.09
148
0.0
170
     0
171
     2
172
     0
173
     0
174
     0
175
     0
176
     0
177
     0
178
     0
179
     0
271
     4
272
     4
273
     2
274
     2
275
     0
276
     0
277
     2
278
    46
279
     0
280
     0
281
     0
282
     0
283
     1
284
     0
285
     0
286
     0
288
     0
340
17
341
0
342
0
343
0
344
0
371
    -2
372
    -2
  0
ENDTAB
  0
TABLE
  2
BLOCK_RECORD
  5
1
100
AcDbSymbolTable
 70
     0
  0
BLOCK_RECORD
  5
A
100
AcDbSymbolTableRecord
100
AcDbBlockTableRecord
  2
*MODEL_SPACE
340
20
  0
BLOCK_RECORD
  5
B
100
AcDbSymbolTableRecord
100
AcDbBlockTableRecord
  2
*PAPER_SPACE
340
21
  0
ENDTAB
  0
ENDSEC
  0
SECTION
  2
BLOCKS
  0
BLOCK
  5
D
100
AcDbEntity
  8
0
100
AcDbBlockBegin
  2
*MODEL_SPACE
 70
     0
 10
0.0
 20
0.0
 30
0.0
  3
*MODEL_SPACE
  1

  0
ENDBLK
  5
E
100
AcDbEntity
  8
0
100
AcDbBlockEnd
  0
BLOCK
  5
F
100
AcDbEntity
 67
     1
  8
0
100
AcDbBlockBegin
  2
*PAPER_SPACE
 70
     0
 10
0.0
 20
0.0
 30
0.0
  3
*PAPER_SPACE
  1

  0
ENDBLK
  5
10
100
AcDbEntity
 67
     1
  8
0
100
AcDbBlockEnd
  0
ENDSEC
  0
SECTION
  2
ENTITIES
  0
SPLINE
  5
25
100
AcDbEntity
  8
Ebene 1
100
AcDbSpline
210
0.0
220
0.0
230
1.0
 70
     1
 71
     3
 72
   148
 73
   144
 74
     0
 42
0.0000000001
 43
0.0000000001
 40
0.0
 40
0.0
 40
0.0
 40
0.0
 40
0.0277777777777778
 40
0.0277777777777778
 40
0.0277777777777778
 40
0.0277777777777778
 40
0.0555555555555556
 40
0.0555555555555556
 40
0.0555555555555556
 40
0.0555555555555556
 40
0.0833333333333333
 40
0.0833333333333333
 40
0.0833333333333333
 40
0.0833333333333333
 40
0.1111111111111111
 40
0.1111111111111111
 40
0.1111111111111111
 40
0.1111111111111111
 40
0.1388888888888889
 40
0.1388888888888889
 40
0.1388888888888889
 40
0.1388888888888889
 40
0.1666666666666667
 40
0.1666666666666667
 40
0.1666666666666667
 40
0.1666666666666667
 40
0.1944444444444445
 40
0.1944444444444445
 40
0.1944444444444445
 40
0.1944444444444445
 40
0.2222222222222223
 40
0.2222222222222223
 40
0.2222222222222223
 40
0.2222222222222223
 40
0.2500000000000001
 40
0.2500000000000001
 40
0.2500000000000001
 40
0.2500000000000001
 40
0.2777777777777779
 40
0.2777777777777779
 40
0.2777777777777779
 40
0.2777777777777779
 40
0.3055555555555556
 40
0.3055555555555556
 40
0.3055555555555556
 40
0.3055555555555556
 40
0.3333333333333334
 40
0.3333333333333334
 40
0.3333333333333334
 40
0.3333333333333334
 40
0.3611111111111112
 40
0.3611111111111112
 40
0.3611111111111112
 40
0.3611111111111112
 40
0.388888888888889
 40
0.388888888888889
 40
0.388888888888889
 40
0.388888888888889
 40
0.4166666666666668
 40
0.4166666666666668
 40
0.4166666666666668
 40
0.4166666666666668
 40
0.4444444444444446
 40
0.4444444444444446
 40
0.4444444444444446
 40
0.4444444444444446
 40
0.4722222222222224
 40
0.4722222222222224
 40
0.4722222222222224
 40
0.4722222222222224
 40
0.5000000000000001
 40
0.5000000000000001
 40
0.5000000000000001
 40
0.5000000000000001
 40
0.5277777777777779
 40
0.5277777777777779
 40
0.5277777777777779
 40
0.5277777777777779
 40
0.5555555555555557
 40
0.5555555555555557
 40
0.5555555555555557
 40
0.5555555555555557
 40
0.5833333333333335
 40
0.5833333333333335
 40
0.5833333333333335
 40
0.5833333333333335
 40
0.6111111111111113
 40
0.6111111111111113
 40
0.6111111111111113
 40
0.6111111111111113
 40
0.6388888888888891
 40
0.6388888888888891
 40
0.6388888888888891
 40
0.6388888888888891
 40
0.6666666666666669
 40
0.6666666666666669
 40
0.6666666666666669
 40
0.6666666666666669
 40
0.6944444444444446
 40
0.6944444444444446
 40
0.6944444444444446
 40
0.6944444444444446
 40
0.7222222222222224
 40
0.7222222222222224
 40
0.7222222222222224
 40
0.7222222222222224
 40
0.7500000000000002
 40
0.7500000000000002
 40
0.7500000000000002
 40
0.7500000000000002
 40
0.777777777777778
 40
0.777777777777778
 40
0.777777777777778
 40
0.777777777777778
 40
0.8055555555555558
 40
0.8055555555555558
 40
0.8055555555555558
 40
0.8055555555555558
 40
0.8333333333333336
 40
0.8333333333333336
 40
0.8333333333333336
 40
0.8333333333333336
 40
0.8611111111111114
 40
0.8611111111111114
 40
0.8611111111111114
 40
0.8611111111111114
 40
0.8888888888888892
 40
0.8888888888888892
 40
0.8888888888888892
 40
0.8888888888888892
 40
0.916666666666667
 40
0.916666666666667
 40
0.916666666666667
 40
0.916666666666667
 40
0.9444444444444448
 40
0.9444444444444448
 40
0.9444444444444448
 40
0.9444444444444448
 40
0.9722222222222225
 40
0.9722222222222225
 40
0.9722222222222225
 40
0.9722222222222225
 40
1.0
 40
1.0
 40
1.0
 40
1.0
 10
3.1599000000000004
 20
5.5569500000000005
 30
0.0
 10
4.0616000000000003
 20
5.2902500000000003
 30
0.0
 10
4.9302800000000007
 20
4.6552500000000006
 30
0.0
 10
5.1944400000000002
 20
3.7052900000000002
 30
0.0
 10
5.1944400000000002
 20
3.7052900000000002
 30
0.0
 10
5.6211600000000006
 20
2.7375500000000001
 30
0.0
 10
5.1309400000000007
 20
1.7723500000000001
 30
0.0
 10
4.5950000000000006
 20
0.9874900000000001
 30
0.0
 10
4.5950000000000006
 20
0.9874900000000001
 30
0.0
 10
4.4451400000000003
 20
0.38805
 30
0.0
 10
5.0344200000000008
 20
-0.01072
 30
0.0
 10
4.4273600000000002
 20
-0.5619000000000001
 30
0.0
 10
4.4273600000000002
 20
-0.5619000000000001
 30
0.0
 10
4.4908600000000005
 20
-0.8946400000000001
 30
0.0
 10
4.5289600000000005
 20
-1.37724
 30
0.0
 10
4.0946199999999999
 20
-1.37724
 30
0.0
 10
4.0946199999999999
 20
-1.37724
 30
0.0
 10
4.3308400000000002
 20
-2.0782800000000003
 30
0.0
 10
4.1149400000000007
 20
-2.6624800000000004
 30
0.0
 10
3.9625400000000002
 20
-3.2289000000000003
 30
0.0
 10
3.9625400000000002
 20
-3.2289000000000003
 30
0.0
 10
3.8253800000000004
 20
-3.1958800000000003
 30
0.0
 10
3.8838000000000004
 20
-2.9622000000000002
 30
0.0
 10
3.7999800000000001
 20
-2.9114000000000004
 30
0.0
 10
3.7999800000000001
 20
-2.9114000000000004
 30
0.0
 10
3.5434400000000004
 20
-3.5794200000000003
 30
0.0
 10
3.9142800000000002
 20
-4.22966
 30
0.0
 10
3.7415600000000002
 20
-4.9307000000000007
 30
0.0
 10
3.7415600000000002
 20
-4.9307000000000007
 30
0.0
 10
3.6120200000000002
 20
-5.0627800000000001
 30
0.0
 10
3.6323400000000001
 20
-4.6970200000000002
 30
0.0
 10
3.5155000000000003
 20
-4.6462200000000005
 30
0.0
 10
3.5155000000000003
 20
-4.6462200000000005
 30
0.0
 10
3.4951800000000004
 20
-4.8291000000000004
 30
0.0
 10
3.2716600000000002
 20
-5.2786800000000005
 30
0.0
 10
3.2335600000000002
 20
-4.8976800000000003
 30
0.0
 10
3.2335600000000002
 20
-4.8976800000000003
 30
0.0
 10
3.1980000000000004
 20
-5.0627800000000001
 30
0.0
 10
3.2157800000000001
 20
-5.2634400000000001
 30
0.0
 10
3.1268800000000003
 20
-5.3980600000000001
 30
0.0
 10
3.1268800000000003
 20
-5.3980600000000001
 30
0.0
 10
2.97194
 20
-5.3802800000000008
 30
0.0
 10
2.9668600000000001
 20
-5.1288200000000002
 30
0.0
 10
2.9160600000000003
 20
-5.0119800000000003
 30
0.0
 10
2.9160600000000003
 20
-5.0119800000000003
 30
0.0
 10
2.9160600000000003
 20
-5.0119800000000003
 30
0.0
 10
2.8906600000000005
 20
-5.5631600000000008
 30
0.0
 10
2.8906600000000005
 20
-5.5631600000000008
 30
0.0
 10
2.8906600000000005
 20
-5.5631600000000008
 30
0.0
 10
2.6341200000000002
 20
-5.3802800000000008
 30
0.0
 10
2.5680800000000001
 20
-4.9129200000000006
 30
0.0
 10
2.3928200000000004
 20
-5.3980600000000001
 30
0.0
 10
2.3928200000000004
 20
-5.3980600000000001
 30
0.0
 10
2.3115400000000004
 20
-5.2786800000000005
 30
0.0
 10
2.2251800000000004
 20
-5.1466000000000003
 30
0.0
 10
2.2226400000000002
 20
-4.9789600000000007
 30
0.0
 10
2.2226400000000002
 20
-4.9789600000000007
 30
0.0
 10
2.1058000000000003
 20
-5.4641000000000002
 30
0.0
 10
1.9254600000000002
 20
-4.7808400000000004
 30
0.0
 10
1.8441800000000002
 20
-4.5954200000000007
 30
0.0
 10
1.8441800000000002
 20
-4.5954200000000007
 30
0.0
 10
1.8619600000000001
 20
-4.8799000000000001
 30
0.0
 10
1.65368
 20
-4.8291000000000004
 30
0.0
 10
1.5597000000000001
 20
-4.6132
 30
0.0
 10
1.5597000000000001
 20
-4.6132
 30
0.0
 10
1.4784200000000001
 20
-4.3947600000000007
 30
0.0
 10
1.4631800000000001
 20
-4.7122600000000006
 30
0.0
 10
1.4758800000000001
 20
-4.7960800000000008
 30
0.0
 10
1.4758800000000001
 20
-4.7960800000000008
 30
0.0
 10
1.4758800000000001
 20
-4.7960800000000008
 30
0.0
 10
1.5216000000000001
 20
-5.1974
 30
0.0
 10
1.5216000000000001
 20
-5.1974
 30
0.0
 10
1.5216000000000001
 20
-5.1974
 30
0.0
 10
0.8662800000000001
 20
-4.6970200000000002
 30
0.0
 10
1.2066400000000002
 20
-3.6632400000000005
 30
0.0
 10
0.6884800000000001
 20
-3.0460200000000004
 30
0.0
 10
0.6884800000000001
 20
-3.0460200000000004
 30
0.0
 10
0.3989200000000001
 20
-3.1298400000000002
 30
0.0
 10
0.18048
 20
-3.5616400000000001
 30
0.0
 10
0.12206
 20
-2.8606000000000003
 30
0.0
 10
0.12206
 20
-2.8606000000000003
 30
0.0
 10
0.00776
 20
-2.9266400000000004
 30
0.0
 10
0.00268
 20
-3.0638000000000001
 30
0.0
 10
-0.06335
 20
-3.3457400000000002
 30
0.0
 10
-0.06335
 20
-3.3457400000000002
 30
0.0
 10
-0.08621
 20
-3.4397200000000003
 30
0.0
 10
-0.25385
 20
-3.1781000000000001
 30
0.0
 10
-0.27163
 20
-2.9114000000000004
 30
0.0
 10
-0.27163
 20
-2.9114000000000004
 30
0.0
 10
-0.3859300000000001
 20
-3.0282400000000003
 30
0.0
 10
-0.32751
 20
-3.2949400000000004
 30
0.0
 10
-0.45197
 20
-3.3457400000000002
 30
0.0
 10
-0.45197
 20
-3.3457400000000002
 30
0.0
 10
-0.5840500000000001
 20
-3.1781000000000001
 30
0.0
 10
-0.6196100000000001
 20
-2.94442
 30
0.0
 10
-0.6094500000000001
 20
-2.7437600000000004
 30
0.0
 10
-0.6094500000000001
 20
-2.7437600000000004
 30
0.0
 10
-0.94981
 20
-3.0104600000000001
 30
0.0
 10
-0.9853700000000001
 20
-2.2129000000000003
 30
0.0
 10
-0.9447300000000001
 20
-1.9284200000000002
 30
0.0
 10
-0.9447300000000001
 20
-1.9284200000000002
 30
0.0
 10
-1.3689100000000001
 20
-1.6769600000000002
 30
0.0
 10
-1.9124700000000001
 20
-1.7785600000000001
 30
0.0
 10
-2.3010900000000003
 20
-1.46106
 30
0.0
 10
-2.3010900000000003
 20
-1.46106
 30
0.0
 10
-2.3544300000000002
 20
-1.37724
 30
0.0
 10
-2.39507
 20
-1.29342
 30
0.0
 10
-2.4230100000000001
 20
-1.2096
 30
0.0
 10
-2.4230100000000001
 20
-1.2096
 30
0.0
 10
-2.1715500000000003
 20
0.8376300000000001
 30
0.0
 10
-5.7758100000000008
 20
0.9722500000000001
 30
0.0
 10
-5.3084500000000006
 20
3.3395300000000003
 30
0.0
 10
-5.3084500000000006
 20
3.3395300000000003
 30
0.0
 10
-4.9706300000000008
 20
4.6069900000000006
 30
0.0
 10
-3.5279100000000003
 20
5.5086900000000005
 30
0.0
 10
-2.2604500000000001
 20
5.5239300000000009
 30
0.0
 10
-2.2604500000000001
 20
5.5239300000000009
 30
0.0
 10
-3.6168100000000001
 20
5.1556300000000004
 30
0.0
 10
-4.8512500000000003
 20
2.8899500000000002
 30
0.0
 10
-3.0402300000000002
 20
2.1711300000000002
 30
0.0
 10
-3.0402300000000002
 20
2.1711300000000002
 30
0.0
 10
-2.7684500000000001
 20
2.1050900000000001
 30
0.0
 10
-2.4839700000000002
 20
2.0720700000000001
 30
0.0
 10
-2.22743
 20
2.20669
 30
0.0
 10
-2.22743
 20
2.20669
 30
0.0
 10
-1.6203700000000001
 20
2.5216500000000002
 30
0.0
 10
-1.16571
 20
3.2226900000000001
 30
0.0
 10
-0.4392700000000001
 20
3.2887300000000002
 30
0.0
 10
-0.4392700000000001
 20
3.2887300000000002
 30
0.0
 10
0.45734
 20
3.05505
 30
0.0
 10
1.4174600000000002
 20
2.8721700000000001
 30
0.0
 10
2.3420200000000002
 20
3.1541100000000002
 30
0.0
 10
2.3420200000000002
 20
3.1541100000000002
 30
0.0
 10
2.4995000000000003
 20
3.1896700000000004
 30
0.0
 10
2.6925400000000002
 20
3.1236300000000004
 30
0.0
 10
2.8576400000000004
 20
3.0880700000000001
 30
0.0
 10
2.8576400000000004
 20
3.0880700000000001
 30
0.0
 10
2.8576400000000004
 20
3.0880700000000001
 30
0.0
 10
3.5612200000000005
 20
2.5546700000000002
 30
0.0
 10
3.5612200000000005
 20
2.5546700000000002
 30
0.0
 10
3.5612200000000005
 20
2.5546700000000002
 30
0.0
 10
5.0826800000000008
 20
3.1236300000000004
 30
0.0
 10
3.6653600000000002
 20
4.9727500000000004
 30
0.0
 10
3.1599000000000004
 20
5.5569500000000005
 30
0.0
  0
SPLINE
  5
26
100
AcDbEntity
  8
Ebene 1
 62
     7
100
AcDbSpline
210
0.0
220
0.0
230
1.0
 70
     1
 71
     3
 72
   356
 73
   352
 74
     0
 42
0.0000000001
 43
0.0000000001
 40
0.0
 40
0.0
 40
0.0
 40
0.0
 40
0.0113636363636364
 40
0.0113636363636364
 40
0.0113636363636364
 40
0.0113636363636364
 40
0.0227272727272727
 40
0.0227272727272727
 40
0.0227272727272727
 40
0.0227272727272727
 40
0.0340909090909091
 40
0.0340909090909091
 40
0.0340909090909091
 40
0.0340909090909091
 40
0.0454545454545455
 40
0.0454545454545455
 40
0.0454545454545455
 40
0.0454545454545455
 40
0.0568181818181818
 40
0.0568181818181818
 40
0.0568181818181818
 40
0.0568181818181818
 40
0.0681818181818182
 40
0.0681818181818182
 40
0.0681818181818182
 40
0.0681818181818182
 40
0.0795454545454546
 40
0.0795454545454546
 40
0.0795454545454546
 40
0.0795454545454546
 40
0.0909090909090909
 40
0.0909090909090909
 40
0.0909090909090909
 40
0.0909090909090909
 40
0.1022727272727273
 40
0.1022727272727273
 40
0.1022727272727273
 40
0.1022727272727273
 40
0.1136363636363637
 40
0.1136363636363637
 40
0.1136363636363637
 40
0.1136363636363637
 40
0.125
 40
0.125
 40
0.125
 40
0.125
 40
0.1363636363636364
 40
0.1363636363636364
 40
0.1363636363636364
 40
0.1363636363636364
 40
0.1477272727272727
 40
0.1477272727272727
 40
0.1477272727272727
 40
0.1477272727272727
 40
0.1590909090909091
 40
0.1590909090909091
 40
0.1590909090909091
 40
0.1590909090909091
 40
0.1704545454545454
 40
0.1704545454545454
 40
0.1704545454545454
 40
0.1704545454545454
 40
0.1818181818181818
 40
0.1818181818181818
 40
0.1818181818181818
 40
0.1818181818181818
 40
0.1931818181818182
 40
0.1931818181818182
 40
0.1931818181818182
 40
0.1931818181818182
 40
0.2045454545454545
 40
0.2045454545454545
 40
0.2045454545454545
 40
0.2045454545454545
 40
0.2159090909090909
 40
0.2159090909090909
 40
0.2159090909090909
 40
0.2159090909090909
 40
0.2272727272727272
 40
0.2272727272727272
 40
0.2272727272727272
 40
0.2272727272727272
 40
0.2386363636363636
 40
0.2386363636363636
 40
0.2386363636363636
 40
0.2386363636363636
 40
0.2499999999999999
 40
0.2499999999999999
 40
0.2499999999999999
 40
0.2499999999999999
 40
0.2613636363636363
 40
0.2613636363636363
 40
0.2613636363636363
 40
0.2613636363636363
 40
0.2727272727272727
 40
0.2727272727272727
 40
0.2727272727272727
 40
0.2727272727272727
 40
0.284090909090909
 40
0.284090909090909
 40
0.284090909090909
 40
0.284090909090909
 40
0.2954545454545454
 40
0.2954545454545454
 40
0.2954545454545454
 40
0.2954545454545454
 40
0.3068181818181817
 40
0.3068181818181817
 40
0.3068181818181817
 40
0.3068181818181817
 40
0.3181818181818181
 40
0.3181818181818181
 40
0.3181818181818181
 40
0.3181818181818181
 40
0.3295454545454544
 40
0.3295454545454544
 40
0.3295454545454544
 40
0.3295454545454544
 40
0.3409090909090908
 40
0.3409090909090908
 40
0.3409090909090908
 40
0.3409090909090908
 40
0.3522727272727271
 40
0.3522727272727271
 40
0.3522727272727271
 40
0.3522727272727271
 40
0.3636363636363635
 40
0.3636363636363635
 40
0.3636363636363635
 40
0.3636363636363635
 40
0.3749999999999998
 40
0.3749999999999998
 40
0.3749999999999998
 40
0.3749999999999998
 40
0.3863636363636362
 40
0.3863636363636362
 40
0.3863636363636362
 40
0.3863636363636362
 40
0.3977272727272725
 40
0.3977272727272725
 40
0.3977272727272725
 40
0.3977272727272725
 40
0.4090909090909089
 40
0.4090909090909089
 40
0.4090909090909089
 40
0.4090909090909089
 40
0.4204545454545453
 40
0.4204545454545453
 40
0.4204545454545453
 40
0.4204545454545453
 40
0.4318181818181816
 40
0.4318181818181816
 40
0.4318181818181816
 40
0.4318181818181816
 40
0.443181818181818
 40
0.443181818181818
 40
0.443181818181818
 40
0.443181818181818
 40
0.4545454545454543
 40
0.4545454545454543
 40
0.4545454545454543
 40
0.4545454545454543
 40
0.4659090909090907
 40
0.4659090909090907
 40
0.4659090909090907
 40
0.4659090909090907
 40
0.477272727272727
 40
0.477272727272727
 40
0.477272727272727
 40
0.477272727272727
 40
0.4886363636363634
 40
0.4886363636363634
 40
0.4886363636363634
 40
0.4886363636363634
 40
0.4999999999999997
 40
0.4999999999999997
 40
0.4999999999999997
 40
0.4999999999999997
 40
0.5113636363636361
 40
0.5113636363636361
 40
0.5113636363636361
 40
0.5113636363636361
 40
0.5227272727272725
 40
0.5227272727272725
 40
0.5227272727272725
 40
0.5227272727272725
 40
0.5340909090909088
 40
0.5340909090909088
 40
0.5340909090909088
 40
0.5340909090909088
 40
0.5454545454545452
 40
0.5454545454545452
 40
0.5454545454545452
 40
0.5454545454545452
 40
0.5568181818181816
 40
0.5568181818181816
 40
0.5568181818181816
 40
0.5568181818181816
 40
0.5681818181818179
 40
0.5681818181818179
 40
0.5681818181818179
 40
0.5681818181818179
 40
0.5795454545454543
 40
0.5795454545454543
 40
0.5795454545454543
 40
0.5795454545454543
 40
0.5909090909090906
 40
0.5909090909090906
 40
0.5909090909090906
 40
0.5909090909090906
 40
0.602272727272727
 40
0.602272727272727
 40
0.602272727272727
 40
0.602272727272727
 40
0.6136363636363633
 40
0.6136363636363633
 40
0.6136363636363633
 40
0.6136363636363633
 40
0.6249999999999997
 40
0.6249999999999997
 40
0.6249999999999997
 40
0.6249999999999997
 40
0.636363636363636
 40
0.636363636363636
 40
0.636363636363636
 40
0.636363636363636
 40
0.6477272727272724
 40
0.6477272727272724
 40
0.6477272727272724
 40
0.6477272727272724
 40
0.6590909090909087
 40
0.6590909090909087
 40
0.6590909090909087
 40
0.6590909090909087
 40
0.6704545454545451
 40
0.6704545454545451
 40
0.6704545454545451
 40
0.6704545454545451
 40
0.6818181818181814
 40
0.6818181818181814
 40
0.6818181818181814
 40
0.6818181818181814
 40
0.6931818181818178
 40
0.6931818181818178
 40
0.6931818181818178
 40
0.6931818181818178
 40
0.7045454545454541
 40
0.7045454545454541
 40
0.7045454545454541
 40
0.7045454545454541
 40
0.7159090909090905
 40
0.7159090909090905
 40
0.7159090909090905
 40
0.7159090909090905
 40
0.7272727272727269
 40
0.7272727272727269
 40
0.7272727272727269
 40
0.7272727272727269
 40
0.7386363636363632
 40
0.7386363636363632
 40
0.7386363636363632
 40
0.7386363636363632
 40
0.7499999999999996
 40
0.7499999999999996
 40
0.7499999999999996
 40
0.7499999999999996
 40
0.7613636363636359
 40
0.7613636363636359
 40
0.7613636363636359
 40
0.7613636363636359
 40
0.7727272727272723
 40
0.7727272727272723
 40
0.7727272727272723
 40
0.7727272727272723
 40
0.7840909090909086
 40
0.7840909090909086
 40
0.7840909090909086
 40
0.7840909090909086
 40
0.795454545454545
 40
0.795454545454545
 40
0.795454545454545
 40
0.795454545454545
 40
0.8068181818181813
 40
0.8068181818181813
 40
0.8068181818181813
 40
0.8068181818181813
 40
0.8181818181818177
 40
0.8181818181818177
 40
0.8181818181818177
 40
0.8181818181818177
 40
0.829545454545454
 40
0.829545454545454
 40
0.829545454545454
 40
0.829545454545454
 40
0.8409090909090904
 40
0.8409090909090904
 40
0.8409090909090904
 40
0.8409090909090904
 40
0.8522727272727267
 40
0.8522727272727267
 40
0.8522727272727267
 40
0.8522727272727267
 40
0.8636363636363631
 40
0.8636363636363631
 40
0.8636363636363631
 40
0.8636363636363631
 40
0.8749999999999994
 40
0.8749999999999994
 40
0.8749999999999994
 40
0.8749999999999994
 40
0.8863636363636358
 40
0.8863636363636358
 40
0.8863636363636358
 40
0.8863636363636358
 40
0.8977272727272722
 40
0.8977272727272722
 40
0.8977272727272722
 40
0.8977272727272722
 40
0.9090909090909085
 40
0.9090909090909085
 40
0.9090909090909085
 40
0.9090909090909085
 40
0.9204545454545449
 40
0.9204545454545449
 40
0.9204545454545449
 40
0.9204545454545449
 40
0.9318181818181812
 40
0.9318181818181812
 40
0.9318181818181812
 40
0.9318181818181812
 40
0.9431818181818176
 40
0.9431818181818176
 40
0.9431818181818176
 40
0.9431818181818176
 40
0.9545454545454539
 40
0.9545454545454539
 40
0.9545454545454539
 40
0.9545454545454539
 40
0.9659090909090903
 40
0.9659090909090903
 40
0.9659090909090903
 40
0.9659090909090903
 40
0.9772727272727266
 40
0.9772727272727266
 40
0.9772727272727266
 40
0.9772727272727266
 40
0.988636363636363
 40
0.988636363636363
 40
0.988636363636363
 40
0.988636363636363
 40
1.0
 40
1.0
 40
1.0
 40
1.0
 10
-3.1900900000000001
 20
5.2242100000000002
 30
0.0
 10
-3.6295100000000002
 20
4.7746300000000002
 30
0.0
 10
-3.9901900000000001
 20
4.7060500000000003
 30
0.0
 10
-4.3762700000000008
 20
3.7230700000000003
 30
0.0
 10
-4.3762700000000008
 20
3.7230700000000003
 30
0.0
 10
-4.1705300000000003
 20
3.8068900000000001
 30
0.0
 10
-4.10703
 20
4.3072699999999999
 30
0.0
 10
-3.8454100000000002
 20
4.4241100000000007
 30
0.0
 10
-3.8454100000000002
 20
4.4241100000000007
 30
0.0
 10
-4.1197300000000006
 20
3.5909900000000001
 30
0.0
 10
-4.3965900000000007
 20
3.4716100000000001
 30
0.0
 10
-4.2899100000000008
 20
2.7883500000000003
 30
0.0
 10
-4.2899100000000008
 20
2.7883500000000003
 30
0.0
 10
-4.5413700000000006
 20
2.9559900000000003
 30
0.0
 10
-4.6074100000000007
 20
3.2887300000000002
 30
0.0
 10
-4.69123
 20
3.4716100000000001
 30
0.0
 10
-4.69123
 20
3.4716100000000001
 30
0.0
 10
-4.69123
 20
3.4716100000000001
 30
0.0
 10
-4.7826700000000004
 20
2.71977
 30
0.0
 10
-4.7826700000000004
 20
2.71977
 30
0.0
 10
-4.7826700000000004
 20
2.71977
 30
0.0
 10
-4.7826700000000004
 20
2.71977
 30
0.0
 10
-4.7217100000000007
 20
2.3565500000000004
 30
0.0
 10
-4.7217100000000007
 20
2.3565500000000004
 30
0.0
 10
-4.7217100000000007
 20
2.3565500000000004
 30
0.0
 10
-4.6658300000000006
 20
3.4893900000000002
 30
0.0
 10
-4.13497
 20
2.2397100000000001
 30
0.0
 10
-3.8581100000000004
 20
1.8053700000000001
 30
0.0
 10
-3.8581100000000004
 20
1.8053700000000001
 30
0.0
 10
-3.9597100000000003
 20
2.2727300000000001
 30
0.0
 10
-4.3356300000000001
 20
2.8239100000000001
 30
0.0
 10
-4.1197300000000006
 20
3.3395300000000003
 30
0.0
 10
-4.1197300000000006
 20
3.3395300000000003
 30
0.0
 10
-3.9851100000000002
 20
2.8721700000000001
 30
0.0
 10
-3.7920700000000003
 20
2.4048100000000003
 30
0.0
 10
-3.5863300000000002
 20
1.9552300000000002
 30
0.0
 10
-3.5863300000000002
 20
1.9552300000000002
 30
0.0
 10
-3.4898100000000003
 20
2.03905
 30
0.0
 10
-3.6853900000000004
 20
2.2397100000000001
 30
0.0
 10
-3.6371300000000004
 20
2.3717900000000003
 30
0.0
 10
-3.6371300000000004
 20
2.3717900000000003
 30
0.0
 10
-3.1875500000000003
 20
1.8891900000000001
 30
0.0
 10
-2.3214100000000002
 20
2.03905
 30
0.0
 10
-2.0064500000000001
 20
1.3710300000000002
 30
0.0
 10
-2.0064500000000001
 20
1.3710300000000002
 30
0.0
 10
-2.1258300000000001
 20
2.9686900000000001
 30
0.0
 10
0.0103
 20
3.4411300000000002
 30
0.0
 10
1.2523600000000001
 20
2.5775300000000003
 30
0.0
 10
1.2523600000000001
 20
2.5775300000000003
 30
0.0
 10
1.35904
 20
2.50387
 30
0.0
 10
1.4200000000000002
 20
2.2905100000000003
 30
0.0
 10
1.5927200000000001
 20
2.3895700000000004
 30
0.0
 10
1.5927200000000001
 20
2.3895700000000004
 30
0.0
 10
1.0263
 20
2.6562700000000001
 30
0.0
 10
1.5927200000000001
 20
3.0728300000000002
 30
0.0
 10
1.7933800000000002
 20
2.6054700000000004
 30
0.0
 10
1.7933800000000002
 20
2.6054700000000004
 30
0.0
 10
1.9610200000000002
 20
2.8391500000000001
 30
0.0
 10
2.16168
 20
3.1388700000000003
 30
0.0
 10
2.5096600000000002
 20
3.05505
 30
0.0
 10
2.5096600000000002
 20
3.05505
 30
0.0
 10
2.6620600000000003
 20
3.0220300000000004
 30
0.0
 10
2.8093800000000004
 20
2.9559900000000003
 30
0.0
 10
2.9414600000000002
 20
2.8721700000000001
 30
0.0
 10
2.9414600000000002
 20
2.8721700000000001
 30
0.0
 10
3.4824800000000002
 20
1.6885300000000001
 30
0.0
 10
5.1969800000000008
 20
3.3725500000000004
 30
0.0
 10
4.5340400000000001
 20
4.1904300000000001
 30
0.0
 10
4.5340400000000001
 20
4.1904300000000001
 30
0.0
 10
4.5873800000000005
 20
3.8576900000000003
 30
0.0
 10
4.6483400000000001
 20
3.4385900000000005
 30
0.0
 10
4.3664000000000005
 20
3.1896700000000004
 30
0.0
 10
4.3664000000000005
 20
3.1896700000000004
 30
0.0
 10
4.5365800000000007
 20
3.8729300000000002
 30
0.0
 10
4.0209600000000005
 20
4.4901500000000008
 30
0.0
 10
3.7441000000000004
 20
5.0565700000000007
 30
0.0
 10
3.7441000000000004
 20
5.0565700000000007
 30
0.0
 10
4.0920800000000002
 20
4.89147
 30
0.0
 10
4.4502200000000007
 20
4.7238300000000004
 30
0.0
 10
4.7245400000000002
 20
4.4393500000000001
 30
0.0
 10
4.7245400000000002
 20
4.4393500000000001
 30
0.0
 10
5.1690400000000007
 20
3.7891100000000004
 30
0.0
 10
5.2858800000000006
 20
2.8721700000000001
 30
0.0
 10
4.9328200000000004
 20
2.1711300000000002
 30
0.0
 10
4.9328200000000004
 20
2.1711300000000002
 30
0.0
 10
4.9328200000000004
 20
2.1711300000000002
 30
0.0
 10
4.9988600000000005
 20
2.6232500000000001
 30
0.0
 10
4.9988600000000005
 20
2.6232500000000001
 30
0.0
 10
4.9988600000000005
 20
2.6232500000000001
 30
0.0
 10
5.0344200000000008
 20
2.6892900000000002
 30
0.0
 10
5.0090200000000005
 20
3.05505
 30
0.0
 10
4.9607600000000005
 20
2.8391500000000001
 30
0.0
 10
4.9607600000000005
 20
2.8391500000000001
 30
0.0
 10
4.9429800000000004
 20
2.3565500000000004
 30
0.0
 10
4.7855000000000008
 20
1.9222100000000002
 30
0.0
 10
4.5238800000000001
 20
1.5208900000000001
 30
0.0
 10
4.5238800000000001
 20
1.5208900000000001
 30
0.0
 10
4.5238800000000001
 20
1.5208900000000001
 30
0.0
 10
4.0997000000000003
 20
1.9044300000000001
 30
0.0
 10
4.0997000000000003
 20
1.9044300000000001
 30
0.0
 10
4.0997000000000003
 20
1.9044300000000001
 30
0.0
 10
4.3130600000000001
 20
1.2541900000000001
 30
0.0
 10
4.4807000000000006
 20
0.7538100000000001
 30
0.0
 10
4.3283000000000005
 20
-0.01072
 30
0.0
 10
4.3283000000000005
 20
-0.01072
 30
0.0
 10
4.9404400000000006
 20
0.5861700000000001
 30
0.0
 10
4.3283000000000005
 20
-0.97084
 30
0.0
 10
3.5713800000000004
 20
-0.8997200000000001
 30
0.0
 10
3.5713800000000004
 20
-0.8997200000000001
 30
0.0
 10
3.5078800000000001
 20
-0.8946400000000001
 30
0.0
 10
3.2030800000000004
 20
-0.78034
 30
0.0
 10
3.3529400000000003
 20
-0.9022600000000001
 30
0.0
 10
3.3529400000000003
 20
-0.9022600000000001
 30
0.0
 10
3.7339400000000005
 20
-1.03434
 30
0.0
 10
4.1682800000000002
 20
-1.2832600000000001
 30
0.0
 10
4.1200200000000002
 20
-1.7760200000000002
 30
0.0
 10
4.1200200000000002
 20
-1.7760200000000002
 30
0.0
 10
4.0057200000000002
 20
-2.0274800000000002
 30
0.0
 10
4.0793800000000005
 20
-1.4890000000000001
 30
0.0
 10
3.9498400000000005
 20
-1.6287
 30
0.0
 10
3.9498400000000005
 20
-1.6287
 30
0.0
 10
4.1200200000000002
 20
-2.3957800000000002
 30
0.0
 10
3.7542600000000004
 20
-1.9944600000000001
 30
0.0
 10
3.7060000000000004
 20
-2.8606000000000003
 30
0.0
 10
3.7060000000000004
 20
-2.8606000000000003
 30
0.0
 10
3.6298000000000004
 20
-2.7945600000000002
 30
0.0
 10
3.7187000000000001
 20
-2.5456400000000001
 30
0.0
 10
3.6145600000000004
 20
-2.5456400000000001
 30
0.0
 10
3.6145600000000004
 20
-2.5456400000000001
 30
0.0
 10
3.5891600000000001
 20
-2.8453600000000003
 30
0.0
 10
3.7644200000000003
 20
-3.2111200000000002
 30
0.0
 10
3.5485200000000003
 20
-3.4295600000000004
 30
0.0
 10
3.5485200000000003
 20
-3.4295600000000004
 30
0.0
 10
3.5891600000000001
 20
-2.7615400000000001
 30
0.0
 10
3.4723200000000003
 20
-3.1958800000000003
 30
0.0
 10
3.5078800000000001
 20
-3.6454600000000004
 30
0.0
 10
3.5078800000000001
 20
-3.6454600000000004
 30
0.0
 10
3.5078800000000001
 20
-3.6454600000000004
 30
0.0
 10
3.3935800000000005
 20
-3.7470600000000003
 30
0.0
 10
3.3935800000000005
 20
-3.7470600000000003
 30
0.0
 10
3.3935800000000005
 20
-3.7470600000000003
 30
0.0
 10
3.3935800000000005
 20
-3.7470600000000003
 30
0.0
 10
3.4113600000000002
 20
-3.3965400000000003
 30
0.0
 10
3.4113600000000002
 20
-3.3965400000000003
 30
0.0
 10
3.4113600000000002
 20
-3.3965400000000003
 30
0.0
 10
3.3529400000000003
 20
-2.7793200000000002
 30
0.0
 10
3.4012000000000002
 20
-4.3287200000000006
 30
0.0
 10
3.1929200000000004
 20
-3.9782000000000002
 30
0.0
 10
3.1929200000000004
 20
-3.9782000000000002
 30
0.0
 10
3.2615000000000003
 20
-3.11206
 30
0.0
 10
3.0583000000000005
 20
-3.9629600000000003
 30
0.0
 10
3.1243400000000001
 20
-4.3795200000000003
 30
0.0
 10
3.1243400000000001
 20
-4.3795200000000003
 30
0.0
 10
3.1243400000000001
 20
-4.3795200000000003
 30
0.0
 10
3.0278200000000002
 20
-4.3287200000000006
 30
0.0
 10
3.0278200000000002
 20
-4.3287200000000006
 30
0.0
 10
3.0278200000000002
 20
-4.3287200000000006
 30
0.0
 10
2.7433400000000003
 20
-4.7960800000000008
 30
0.0
 10
2.9262200000000003
 20
-3.6784800000000004
 30
0.0
 10
2.7941400000000001
 20
-4.22966
 30
0.0
 10
2.7941400000000001
 20
-4.22966
 30
0.0
 10
2.7941400000000001
 20
-4.22966
 30
0.0
 10
2.7484200000000003
 20
-4.4633400000000005
 30
0.0
 10
2.7484200000000003
 20
-4.4633400000000005
 30
0.0
 10
2.7484200000000003
 20
-4.4633400000000005
 30
0.0
 10
2.5604600000000004
 20
-4.2753800000000002
 30
0.0
 10
2.6061800000000002
 20
-3.9528000000000003
 30
0.0
 10
2.5477600000000002
 20
-3.7191200000000002
 30
0.0
 10
2.5477600000000002
 20
-3.7191200000000002
 30
0.0
 10
2.5376000000000003
 20
-3.6784800000000004
 30
0.0
 10
2.5122
 20
-3.4625800000000004
 30
0.0
 10
2.4918800000000001
 20
-3.6454600000000004
 30
0.0
 10
2.4918800000000001
 20
-3.6454600000000004
 30
0.0
 10
2.6138000000000003
 20
-4.5674800000000007
 30
0.0
 10
2.2683600000000004
 20
-4.4227000000000007
 30
0.0
 10
2.2505800000000002
 20
-3.7851600000000003
 30
0.0
 10
2.2505800000000002
 20
-3.7851600000000003
 30
0.0
 10
2.2505800000000002
 20
-3.7419800000000003
 30
0.0
 10
2.2505800000000002
 20
-3.5108400000000004
 30
0.0
 10
2.21502
 20
-3.6632400000000005
 30
0.0
 10
2.21502
 20
-3.6632400000000005
 30
0.0
 10
2.2429600000000001
 20
-4.3795200000000003
 30
0.0
 10
1.9280000000000002
 20
-4.4963600000000001
 30
0.0
 10
1.9305400000000001
 20
-3.7470600000000003
 30
0.0
 10
1.9305400000000001
 20
-3.7470600000000003
 30
0.0
 10
1.9280000000000002
 20
-3.6962600000000001
 30
0.0
 10
1.9000600000000001
 20
-3.7953200000000002
 30
0.0
 10
1.8899000000000001
 20
-3.8283400000000003
 30
0.0
 10
1.8899000000000001
 20
-3.8283400000000003
 30
0.0
 10
1.7781400000000001
 20
-4.5293800000000006
 30
0.0
 10
1.7654400000000001
 20
-3.9299400000000002
 30
0.0
 10
1.7603600000000001
 20
-3.5286200000000001
 30
0.0
 10
1.7603600000000001
 20
-3.5286200000000001
 30
0.0
 10
1.7044800000000002
 20
-3.8131000000000004
 30
0.0
 10
1.40222
 20
-4.0620200000000004
 30
0.0
 10
1.5419200000000002
 20
-3.2111200000000002
 30
0.0
 10
1.5419200000000002
 20
-3.2111200000000002
 30
0.0
 10
1.5139800000000001
 20
-2.8783800000000004
 30
0.0
 10
1.4250800000000001
 20
-3.5794200000000003
 30
0.0
 10
1.3082400000000001
 20
-3.6454600000000004
 30
0.0
 10
1.3082400000000001
 20
-3.6454600000000004
 30
0.0
 10
0.9501000000000001
 20
-3.4778200000000004
 30
0.0
 10
1.2879200000000002
 20
-2.8961600000000001
 30
0.0
 10
1.2549000000000001
 20
-2.5939000000000001
 30
0.0
 10
1.2549000000000001
 20
-2.5939000000000001
 30
0.0
 10
1.1152000000000002
 20
-2.8301200000000004
 30
0.0
 10
1.0364600000000002
 20
-3.11206
 30
0.0
 10
0.9424800000000001
 20
-3.3457400000000002
 30
0.0
 10
0.9424800000000001
 20
-3.3457400000000002
 30
0.0
 10
0.7926200000000001
 20
-2.9799800000000003
 30
0.0
 10
0.41162
 20
-2.8453600000000003
 30
0.0
 10
0.45988
 20
-2.3627600000000002
 30
0.0
 10
0.45988
 20
-2.3627600000000002
 30
0.0
 10
0.43702
 20
-2.0274800000000002
 30
0.0
 10
0.38622
 20
-2.4110200000000002
 30
0.0
 10
0.3913
 20
-2.5456400000000001
 30
0.0
 10
0.3913
 20
-2.5456400000000001
 30
0.0
 10
0.18048
 20
-3.2111200000000002
 30
0.0
 10
0.27446
 20
-1.4102600000000001
 30
0.0
 10
0.14238
 20
-2.1265400000000003
 30
0.0
 10
0.14238
 20
-2.1265400000000003
 30
0.0
 10
0.14238
 20
-2.1265400000000003
 30
0.0
 10
0.09666
 20
-2.3627600000000002
 30
0.0
 10
0.09666
 20
-2.3627600000000002
 30
0.0
 10
0.09666
 20
-2.3627600000000002
 30
0.0
 10
0.1246
 20
-2.5456400000000001
 30
0.0
 10
0.02554
 20
-2.56088
 30
0.0
 10
-0.12177
 20
-2.5786600000000002
 30
0.0
 10
-0.12177
 20
-2.5786600000000002
 30
0.0
 10
-0.19543
 20
-2.3272000000000004
 30
0.0
 10
-0.00493
 20
-1.9106400000000001
 30
0.0
 10
0.05602
 20
-1.6109200000000001
 30
0.0
 10
0.05602
 20
-1.6109200000000001
 30
0.0
 10
-0.09129
 20
-1.79634
 30
0.0
 10
-0.25639
 20
-2.2459200000000004
 30
0.0
 10
-0.50531
 20
-2.2459200000000004
 30
0.0
 10
-0.50531
 20
-2.2459200000000004
 30
0.0
 10
-0.46213
 20
-1.5601200000000002
 30
0.0
 10
0.20588
 20
-1.16134
 30
0.0
 10
0.7392800000000001
 20
-1.1105400000000001
 30
0.0
 10
0.7392800000000001
 20
-1.1105400000000001
 30
0.0
 10
0.03062
 20
-0.7447800000000001
 30
0.0
 10
-0.6729500000000001
 20
-1.7607800000000002
 30
0.0
 10
-1.2673100000000002
 20
-1.1943600000000001
 30
0.0
 10
-1.2673100000000002
 20
-1.1943600000000001
 30
0.0
 10
-1.1936500000000001
 20
-1.5093200000000002
 30
0.0
 10
-0.6653300000000001
 20
-1.6109200000000001
 30
0.0
 10
-0.3757700000000001
 20
-1.4940800000000001
 30
0.0
 10
-0.3757700000000001
 20
-1.4940800000000001
 30
0.0
 10
-0.41133
 20
-1.6947400000000001
 30
0.0
 10
-0.46213
 20
-1.8776200000000001
 30
0.0
 10
-0.5434100000000001
 20
-2.0782800000000003
 30
0.0
 10
-0.5434100000000001
 20
-2.0782800000000003
 30
0.0
 10
-0.71613
 20
-2.0122400000000003
 30
0.0
 10
-0.6043700000000001
 20
-1.8115800000000002
 30
0.0
 10
-0.57643
 20
-1.6947400000000001
 30
0.0
 10
-0.57643
 20
-1.6947400000000001
 30
0.0
 10
-1.5695700000000001
 20
-1.5956800000000002
 30
0.0
 10
-2.3163300000000002
 20
-1.7277600000000002
 30
0.0
 10
-2.2350500000000002
 20
-0.92766
 30
0.0
 10
-2.2350500000000002
 20
-0.92766
 30
0.0
 10
-2.0674100000000002
 20
-0.82606
 30
0.0
 10
-1.8794500000000001
 20
-1.24516
 30
0.0
 10
-1.84135
 20
-1.0445
 30
0.0
 10
-1.84135
 20
-1.0445
 30
0.0
 10
-2.0191500000000002
 20
-0.6254000000000001
 30
0.0
 10
-2.7506700000000004
 20
-0.32314
 30
0.0
 10
-2.2731500000000002
 20
0.02483
 30
0.0
 10
-2.2731500000000002
 20
0.02483
 30
0.0
 10
-2.23759
 20
0.05023
 30
0.0
 10
-1.9810500000000002
 20
0.07055
 30
0.0
 10
-2.1436100000000002
 20
0.10357
 30
0.0
 10
-2.1436100000000002
 20
0.10357
 30
0.0
 10
-2.2858500000000004
 20
0.05277
 30
0.0
 10
-2.5169900000000003
 20
0.00451
 30
0.0
 10
-2.57287
 20
0.20517
 30
0.0
 10
-2.57287
 20
0.20517
 30
0.0
 10
-2.4204700000000003
 20
0.55569
 30
0.0
 10
-1.9785100000000002
 20
0.7538100000000001
 30
0.0
 10
-1.9785100000000002
 20
0.22041
 30
0.0
 10
-1.9785100000000002
 20
0.22041
 30
0.0
 10
-1.9454900000000002
 20
0.12135
 30
0.0
 10
-1.9277100000000003
 20
0.27883
 30
0.0
 10
-1.92517
 20
0.31185
 30
0.0
 10
-1.92517
 20
0.31185
 30
0.0
 10
-1.9023100000000002
 20
0.5429900000000001
 30
0.0
 10
-1.9226300000000001
 20
0.83001
 30
0.0
 10
-1.7448300000000001
 20
0.9798700000000001
 30
0.0
 10
-1.7448300000000001
 20
0.9798700000000001
 30
0.0
 10
-1.7092700000000001
 20
1.0078100000000001
 30
0.0
 10
-1.54671
 20
1.0408300000000001
 30
0.0
 10
-1.6610100000000001
 20
1.0586100000000001
 30
0.0
 10
-1.6610100000000001
 20
1.0586100000000001
 30
0.0
 10
-1.8642100000000001
 20
0.9646300000000001
 30
0.0
 10
-2.09789
 20
1.0789300000000002
 30
0.0
 10
-2.1436100000000002
 20
1.3075300000000001
 30
0.0
 10
-2.1436100000000002
 20
1.3075300000000001
 30
0.0
 10
-2.1791700000000001
 20
1.4929500000000002
 30
0.0
 10
-2.2299700000000002
 20
1.6377300000000001
 30
0.0
 10
-2.2401300000000002
 20
1.4599300000000002
 30
0.0
 10
-2.2401300000000002
 20
1.4599300000000002
 30
0.0
 10
-2.0724900000000002
 20
0.6928500000000001
 30
0.0
 10
-3.1443700000000003
 20
1.73933
 30
0.0
 10
-2.9513300000000005
 20
1.4218300000000001
 30
0.0
 10
-2.9513300000000005
 20
1.4218300000000001
 30
0.0
 10
-2.6693900000000004
 20
1.3049900000000001
 30
0.0
 10
-2.1664700000000003
 20
0.93669
 30
0.0
 10
-2.4585700000000004
 20
0.62173
 30
0.0
 10
-2.4585700000000004
 20
0.62173
 30
0.0
 10
-2.9818100000000003
 20
0.7715900000000001
 30
0.0
 10
-3.4237700000000002
 20
1.1373500000000001
 30
0.0
 10
-3.9190700000000005
 20
1.3532500000000001
 30
0.0
 10
-3.9190700000000005
 20
1.3532500000000001
 30
0.0
 10
-4.0333700000000006
 20
1.48787
 30
0.0
 10
-4.10703
 20
1.3710300000000002
 30
0.0
 10
-3.9444700000000004
 20
1.32277
 30
0.0
 10
-3.9444700000000004
 20
1.32277
 30
0.0
 10
-3.6549100000000001
 20
1.1221100000000002
 30
0.0
 10
-3.3450300000000004
 20
0.93669
 30
0.0
 10
-3.0935700000000002
 20
0.6877700000000001
 30
0.0
 10
-3.0935700000000002
 20
0.6877700000000001
 30
0.0
 10
-3.8479500000000004
 20
0.9036700000000001
 30
0.0
 10
-4.6963100000000004
 20
1.3710300000000002
 30
0.0
 10
-4.9553900000000004
 20
2.1711300000000002
 30
0.0
 10
-4.9553900000000004
 20
2.1711300000000002
 30
0.0
 10
-4.7521900000000006
 20
2.03905
 30
0.0
 10
-4.56677
 20
1.8714100000000002
 30
0.0
 10
-4.3864300000000007
 20
1.6885300000000001
 30
0.0
 10
-4.3864300000000007
 20
1.6885300000000001
 30
0.0
 10
-4.2568900000000003
 20
1.6377300000000001
 30
0.0
 10
-4.4067500000000006
 20
1.7723500000000001
 30
0.0
 10
-4.4296100000000003
 20
1.8206100000000001
 30
0.0
 10
-4.4296100000000003
 20
1.8206100000000001
 30
0.0
 10
-4.6582100000000004
 20
1.9882500000000001
 30
0.0
 10
-4.8131500000000003
 20
2.2397100000000001
 30
0.0
 10
-4.98841
 20
2.4556100000000001
 30
0.0
 10
-4.98841
 20
2.4556100000000001
 30
0.0
 10
-5.2627300000000004
 20
2.9229700000000003
 30
0.0
 10
-5.3033700000000001
 20
3.5224100000000003
 30
0.0
 10
-4.9299900000000001
 20
3.9567500000000004
 30
0.0
 10
-4.9299900000000001
 20
3.9567500000000004
 30
0.0
 10
-4.9299900000000001
 20
3.9567500000000004
 30
0.0
 10
-5.0925500000000001
 20
3.3547700000000003
 30
0.0
 10
-5.0925500000000001
 20
3.3547700000000003
 30
0.0
 10
-5.0925500000000001
 20
3.3547700000000003
 30
0.0
 10
-4.8334700000000002
 20
3.8907100000000003
 30
0.0
 10
-4.5108900000000007
 20
4.4571300000000003
 30
0.0
 10
-4.0028900000000007
 20
4.8559100000000006
 30
0.0
 10
-4.0028900000000007
 20
4.8559100000000006
 30
0.0
 10
-3.7387300000000003
 20
4.9905300000000006
 30
0.0
 10
-3.4720300000000002
 20
5.1556300000000004
 30
0.0
 10
-3.1900900000000001
 20
5.2242100000000002
 30
0.0
  0
SPLINE
  5
27
100
AcDbEntity
  8
Ebene 1
100
AcDbSpline
210
0.0
220
0.0
230
1.0
 70
     1
 71
     3
 72
    16
 73
    12
 74
     0
 42
0.0000000001
 43
0.0000000001
 40
0.0
 40
0.0
 40
0.0
 40
0.0
 40
0.3333333333333333
 40
0.3333333333333333
 40
0.3333333333333333
 40
0.3333333333333333
 40
0.6666666666666666
 40
0.6666666666666666
 40
0.6666666666666666
 40
0.6666666666666666
 40
1.0
 40
1.0
 40
1.0
 40
1.0
 10
4.5950000000000006
 20
2.8543900000000004
 30
0.0
 10
4.5238800000000001
 20
2.5216500000000002
 30
0.0
 10
4.1251000000000007
 20
2.2879700000000001
 30
0.0
 10
3.8431600000000001
 20
2.0898500000000002
 30
0.0
 10
3.8431600000000001
 20
2.0898500000000002
 30
0.0
 10
3.7847400000000002
 20
2.1381100000000002
 30
0.0
 10
3.8203000000000005
 20
2.25495
 30
0.0
 10
3.7263200000000003
 20
2.2879700000000001
 30
0.0
 10
3.7263200000000003
 20
2.2879700000000001
 30
0.0
 10
4.0666800000000007
 20
2.3565500000000004
 30
0.0
 10
4.3740200000000007
 20
2.5876900000000003
 30
0.0
 10
4.5950000000000006
 20
2.8543900000000004
 30
0.0
  0
SPLINE
  5
28
100
AcDbEntity
  8
Ebene 1
100
AcDbSpline
210
0.0
220
0.0
230
1.0
 70
     1
 71
     3
 72
    52
 73
    48
 74
     0
 42
0.0000000001
 43
0.0000000001
 40
0.0
 40
0.0
 40
0.0
 40
0.0
 40
0.0833333333333333
 40
0.0833333333333333
 40
0.0833333333333333
 40
0.0833333333333333
 40
0.1666666666666667
 40
0.1666666666666667
 40
0.1666666666666667
 40
0.1666666666666667
 40
0.25
 40
0.25
 40
0.25
 40
0.25
 40
0.3333333333333333
 40
0.3333333333333333
 40
0.3333333333333333
 40
0.3333333333333333
 40
0.4166666666666666
 40
0.4166666666666666
 40
0.4166666666666666
 40
0.4166666666666666
 40
0.4999999999999999
 40
0.4999999999999999
 40
0.4999999999999999
 40
0.4999999999999999
 40
0.5833333333333333
 40
0.5833333333333333
 40
0.5833333333333333
 40
0.5833333333333333
 40
0.6666666666666666
 40
0.6666666666666666
 40
0.6666666666666666
 40
0.6666666666666666
 40
0.75
 40
0.75
 40
0.75
 40
0.75
 40
0.8333333333333334
 40
0.8333333333333334
 40
0.8333333333333334
 40
0.8333333333333334
 40
0.9166666666666667
 40
0.9166666666666667
 40
0.9166666666666667
 40
0.9166666666666667
 40
1.0
 40
1.0
 40
1.0
 40
1.0
 10
-0.30465
 20
2.4556100000000001
 30
0.0
 10
-0.23353
 20
2.42259
 30
0.0
 10
-0.3224300000000001
 20
2.3717900000000003
 30
0.0
 10
-0.31735
 20
2.3209900000000001
 30
0.0
 10
-0.31735
 20
2.3209900000000001
 30
0.0
 10
0.7697600000000001
 20
1.9399900000000001
 30
0.0
 10
1.5825600000000002
 20
0.8376300000000001
 30
0.0
 10
1.8568800000000001
 20
-0.22662
 30
0.0
 10
1.8568800000000001
 20
-0.22662
 30
0.0
 10
1.4758800000000001
 20
-0.5771400000000001
 30
0.0
 10
0.9856600000000001
 20
-0.37648
 30
0.0
 10
0.7265800000000001
 20
0.00451
 30
0.0
 10
0.7265800000000001
 20
0.00451
 30
0.0
 10
0.9501000000000001
 20
-0.02596
 30
0.0
 10
1.2549000000000001
 20
-0.52634
 30
0.0
 10
1.5216000000000001
 20
-0.16058
 30
0.0
 10
1.5216000000000001
 20
-0.16058
 30
0.0
 10
1.5216000000000001
 20
-0.16058
 30
0.0
 10
1.5749400000000002
 20
0.08833
 30
0.0
 10
1.5749400000000002
 20
0.08833
 30
0.0
 10
1.5749400000000002
 20
0.08833
 30
0.0
 10
1.3285600000000002
 20
0.8046100000000001
 30
0.0
 10
0.8332600000000001
 20
1.7215500000000001
 30
0.0
 10
-0.03541
 20
1.73933
 30
0.0
 10
-0.03541
 20
1.73933
 30
0.0
 10
-0.03541
 20
1.73933
 30
0.0
 10
-0.08875
 20
1.8383900000000002
 30
0.0
 10
-0.08875
 20
1.8383900000000002
 30
0.0
 10
-0.08875
 20
1.8383900000000002
 30
0.0
 10
0.03062
 20
1.8383900000000002
 30
0.0
 10
0.18048
 20
1.8053700000000001
 30
0.0
 10
0.29224
 20
1.8383900000000002
 30
0.0
 10
0.29224
 20
1.8383900000000002
 30
0.0
 10
-0.11415
 20
2.0898500000000002
 30
0.0
 10
-0.9447300000000001
 20
2.4048100000000003
 30
0.0
 10
-1.1403100000000002
 20
1.7545700000000002
 30
0.0
 10
-1.1403100000000002
 20
1.7545700000000002
 30
0.0
 10
-1.1403100000000002
 20
1.7545700000000002
 30
0.0
 10
-1.1428500000000001
 20
1.6224900000000002
 30
0.0
 10
-1.1428500000000001
 20
1.6224900000000002
 30
0.0
 10
-1.1428500000000001
 20
1.6224900000000002
 30
0.0
 10
-1.2774700000000001
 20
1.8206100000000001
 30
0.0
 10
-1.16571
 20
2.1381100000000002
 30
0.0
 10
-0.9193300000000001
 20
2.2397100000000001
 30
0.0
 10
-0.9193300000000001
 20
2.2397100000000001
 30
0.0
 10
-0.74153
 20
2.3895700000000004
 30
0.0
 10
-0.47737
 20
2.3209900000000001
 30
0.0
 10
-0.30465
 20
2.4556100000000001
 30
0.0
  0
SPLINE
  5
29
100
AcDbEntity
  8
Ebene 1
 62
     7
100
AcDbSpline
210
0.0
220
0.0
230
1.0
 70
     1
 71
     3
 72
    12
 73
     8
 74
     0
 42
0.0000000001
 43
0.0000000001
 40
0.0
 40
0.0
 40
0.0
 40
0.0
 40
0.5
 40
0.5
 40
0.5
 40
0.5
 40
1.0
 40
1.0
 40
1.0
 40
1.0
 10
5.1461800000000002
 20
2.4378300000000004
 30
0.0
 10
5.1360200000000003
 20
2.20669
 30
0.0
 10
5.0699800000000002
 20
1.8714100000000002
 30
0.0
 10
4.8337600000000007
 20
1.7215500000000001
 30
0.0
 10
4.8337600000000007
 20
1.7215500000000001
 30
0.0
 10
4.8845600000000005
 20
1.9704700000000002
 30
0.0
 10
5.0268000000000006
 20
2.20669
 30
0.0
 10
5.1461800000000002
 20
2.4378300000000004
 30
0.0
  0
SPLINE
  5
2A
100
AcDbEntity
  8
Ebene 1
100
AcDbSpline
210
0.0
220
0.0
230
1.0
 70
     1
 71
     3
 72
    60
 73
    56
 74
     0
 42
0.0000000001
 43
0.0000000001
 40
0.0
 40
0.0
 40
0.0
 40
0.0
 40
0.0714285714285714
 40
0.0714285714285714
 40
0.0714285714285714
 40
0.0714285714285714
 40
0.1428571428571429
 40
0.1428571428571429
 40
0.1428571428571429
 40
0.1428571428571429
 40
0.2142857142857143
 40
0.2142857142857143
 40
0.2142857142857143
 40
0.2142857142857143
 40
0.2857142857142857
 40
0.2857142857142857
 40
0.2857142857142857
 40
0.2857142857142857
 40
0.3571428571428571
 40
0.3571428571428571
 40
0.3571428571428571
 40
0.3571428571428571
 40
0.4285714285714285
 40
0.4285714285714285
 40
0.4285714285714285
 40
0.4285714285714285
 40
0.4999999999999999
 40
0.4999999999999999
 40
0.4999999999999999
 40
0.4999999999999999
 40
0.5714285714285713
 40
0.5714285714285713
 40
0.5714285714285713
 40
0.5714285714285713
 40
0.6428571428571427
 40
0.6428571428571427
 40
0.6428571428571427
 40
0.6428571428571427
 40
0.7142857142857141
 40
0.7142857142857141
 40
0.7142857142857141
 40
0.7142857142857141
 40
0.7857142857142855
 40
0.7857142857142855
 40
0.7857142857142855
 40
0.7857142857142855
 40
0.8571428571428569
 40
0.8571428571428569
 40
0.8571428571428569
 40
0.8571428571428569
 40
0.9285714285714283
 40
0.9285714285714283
 40
0.9285714285714283
 40
0.9285714285714283
 40
1.0
 40
1.0
 40
1.0
 40
1.0
 10
-1.4070100000000001
 20
2.3057500000000002
 30
0.0
 10
-1.4806700000000002
 20
2.12033
 30
0.0
 10
-1.7854700000000001
 20
1.7037700000000002
 30
0.0
 10
-1.5365500000000001
 20
1.3710300000000002
 30
0.0
 10
-1.5365500000000001
 20
1.3710300000000002
 30
0.0
 10
-0.49769
 20
1.0865500000000001
 30
0.0
 10
0.25922
 20
0.15437
 30
0.0
 10
1.0644
 20
-0.52634
 30
0.0
 10
1.0644
 20
-0.52634
 30
0.0
 10
1.3717400000000002
 20
-0.6431800000000001
 30
0.0
 10
1.56732
 20
-0.32568
 30
0.0
 10
1.8086200000000001
 20
-0.44506
 30
0.0
 10
1.8086200000000001
 20
-0.44506
 30
0.0
 10
1.2396600000000002
 20
-1.16134
 30
0.0
 10
0.47766
 20
-0.17582
 30
0.0
 10
-0.15479
 20
-0.6279400000000001
 30
0.0
 10
-0.15479
 20
-0.6279400000000001
 30
0.0
 10
-0.15479
 20
-0.6279400000000001
 30
0.0
 10
-0.4900700000000001
 20
-0.7117600000000001
 30
0.0
 10
-0.4900700000000001
 20
-0.7117600000000001
 30
0.0
 10
-0.4900700000000001
 20
-0.7117600000000001
 30
0.0
 10
-0.6196100000000001
 20
-0.6609600000000001
 30
0.0
 10
-0.80503
 20
-0.7447800000000001
 30
0.0
 10
-0.9066300000000001
 20
-0.6431800000000001
 30
0.0
 10
-0.9066300000000001
 20
-0.6431800000000001
 30
0.0
 10
-0.9066300000000001
 20
-0.6431800000000001
 30
0.0
 10
-0.42149
 20
-0.5771400000000001
 30
0.0
 10
-0.42149
 20
-0.5771400000000001
 30
0.0
 10
-0.42149
 20
-0.5771400000000001
 30
0.0
 10
-0.42149
 20
-0.5771400000000001
 30
0.0
 10
-0.28433
 20
-0.52634
 30
0.0
 10
-0.28433
 20
-0.52634
 30
0.0
 10
-0.28433
 20
-0.52634
 30
0.0
 10
0.05094
 20
-0.4603
 30
0.0
 10
-0.37069
 20
-0.4272800000000001
 30
0.0
 10
-0.4900700000000001
 20
-0.4272800000000001
 30
0.0
 10
-0.4900700000000001
 20
-0.4272800000000001
 30
0.0
 10
-0.5230900000000001
 20
-0.4603
 30
0.0
 10
-0.6069100000000001
 20
-0.44506
 30
0.0
 10
-0.6069100000000001
 20
-0.3942600000000001
 30
0.0
 10
-0.6069100000000001
 20
-0.3942600000000001
 30
0.0
 10
-0.19543
 20
-0.27742
 30
0.0
 10
0.31764
 20
-0.2952
 30
0.0
 10
0.70372
 20
-0.49332
 30
0.0
 10
0.70372
 20
-0.49332
 30
0.0
 10
0.6961000000000001
 20
-0.4272800000000001
 30
0.0
 10
0.6199
 20
-0.37648
 30
0.0
 10
0.57164
 20
-0.34346
 30
0.0
 10
0.57164
 20
-0.34346
 30
0.0
 10
-0.10145
 20
-0.09454
 30
0.0
 10
-1.0539500000000002
 20
0.13913
 30
0.0
 10
-1.12507
 20
1.0382900000000002
 30
0.0
 10
-1.12507
 20
1.0382900000000002
 30
0.0
 10
-1.8438900000000003
 20
0.93669
 30
0.0
 10
-2.0140700000000002
 20
2.0212700000000003
 30
0.0
 10
-1.4070100000000001
 20
2.3057500000000002
 30
0.0
  0
SPLINE
  5
2B
100
AcDbEntity
  8
Ebene 1
100
AcDbSpline
210
0.0
220
0.0
230
1.0
 70
     1
 71
     3
 72
    20
 73
    16
 74
     0
 42
0.0000000001
 43
0.0000000001
 40
0.0
 40
0.0
 40
0.0
 40
0.0
 40
0.25
 40
0.25
 40
0.25
 40
0.25
 40
0.5
 40
0.5
 40
0.5
 40
0.5
 40
0.75
 40
0.75
 40
0.75
 40
0.75
 40
1.0
 40
1.0
 40
1.0
 40
1.0
 10
1.6435200000000001
 20
2.2397100000000001
 30
0.0
 10
1.6435200000000001
 20
2.2397100000000001
 30
0.0
 10
1.7730600000000001
 20
2.1381100000000002
 30
0.0
 10
1.7730600000000001
 20
2.1381100000000002
 30
0.0
 10
1.7730600000000001
 20
2.1381100000000002
 30
0.0
 10
1.9178400000000002
 20
1.8561700000000001
 30
0.0
 10
1.9254600000000002
 20
1.5386700000000002
 30
0.0
 10
1.9940400000000003
 20
1.2541900000000001
 30
0.0
 10
1.9940400000000003
 20
1.2541900000000001
 30
0.0
 10
2.2404200000000003
 20
0.8884300000000001
 30
0.0
 10
2.20486
 20
0.4210700000000001
 30
0.0
 10
2.1261200000000002
 20
0.00451
 30
0.0
 10
2.1261200000000002
 20
0.00451
 30
0.0
 10
2.03722
 20
0.7385700000000001
 30
0.0
 10
1.8467200000000001
 20
1.5031100000000002
 30
0.0
 10
1.6435200000000001
 20
2.2397100000000001
 30
0.0
  0
SPLINE
  5
2C
100
AcDbEntity
  8
Ebene 1
100
AcDbSpline
210
0.0
220
0.0
230
1.0
 70
     1
 71
     3
 72
    44
 73
    40
 74
     0
 42
0.0000000001
 43
0.0000000001
 40
0.0
 40
0.0
 40
0.0
 40
0.0
 40
0.1
 40
0.1
 40
0.1
 40
0.1
 40
0.2
 40
0.2
 40
0.2
 40
0.2
 40
0.3
 40
0.3
 40
0.3
 40
0.3
 40
0.4
 40
0.4
 40
0.4
 40
0.4
 40
0.5
 40
0.5
 40
0.5
 40
0.5
 40
0.6
 40
0.6
 40
0.6
 40
0.6
 40
0.7
 40
0.7
 40
0.7
 40
0.7
 40
0.7999999999999999
 40
0.7999999999999999
 40
0.7999999999999999
 40
0.7999999999999999
 40
0.8999999999999999
 40
0.8999999999999999
 40
0.8999999999999999
 40
0.8999999999999999
 40
1.0
 40
1.0
 40
1.0
 40
1.0
 10
2.8779600000000003
 20
2.12033
 30
0.0
 10
3.0252800000000004
 20
2.1050900000000001
 30
0.0
 10
3.1573600000000002
 20
1.9704700000000002
 30
0.0
 10
3.2437200000000002
 20
1.8561700000000001
 30
0.0
 10
3.2437200000000002
 20
1.8561700000000001
 30
0.0
 10
3.1522800000000002
 20
1.8053700000000001
 30
0.0
 10
3.0760800000000001
 20
1.9882500000000001
 30
0.0
 10
2.9643200000000003
 20
1.9552300000000002
 30
0.0
 10
2.9643200000000003
 20
1.9552300000000002
 30
0.0
 10
2.9643200000000003
 20
1.9552300000000002
 30
0.0
 10
2.8220800000000001
 20
1.5208900000000001
 30
0.0
 10
2.8220800000000001
 20
1.5208900000000001
 30
0.0
 10
2.8220800000000001
 20
1.5208900000000001
 30
0.0
 10
2.76112
 20
1.48787
 30
0.0
 10
2.7916000000000003
 20
1.5894700000000002
 30
0.0
 10
2.7484200000000003
 20
1.5894700000000002
 30
0.0
 10
2.7484200000000003
 20
1.5894700000000002
 30
0.0
 10
2.46902
 20
1.4218300000000001
 30
0.0
 10
2.3115400000000004
 20
0.93669
 30
0.0
 10
2.6569800000000003
 20
0.7715900000000001
 30
0.0
 10
2.6569800000000003
 20
0.7715900000000001
 30
0.0
 10
2.3979000000000004
 20
0.55569
 30
0.0
 10
2.2886800000000003
 20
-0.12756
 30
0.0
 10
2.76112
 20
-0.14534
 30
0.0
 10
2.76112
 20
-0.14534
 30
0.0
 10
2.7839800000000001
 20
-0.14534
 30
0.0
 10
2.7789000000000001
 20
-0.17582
 30
0.0
 10
2.7738200000000002
 20
-0.1936
 30
0.0
 10
2.7738200000000002
 20
-0.1936
 30
0.0
 10
2.63158
 20
-0.25964
 30
0.0
 10
2.4715600000000002
 20
-0.2444
 30
0.0
 10
2.3318600000000003
 20
-0.17582
 30
0.0
 10
2.3318600000000003
 20
-0.17582
 30
0.0
 10
2.2328000000000001
 20
0.03753
 30
0.0
 10
2.2251800000000004
 20
0.40329
 30
0.0
 10
2.3598000000000003
 20
0.6547500000000001
 30
0.0
 10
2.3598000000000003
 20
0.6547500000000001
 30
0.0
 10
2.1820000000000004
 20
1.2211700000000001
 30
0.0
 10
2.6417400000000004
 20
1.6707500000000002
 30
0.0
 10
2.8779600000000003
 20
2.12033
 30
0.0
  0
SPLINE
  5
2D
100
AcDbEntity
  8
Ebene 1
100
AcDbSpline
210
0.0
220
0.0
230
1.0
 70
     1
 71
     3
 72
    60
 73
    56
 74
     0
 42
0.0000000001
 43
0.0000000001
 40
0.0
 40
0.0
 40
0.0
 40
0.0
 40
0.0714285714285714
 40
0.0714285714285714
 40
0.0714285714285714
 40
0.0714285714285714
 40
0.1428571428571429
 40
0.1428571428571429
 40
0.1428571428571429
 40
0.1428571428571429
 40
0.2142857142857143
 40
0.2142857142857143
 40
0.2142857142857143
 40
0.2142857142857143
 40
0.2857142857142857
 40
0.2857142857142857
 40
0.2857142857142857
 40
0.2857142857142857
 40
0.3571428571428571
 40
0.3571428571428571
 40
0.3571428571428571
 40
0.3571428571428571
 40
0.4285714285714285
 40
0.4285714285714285
 40
0.4285714285714285
 40
0.4285714285714285
 40
0.4999999999999999
 40
0.4999999999999999
 40
0.4999999999999999
 40
0.4999999999999999
 40
0.5714285714285713
 40
0.5714285714285713
 40
0.5714285714285713
 40
0.5714285714285713
 40
0.6428571428571427
 40
0.6428571428571427
 40
0.6428571428571427
 40
0.6428571428571427
 40
0.7142857142857141
 40
0.7142857142857141
 40
0.7142857142857141
 40
0.7142857142857141
 40
0.7857142857142855
 40
0.7857142857142855
 40
0.7857142857142855
 40
0.7857142857142855
 40
0.8571428571428569
 40
0.8571428571428569
 40
0.8571428571428569
 40
0.8571428571428569
 40
0.9285714285714283
 40
0.9285714285714283
 40
0.9285714285714283
 40
0.9285714285714283
 40
1.0
 40
1.0
 40
1.0
 40
1.0
 10
2.9440000000000004
 20
-0.3942600000000001
 30
0.0
 10
3.3529400000000003
 20
-0.09454
 30
0.0
 10
3.4266000000000001
 20
0.43885
 30
0.0
 10
3.4596200000000001
 20
0.9036700000000001
 30
0.0
 10
3.4596200000000001
 20
0.9036700000000001
 30
0.0
 10
3.6348800000000003
 20
1.2541900000000001
 30
0.0
 10
3.7009200000000004
 20
1.7037700000000002
 30
0.0
 10
3.4139000000000004
 20
2.03905
 30
0.0
 10
3.4139000000000004
 20
2.03905
 30
0.0
 10
3.7441000000000004
 20
1.9044300000000001
 30
0.0
 10
3.7415600000000002
 20
1.4548500000000002
 30
0.0
 10
3.8609400000000003
 20
1.1729100000000001
 30
0.0
 10
3.8609400000000003
 20
1.1729100000000001
 30
0.0
 10
3.9320600000000003
 20
0.9722500000000001
 30
0.0
 10
3.8558600000000003
 20
0.13913
 30
0.0
 10
3.8431600000000001
 20
0.7385700000000001
 30
0.0
 10
3.8431600000000001
 20
0.7385700000000001
 30
0.0
 10
3.8431600000000001
 20
0.9214500000000001
 30
0.0
 10
3.7618800000000001
 20
1.10433
 30
0.0
 10
3.6755200000000001
 20
1.27197
 30
0.0
 10
3.6755200000000001
 20
1.27197
 30
0.0
 10
3.6272600000000002
 20
0.8376300000000001
 30
0.0
 10
3.8812600000000002
 20
0.12135
 30
0.0
 10
3.3935800000000005
 20
-0.17582
 30
0.0
 10
3.3935800000000005
 20
-0.17582
 30
0.0
 10
3.3961200000000002
 20
-0.4603
 30
0.0
 10
3.8101400000000005
 20
-0.44506
 30
0.0
 10
3.9447600000000005
 20
-0.21138
 30
0.0
 10
3.9447600000000005
 20
-0.21138
 30
0.0
 10
4.0184200000000008
 20
-0.04374
 30
0.0
 10
4.0006400000000006
 20
0.22041
 30
0.0
 10
4.1733600000000006
 20
0.31947
 30
0.0
 10
4.1733600000000006
 20
0.31947
 30
0.0
 10
4.1784400000000002
 20
0.18739
 30
0.0
 10
4.0489000000000006
 20
0.03753
 30
0.0
 10
4.0616000000000003
 20
-0.12756
 30
0.0
 10
4.0616000000000003
 20
-0.12756
 30
0.0
 10
4.0666800000000007
 20
-0.27742
 30
0.0
 10
4.1759000000000004
 20
-0.34346
 30
0.0
 10
4.1733600000000006
 20
-0.49332
 30
0.0
 10
4.1733600000000006
 20
-0.49332
 30
0.0
 10
4.1733600000000006
 20
-0.49332
 30
0.0
 10
4.0108000000000006
 20
-0.34346
 30
0.0
 10
4.0108000000000006
 20
-0.34346
 30
0.0
 10
4.0108000000000006
 20
-0.34346
 30
0.0
 10
3.7999800000000001
 20
-0.49332
 30
0.0
 10
3.5053400000000003
 20
-0.59492
 30
0.0
 10
3.2767400000000002
 20
-0.3942600000000001
 30
0.0
 10
3.2767400000000002
 20
-0.3942600000000001
 30
0.0
 10
3.0278200000000002
 20
-0.5771400000000001
 30
0.0
 10
2.7306400000000002
 20
-0.4603
 30
0.0
 10
2.46394
 20
-0.49332
 30
0.0
 10
2.46394
 20
-0.49332
 30
0.0
 10
2.5223600000000004
 20
-0.2952
 30
0.0
 10
2.8144600000000004
 20
-0.4272800000000001
 30
0.0
 10
2.9440000000000004
 20
-0.3942600000000001
 30
0.0
  0
SPLINE
  5
2E
100
AcDbEntity
  8
Ebene 1
100
AcDbSpline
210
0.0
220
0.0
230
1.0
 70
     1
 71
     3
 72
    20
 73
    16
 74
     0
 42
0.0000000001
 43
0.0000000001
 40
0.0
 40
0.0
 40
0.0
 40
0.0
 40
0.25
 40
0.25
 40
0.25
 40
0.25
 40
0.5
 40
0.5
 40
0.5
 40
0.5
 40
0.75
 40
0.75
 40
0.75
 40
0.75
 40
1.0
 40
1.0
 40
1.0
 40
1.0
 10
-1.5746500000000001
 20
0.8884300000000001
 30
0.0
 10
-1.2012700000000001
 20
0.5048900000000001
 30
0.0
 10
-1.7803900000000001
 20
-0.2952
 30
0.0
 10
-1.1428500000000001
 20
-0.52634
 30
0.0
 10
-1.1428500000000001
 20
-0.52634
 30
0.0
 10
-1.1428500000000001
 20
-0.52634
 30
0.0
 10
-1.1606300000000001
 20
-0.59492
 30
0.0
 10
-1.1606300000000001
 20
-0.59492
 30
0.0
 10
-1.1606300000000001
 20
-0.59492
 30
0.0
 10
-1.3892300000000002
 20
-0.5111
 30
0.0
 10
-1.6229100000000001
 20
-0.2952
 30
0.0
 10
-1.6914900000000002
 20
-0.05898
 30
0.0
 10
-1.6914900000000002
 20
-0.05898
 30
0.0
 10
-1.63053
 20
0.25343
 30
0.0
 10
-1.5187700000000002
 20
0.5709300000000001
 30
0.0
 10
-1.5746500000000001
 20
0.8884300000000001
 30
0.0
  0
SPLINE
  5
2F
100
AcDbEntity
  8
Ebene 1
100
AcDbSpline
210
0.0
220
0.0
230
1.0
 70
     1
 71
     3
 72
    16
 73
    12
 74
     0
 42
0.0000000001
 43
0.0000000001
 40
0.0
 40
0.0
 40
0.0
 40
0.0
 40
0.3333333333333333
 40
0.3333333333333333
 40
0.3333333333333333
 40
0.3333333333333333
 40
0.6666666666666666
 40
0.6666666666666666
 40
0.6666666666666666
 40
0.6666666666666666
 40
1.0
 40
1.0
 40
1.0
 40
1.0
 10
2.1921600000000003
 20
-0.6609600000000001
 30
0.0
 10
2.4614000000000003
 20
-0.7778000000000001
 30
0.0
 10
2.4512400000000003
 20
-1.1943600000000001
 30
0.0
 10
2.4563200000000003
 20
-1.4280400000000002
 30
0.0
 10
2.4563200000000003
 20
-1.4280400000000002
 30
0.0
 10
2.4563200000000003
 20
-1.4280400000000002
 30
0.0
 10
2.1439000000000004
 20
-0.69398
 30
0.0
 10
2.1439000000000004
 20
-0.69398
 30
0.0
 10
2.1439000000000004
 20
-0.69398
 30
0.0
 10
2.1439000000000004
 20
-0.69398
 30
0.0
 10
2.1921600000000003
 20
-0.6609600000000001
 30
0.0
 10
2.1921600000000003
 20
-0.6609600000000001
 30
0.0
  0
SPLINE
  5
30
100
AcDbEntity
  8
Ebene 1
 62
     7
100
AcDbSpline
210
0.0
220
0.0
230
1.0
 70
     1
 71
     3
 72
    16
 73
    12
 74
     0
 42
0.0000000001
 43
0.0000000001
 40
0.0
 40
0.0
 40
0.0
 40
0.0
 40
0.3333333333333333
 40
0.3333333333333333
 40
0.3333333333333333
 40
0.3333333333333333
 40
0.6666666666666666
 40
0.6666666666666666
 40
0.6666666666666666
 40
0.6666666666666666
 40
1.0
 40
1.0
 40
1.0
 40
1.0
 10
4.2444800000000003
 20
-0.8616200000000001
 30
0.0
 10
4.3105200000000004
 20
-0.90988
 30
0.0
 10
4.3587800000000003
 20
-1.0927600000000002
 30
0.0
 10
4.2927400000000002
 20
-1.1791200000000002
 30
0.0
 10
4.2927400000000002
 20
-1.1791200000000002
 30
0.0
 10
4.1555800000000005
 20
-1.1943600000000001
 30
0.0
 10
4.0082599999999999
 20
-1.1791200000000002
 30
0.0
 10
3.9447600000000005
 20
-1.0445
 30
0.0
 10
3.9447600000000005
 20
-1.0445
 30
0.0
 10
4.0006400000000006
 20
-0.9606800000000001
 30
0.0
 10
4.2063800000000002
 20
-0.9937
 30
0.0
 10
4.2444800000000003
 20
-0.8616200000000001
 30
0.0
  0
SPLINE
  5
31
100
AcDbEntity
  8
Ebene 1
100
AcDbSpline
210
0.0
220
0.0
230
1.0
 70
     1
 71
     3
 72
    24
 73
    20
 74
     0
 42
0.0000000001
 43
0.0000000001
 40
0.0
 40
0.0
 40
0.0
 40
0.0
 40
0.2
 40
0.2
 40
0.2
 40
0.2
 40
0.4
 40
0.4
 40
0.4
 40
0.4
 40
0.6000000000000001
 40
0.6000000000000001
 40
0.6000000000000001
 40
0.6000000000000001
 40
0.8
 40
0.8
 40
0.8
 40
0.8
 40
1.0
 40
1.0
 40
1.0
 40
1.0
 10
3.1268800000000003
 20
-1.3950200000000001
 30
0.0
 10
3.4393000000000002
 20
-1.3289800000000001
 30
0.0
 10
3.5942400000000001
 20
-1.6769600000000002
 30
0.0
 10
3.6094800000000005
 20
-1.9462000000000002
 30
0.0
 10
3.6094800000000005
 20
-1.9462000000000002
 30
0.0
 10
3.5332800000000004
 20
-2.2281400000000002
 30
0.0
 10
3.2335600000000002
 20
-2.3780000000000001
 30
0.0
 10
3.0735400000000004
 20
-2.6116800000000002
 30
0.0
 10
3.0735400000000004
 20
-2.6116800000000002
 30
0.0
 10
3.0735400000000004
 20
-2.6116800000000002
 30
0.0
 10
2.8779600000000003
 20
-2.6447000000000003
 30
0.0
 10
2.8779600000000003
 20
-2.6447000000000003
 30
0.0
 10
2.8779600000000003
 20
-2.6447000000000003
 30
0.0
 10
2.8779600000000003
 20
-2.6447000000000003
 30
0.0
 10
2.7814400000000004
 20
-2.5939000000000001
 30
0.0
 10
2.7814400000000004
 20
-2.5939000000000001
 30
0.0
 10
2.7814400000000004
 20
-2.5939000000000001
 30
0.0
 10
2.6188800000000003
 20
-2.1951200000000002
 30
0.0
 10
2.7154000000000003
 20
-1.5956800000000002
 30
0.0
 10
3.1268800000000003
 20
-1.3950200000000001
 30
0.0
  0
SPLINE
  5
32
100
AcDbEntity
  8
Ebene 1
100
AcDbSpline
210
0.0
220
0.0
230
1.0
 70
     1
 71
     3
 72
    24
 73
    20
 74
     0
 42
0.0000000001
 43
0.0000000001
 40
0.0
 40
0.0
 40
0.0
 40
0.0
 40
0.2
 40
0.2
 40
0.2
 40
0.2
 40
0.4
 40
0.4
 40
0.4
 40
0.4
 40
0.6000000000000001
 40
0.6000000000000001
 40
0.6000000000000001
 40
0.6000000000000001
 40
0.8
 40
0.8
 40
0.8
 40
0.8
 40
1.0
 40
1.0
 40
1.0
 40
1.0
 10
1.4581000000000002
 20
-1.4280400000000002
 30
0.0
 10
1.8314800000000002
 20
-1.37724
 30
0.0
 10
2.0550000000000002
 20
-1.7099800000000001
 30
0.0
 10
2.2988400000000002
 20
-1.9614400000000001
 30
0.0
 10
2.2988400000000002
 20
-1.9614400000000001
 30
0.0
 10
2.5147400000000002
 20
-2.1621000000000001
 30
0.0
 10
2.4944200000000003
 20
-2.4770600000000003
 30
0.0
 10
2.6239600000000003
 20
-2.6955
 30
0.0
 10
2.6239600000000003
 20
-2.6955
 30
0.0
 10
2.5655400000000004
 20
-2.6624800000000004
 30
0.0
 10
2.5376000000000003
 20
-2.6777200000000003
 30
0.0
 10
2.4918800000000001
 20
-2.7107400000000004
 30
0.0
 10
2.4918800000000001
 20
-2.7107400000000004
 30
0.0
 10
1.9991200000000002
 20
-2.4440400000000002
 30
0.0
 10
1.39968
 20
-2.4440400000000002
 30
0.0
 10
0.9297800000000001
 20
-2.1265400000000003
 30
0.0
 10
0.9297800000000001
 20
-2.1265400000000003
 30
0.0
 10
0.6834
 20
-1.7277600000000002
 30
0.0
 10
1.2015600000000002
 20
-1.5601200000000002
 30
0.0
 10
1.4581000000000002
 20
-1.4280400000000002
 30
0.0
  0
SPLINE
  5
33
100
AcDbEntity
  8
Ebene 1
 62
     7
100
AcDbSpline
210
0.0
220
0.0
230
1.0
 70
     1
 71
     3
 72
    16
 73
    12
 74
     0
 42
0.0000000001
 43
0.0000000001
 40
0.0
 40
0.0
 40
0.0
 40
0.0
 40
0.3333333333333333
 40
0.3333333333333333
 40
0.3333333333333333
 40
0.3333333333333333
 40
0.6666666666666666
 40
0.6666666666666666
 40
0.6666666666666666
 40
0.6666666666666666
 40
1.0
 40
1.0
 40
1.0
 40
1.0
 10
-0.8075700000000001
 20
-2.0274800000000002
 30
0.0
 10
-0.8075700000000001
 20
-2.0274800000000002
 30
0.0
 10
-0.75931
 20
-2.0274800000000002
 30
0.0
 10
-0.75931
 20
-2.0274800000000002
 30
0.0
 10
-0.75931
 20
-2.0274800000000002
 30
0.0
 10
-0.6627900000000001
 20
-2.2129000000000003
 30
0.0
 10
-0.7085100000000001
 20
-2.4440400000000002
 30
0.0
 10
-0.7999500000000001
 20
-2.5786600000000002
 30
0.0
 10
-0.7999500000000001
 20
-2.5786600000000002
 30
0.0
 10
-0.82281
 20
-2.3957800000000002
 30
0.0
 10
-0.8609100000000001
 20
-2.2129000000000003
 30
0.0
 10
-0.8075700000000001
 20
-2.0274800000000002
 30
0.0
  0
SPLINE
  5
34
100
AcDbEntity
  8
Ebene 1
 62
     7
100
AcDbSpline
210
0.0
220
0.0
230
1.0
 70
     1
 71
     3
 72
    12
 73
     8
 74
     0
 42
0.0000000001
 43
0.0000000001
 40
0.0
 40
0.0
 40
0.0
 40
0.0
 40
0.5
 40
0.5
 40
0.5
 40
0.5
 40
1.0
 40
1.0
 40
1.0
 40
1.0
 10
4.0438200000000002
 20
-2.2459200000000004
 30
0.0
 10
4.0819200000000002
 20
-2.3449800000000001
 30
0.0
 10
4.1276400000000004
 20
-2.4948400000000004
 30
0.0
 10
4.0946199999999999
 20
-2.5939000000000001
 30
0.0
 10
4.0946199999999999
 20
-2.5939000000000001
 30
0.0
 10
4.0616000000000003
 20
-2.4948400000000004
 30
0.0
 10
3.9396800000000005
 20
-2.3272000000000004
 30
0.0
 10
4.0438200000000002
 20
-2.2459200000000004
 30
0.0
  0
SPLINE
  5
35
100
AcDbEntity
  8
Ebene 1
 62
     7
100
AcDbSpline
210
0.0
220
0.0
230
1.0
 70
     1
 71
     3
 72
    20
 73
    16
 74
     0
 42
0.0000000001
 43
0.0000000001
 40
0.0
 40
0.0
 40
0.0
 40
0.0
 40
0.25
 40
0.25
 40
0.25
 40
0.25
 40
0.5
 40
0.5
 40
0.5
 40
0.5
 40
0.75
 40
0.75
 40
0.75
 40
0.75
 40
1.0
 40
1.0
 40
1.0
 40
1.0
 10
-0.38847
 20
-2.2941800000000003
 30
0.0
 10
-0.38847
 20
-2.2941800000000003
 30
0.0
 10
-0.30973
 20
-2.2941800000000003
 30
0.0
 10
-0.30973
 20
-2.2941800000000003
 30
0.0
 10
-0.30973
 20
-2.2941800000000003
 30
0.0
 10
-0.30973
 20
-2.2941800000000003
 30
0.0
 10
-0.25639
 20
-2.3957800000000002
 30
0.0
 10
-0.25639
 20
-2.3957800000000002
 30
0.0
 10
-0.25639
 20
-2.3957800000000002
 30
0.0
 10
-0.31989
 20
-2.6116800000000002
 30
0.0
 10
-0.3960900000000001
 20
-2.8123400000000003
 30
0.0
 10
-0.44181
 20
-3.0460200000000004
 30
0.0
 10
-0.44181
 20
-3.0460200000000004
 30
0.0
 10
-0.53579
 20
-2.8301200000000004
 30
0.0
 10
-0.6297700000000001
 20
-2.4618200000000003
 30
0.0
 10
-0.38847
 20
-2.2941800000000003
 30
0.0
  0
SPLINE
  5
36
100
AcDbEntity
  8
Ebene 1
 62
     7
100
AcDbSpline
210
0.0
220
0.0
230
1.0
 70
     1
 71
     3
 72
    16
 73
    12
 74
     0
 42
0.0000000001
 43
0.0000000001
 40
0.0
 40
0.0
 40
0.0
 40
0.0
 40
0.3333333333333333
 40
0.3333333333333333
 40
0.3333333333333333
 40
0.3333333333333333
 40
0.6666666666666666
 40
0.6666666666666666
 40
0.6666666666666666
 40
0.6666666666666666
 40
1.0
 40
1.0
 40
1.0
 40
1.0
 10
-0.05573
 20
-2.5939000000000001
 30
0.0
 10
-0.05573
 20
-2.5939000000000001
 30
0.0
 10
0.03824
 20
-2.5939000000000001
 30
0.0
 10
0.03824
 20
-2.5939000000000001
 30
0.0
 10
0.03824
 20
-2.5939000000000001
 30
0.0
 10
-0.02779
 20
-2.7615400000000001
 30
0.0
 10
-0.07859
 20
-2.94442
 30
0.0
 10
-0.09129
 20
-3.1298400000000002
 30
0.0
 10
-0.09129
 20
-3.1298400000000002
 30
0.0
 10
-0.18019
 20
-2.9799800000000003
 30
0.0
 10
-0.26147
 20
-2.6624800000000004
 30
0.0
 10
-0.05573
 20
-2.5939000000000001
 30
0.0
  0
SPLINE
  5
37
100
AcDbEntity
  8
Ebene 1
 62
     7
100
AcDbSpline
210
0.0
220
0.0
230
1.0
 70
     1
 71
     3
 72
    20
 73
    16
 74
     0
 42
0.0000000001
 43
0.0000000001
 40
0.0
 40
0.0
 40
0.0
 40
0.0
 40
0.25
 40
0.25
 40
0.25
 40
0.25
 40
0.5
 40
0.5
 40
0.5
 40
0.5
 40
0.75
 40
0.75
 40
0.75
 40
0.75
 40
1.0
 40
1.0
 40
1.0
 40
1.0
 10
3.8761800000000002
 20
-2.6294600000000004
 30
0.0
 10
3.8761800000000002
 20
-2.6294600000000004
 30
0.0
 10
3.9066600000000005
 20
-2.6294600000000004
 30
0.0
 10
3.9066600000000005
 20
-2.6294600000000004
 30
0.0
 10
3.9066600000000005
 20
-2.6294600000000004
 30
0.0
 10
3.9066600000000005
 20
-2.6294600000000004
 30
0.0
 10
3.9396800000000005
 20
-2.9622000000000002
 30
0.0
 10
3.9396800000000005
 20
-2.9622000000000002
 30
0.0
 10
3.9396800000000005
 20
-2.9622000000000002
 30
0.0
 10
3.9396800000000005
 20
-2.9622000000000002
 30
0.0
 10
3.9320600000000003
 20
-3.0104600000000001
 30
0.0
 10
3.9320600000000003
 20
-3.0104600000000001
 30
0.0
 10
3.9320600000000003
 20
-3.0104600000000001
 30
0.0
 10
3.7974400000000004
 20
-2.9596600000000004
 30
0.0
 10
3.8761800000000002
 20
-2.7285200000000001
 30
0.0
 10
3.8761800000000002
 20
-2.6294600000000004
 30
0.0
  0
SPLINE
  5
38
100
AcDbEntity
  8
Ebene 1
 62
     7
100
AcDbSpline
210
0.0
220
0.0
230
1.0
 70
     1
 71
     3
 72
    12
 73
     8
 74
     0
 42
0.0000000001
 43
0.0000000001
 40
0.0
 40
0.0
 40
0.0
 40
0.0
 40
0.5
 40
0.5
 40
0.5
 40
0.5
 40
1.0
 40
1.0
 40
1.0
 40
1.0
 10
0.20842
 20
-2.7285200000000001
 30
0.0
 10
0.4725800000000001
 20
-2.7285200000000001
 30
0.0
 10
0.37098
 20
-3.0130000000000003
 30
0.0
 10
0.2617600000000001
 20
-3.1628600000000002
 30
0.0
 10
0.2617600000000001
 20
-3.1628600000000002
 30
0.0
 10
0.19572
 20
-3.0130000000000003
 30
0.0
 10
0.18048
 20
-2.8783800000000004
 30
0.0
 10
0.20842
 20
-2.7285200000000001
 30
0.0
  0
SPLINE
  5
39
100
AcDbEntity
  8
Ebene 1
100
AcDbSpline
210
0.0
220
0.0
230
1.0
 70
     1
 71
     3
 72
    16
 73
    12
 74
     0
 42
0.0000000001
 43
0.0000000001
 40
0.0
 40
0.0
 40
0.0
 40
0.0
 40
0.3333333333333333
 40
0.3333333333333333
 40
0.3333333333333333
 40
0.3333333333333333
 40
0.6666666666666666
 40
0.6666666666666666
 40
0.6666666666666666
 40
0.6666666666666666
 40
1.0
 40
1.0
 40
1.0
 40
1.0
 10
2.7281000000000004
 20
-2.8123400000000003
 30
0.0
 10
2.75604
 20
-2.8301200000000004
 30
0.0
 10
2.7763600000000004
 20
-2.8301200000000004
 30
0.0
 10
2.7916000000000003
 20
-2.8606000000000003
 30
0.0
 10
2.7916000000000003
 20
-2.8606000000000003
 30
0.0
 10
2.7916000000000003
 20
-2.8606000000000003
 30
0.0
 10
2.7738200000000002
 20
-3.9121600000000005
 30
0.0
 10
2.7738200000000002
 20
-3.9121600000000005
 30
0.0
 10
2.7738200000000002
 20
-3.9121600000000005
 30
0.0
 10
2.6620600000000003
 20
-3.5972000000000004
 30
0.0
 10
2.71286
 20
-3.1603200000000005
 30
0.0
 10
2.7281000000000004
 20
-2.8123400000000003
 30
0.0
  0
SPLINE
  5
3A
100
AcDbEntity
  8
Ebene 1
 62
     7
100
AcDbSpline
210
0.0
220
0.0
230
1.0
 70
     1
 71
     3
 72
    12
 73
     8
 74
     0
 42
0.0000000001
 43
0.0000000001
 40
0.0
 40
0.0
 40
0.0
 40
0.0
 40
0.5
 40
0.5
 40
0.5
 40
0.5
 40
1.0
 40
1.0
 40
1.0
 40
1.0
 10
1.1914
 20
-3.6632400000000005
 30
0.0
 10
1.5165200000000001
 20
-3.9121600000000005
 30
0.0
 10
1.3488800000000001
 20
-4.4125400000000008
 30
0.0
 10
1.35904
 20
-4.7452800000000002
 30
0.0
 10
1.35904
 20
-4.7452800000000002
 30
0.0
 10
1.14822
 20
-4.4633400000000005
 30
0.0
 10
0.9983600000000001
 20
-3.9782000000000002
 30
0.0
 10
1.1914
 20
-3.6632400000000005
 30
0.0
  0
SPLINE
  5
3B
100
AcDbEntity
  8
Ebene 1
 62
     7
100
AcDbSpline
210
0.0
220
0.0
230
1.0
 70
     1
 71
     3
 72
    12
 73
     8
 74
     0
 42
0.0000000001
 43
0.0000000001
 40
0.0
 40
0.0
 40
0.0
 40
0.0
 40
0.5
 40
0.5
 40
0.5
 40
0.5
 40
1.0
 40
1.0
 40
1.0
 40
1.0
 10
3.5612200000000005
 20
-3.6632400000000005
 30
0.0
 10
3.7441000000000004
 20
-3.9629600000000003
 30
0.0
 10
3.7415600000000002
 20
-4.3617400000000002
 30
0.0
 10
3.7060000000000004
 20
-4.7122600000000006
 30
0.0
 10
3.7060000000000004
 20
-4.7122600000000006
 30
0.0
 10
3.6272600000000002
 20
-4.3795200000000003
 30
0.0
 10
3.5967800000000003
 20
-4.0137600000000004
 30
0.0
 10
3.5612200000000005
 20
-3.6632400000000005
 30
0.0
  0
SPLINE
  5
3C
100
AcDbEntity
  8
Ebene 1
 62
     7
100
AcDbSpline
210
0.0
220
0.0
230
1.0
 70
     1
 71
     3
 72
    16
 73
    12
 74
     0
 42
0.0000000001
 43
0.0000000001
 40
0.0
 40
0.0
 40
0.0
 40
0.0
 40
0.3333333333333333
 40
0.3333333333333333
 40
0.3333333333333333
 40
0.3333333333333333
 40
0.6666666666666666
 40
0.6666666666666666
 40
0.6666666666666666
 40
0.6666666666666666
 40
1.0
 40
1.0
 40
1.0
 40
1.0
 10
3.4113600000000002
 20
-3.8791400000000005
 30
0.0
 10
3.5002600000000004
 20
-4.0620200000000004
 30
0.0
 10
3.5663000000000005
 20
-4.3134800000000002
 30
0.0
 10
3.5231200000000005
 20
-4.5293800000000006
 30
0.0
 10
3.5231200000000005
 20
-4.5293800000000006
 30
0.0
 10
3.5231200000000005
 20
-4.5293800000000006
 30
0.0
 10
3.4824800000000002
 20
-4.5293800000000006
 30
0.0
 10
3.4824800000000002
 20
-4.5293800000000006
 30
0.0
 10
3.4824800000000002
 20
-4.5293800000000006
 30
0.0
 10
3.4520000000000004
 20
-4.3134800000000002
 30
0.0
 10
3.3935800000000005
 20
-4.1128200000000001
 30
0.0
 10
3.4113600000000002
 20
-3.8791400000000005
 30
0.0
  0
SPLINE
  5
3D
100
AcDbEntity
  8
Ebene 1
 62
     7
100
AcDbSpline
210
0.0
220
0.0
230
1.0
 70
     1
 71
     3
 72
    16
 73
    12
 74
     0
 42
0.0000000001
 43
0.0000000001
 40
0.0
 40
0.0
 40
0.0
 40
0.0
 40
0.3333333333333333
 40
0.3333333333333333
 40
0.3333333333333333
 40
0.3333333333333333
 40
0.6666666666666666
 40
0.6666666666666666
 40
0.6666666666666666
 40
0.6666666666666666
 40
1.0
 40
1.0
 40
1.0
 40
1.0
 10
1.52668
 20
-4.0137600000000004
 30
0.0
 10
1.52668
 20
-4.0137600000000004
 30
0.0
 10
1.6232000000000002
 20
-4.0137600000000004
 30
0.0
 10
1.6232000000000002
 20
-4.0137600000000004
 30
0.0
 10
1.6232000000000002
 20
-4.0137600000000004
 30
0.0
 10
1.7552800000000002
 20
-4.2118800000000007
 30
0.0
 10
1.6740000000000002
 20
-4.4455600000000004
 30
0.0
 10
1.7070200000000002
 20
-4.6792400000000001
 30
0.0
 10
1.7070200000000002
 20
-4.6792400000000001
 30
0.0
 10
1.5647800000000001
 20
-4.4963600000000001
 30
0.0
 10
1.4606400000000002
 20
-4.22966
 30
0.0
 10
1.52668
 20
-4.0137600000000004
 30
0.0
  0
SPLINE
  5
3E
100
AcDbEntity
  8
Ebene 1
 62
     7
100
AcDbSpline
210
0.0
220
0.0
230
1.0
 70
     1
 71
     3
 72
    12
 73
     8
 74
     0
 42
0.0000000001
 43
0.0000000001
 40
0.0
 40
0.0
 40
0.0
 40
0.0
 40
0.5
 40
0.5
 40
0.5
 40
0.5
 40
1.0
 40
1.0
 40
1.0
 40
1.0
 10
3.2589600000000001
 20
-4.09504
 30
0.0
 10
3.3554800000000005
 20
-4.2957000000000001
 30
0.0
 10
3.4418400000000005
 20
-4.6132
 30
0.0
 10
3.3326200000000004
 20
-4.8291000000000004
 30
0.0
 10
3.3326200000000004
 20
-4.8291000000000004
 30
0.0
 10
3.3224600000000004
 20
-4.5801800000000004
 30
0.0
 10
3.1573600000000002
 20
-4.3287200000000006
 30
0.0
 10
3.2589600000000001
 20
-4.09504
 30
0.0
  0
SPLINE
  5
3F
100
AcDbEntity
  8
Ebene 1
 62
     7
100
AcDbSpline
210
0.0
220
0.0
230
1.0
 70
     1
 71
     3
 72
    12
 73
     8
 74
     0
 42
0.0000000001
 43
0.0000000001
 40
0.0
 40
0.0
 40
0.0
 40
0.0
 40
0.5
 40
0.5
 40
0.5
 40
0.5
 40
1.0
 40
1.0
 40
1.0
 40
1.0
 10
1.9432400000000001
 20
-4.2957000000000001
 30
0.0
 10
2.1007200000000004
 20
-4.4963600000000001
 30
0.0
 10
2.1820000000000004
 20
-4.7300400000000007
 30
0.0
 10
2.12358
 20
-4.9967400000000008
 30
0.0
 10
2.12358
 20
-4.9967400000000008
 30
0.0
 10
2.0245200000000003
 20
-4.7808400000000004
 30
0.0
 10
1.9864200000000001
 20
-4.5293800000000006
 30
0.0
 10
1.9432400000000001
 20
-4.2957000000000001
 30
0.0
  0
SPLINE
  5
40
100
AcDbEntity
  8
Ebene 1
 62
     7
100
AcDbSpline
210
0.0
220
0.0
230
1.0
 70
     1
 71
     3
 72
    16
 73
    12
 74
     0
 42
0.0000000001
 43
0.0000000001
 40
0.0
 40
0.0
 40
0.0
 40
0.0
 40
0.3333333333333333
 40
0.3333333333333333
 40
0.3333333333333333
 40
0.3333333333333333
 40
0.6666666666666666
 40
0.6666666666666666
 40
0.6666666666666666
 40
0.6666666666666666
 40
1.0
 40
1.0
 40
1.0
 40
1.0
 10
2.3598000000000003
 20
-4.3617400000000002
 30
0.0
 10
2.5782400000000001
 20
-4.5471600000000008
 30
0.0
 10
2.4233000000000002
 20
-4.9307000000000007
 30
0.0
 10
2.4055200000000001
 20
-5.1974
 30
0.0
 10
2.4055200000000001
 20
-5.1974
 30
0.0
 10
2.4055200000000001
 20
-5.1974
 30
0.0
 10
2.2759800000000001
 20
-4.4633400000000005
 30
0.0
 10
2.2759800000000001
 20
-4.4633400000000005
 30
0.0
 10
2.2759800000000001
 20
-4.4633400000000005
 30
0.0
 10
2.2759800000000001
 20
-4.4633400000000005
 30
0.0
 10
2.3598000000000003
 20
-4.3617400000000002
 30
0.0
 10
2.3598000000000003
 20
-4.3617400000000002
 30
0.0
  0
SPLINE
  5
41
100
AcDbEntity
  8
Ebene 1
 62
     7
100
AcDbSpline
210
0.0
220
0.0
230
1.0
 70
     1
 71
     3
 72
    16
 73
    12
 74
     0
 42
0.0000000001
 43
0.0000000001
 40
0.0
 40
0.0
 40
0.0
 40
0.0
 40
0.3333333333333333
 40
0.3333333333333333
 40
0.3333333333333333
 40
0.3333333333333333
 40
0.6666666666666666
 40
0.6666666666666666
 40
0.6666666666666666
 40
0.6666666666666666
 40
1.0
 40
1.0
 40
1.0
 40
1.0
 10
3.01004
 20
-4.4125400000000008
 30
0.0
 10
3.0456000000000003
 20
-4.4125400000000008
 30
0.0
 10
3.0760800000000001
 20
-4.4125400000000008
 30
0.0
 10
3.1065600000000004
 20
-4.43032
 30
0.0
 10
3.1065600000000004
 20
-4.43032
 30
0.0
 10
3.2030800000000004
 20
-4.6792400000000001
 30
0.0
 10
3.0887800000000003
 20
-4.9307000000000007
 30
0.0
 10
3.0735400000000004
 20
-5.1796200000000008
 30
0.0
 10
3.0735400000000004
 20
-5.1796200000000008
 30
0.0
 10
3.0202000000000004
 20
-4.9307000000000007
 30
0.0
 10
2.8449400000000002
 20
-4.6614600000000008
 30
0.0
 10
3.01004
 20
-4.4125400000000008
 30
0.0
  0
SPLINE
  5
42
100
AcDbEntity
  8
Ebene 1
 62
     7
100
AcDbSpline
210
0.0
220
0.0
230
1.0
 70
     1
 71
     3
 72
    12
 73
     8
 74
     0
 42
0.0000000001
 43
0.0000000001
 40
0.0
 40
0.0
 40
0.0
 40
0.0
 40
0.5
 40
0.5
 40
0.5
 40
0.5
 40
1.0
 40
1.0
 40
1.0
 40
1.0
 10
2.6595200000000001
 20
-4.4633400000000005
 30
0.0
 10
2.8678000000000003
 20
-4.6614600000000008
 30
0.0
 10
2.7789000000000001
 20
-5.0627800000000001
 30
0.0
 10
2.7916000000000003
 20
-5.3294800000000002
 30
0.0
 10
2.7916000000000003
 20
-5.3294800000000002
 30
0.0
 10
2.5731600000000001
 20
-5.0958000000000006
 30
0.0
 10
2.5731600000000001
 20
-4.7452800000000002
 30
0.0
 10
2.6595200000000001
 20
-4.4633400000000005
 30
0.0
  0
ENDSEC
  0
SECTION
  2
OBJECTS
  0
DICTIONARY
  5
19
100
AcDbDictionary
280
     0
281
     1
  3
ACAD_GROUP
350
1A
  3
ACAD_MLINESTYLE
350
1B
  3
ACAD_LAYOUT
350
1E
  3
ACAD_PLOTSETTINGS
350
22
  3
ACAD_PLOTSTYLENAME
350
1F
  3
ACAD_WIPEOUT_VARS
350
23
  0
DICTIONARY
  5
1A
102
{ACAD_REACTORS
330
19
102
}
100
AcDbDictionary
280
     0
281
     1
  0
DICTIONARY
  5
1B
102
{ACAD_REACTORS
330
19
102
}
100
AcDbDictionary
280
     0
281
     1
  3
Standard
350
1C
  0
MLINESTYLE
  5
1C
102
{ACAD_REACTORS
330
1B
102
}
100
AcDbMlineStyle
  2
Standard
 70
     0
  3

 62
     0
 51
90.0
 52
90.0
 71
     2
 49
0.5
 62
   256
  6
BYLAYER
 49
-0.5
 62
   256
  6
BYLAYER
  0
ACDBDICTIONARYWDFLT
  5
1F
102
{ACAD_REACTORS
330
19
102
}
100
AcDbDictionary
281
     1
  3
Normal
350
1D
100
AcDbDictionaryWithDefault
340
1D
  0
ACDBPLACEHOLDER
  5
1D
102
{ACAD_REACTORS
330
1F
102
}
  0
LAYOUT
  5
20
102
{ACAD_REACTORS
330
1E
102
}
100
AcDbPlotSettings
  1

  2

  4

  6

 40
0.0
 41
0.0
 42
0.0
 43
0.0
 44
0.0
 45
0.0
 46
0.0
 47
0.0
 48
0.0
 49
0.0
140
0.0
141
0.0
142
1.0
143
1.0
 70
  1024
 72
     0
 73
     0
 74
     0
  7

 75
     0
147
1.0
148
0.0
149
0.0
100
AcDbLayout
  1
Model
 70
     0
 71
     0
 10
0.0
 20
0.0
 11
0.0
 21
0.0
 12
0.0
 22
0.0
 32
0.0
 14
0.0
 24
0.0
 34
0.0
 15
0.0
 25
0.0
 35
0.0
146
0.0
 13
0.0
 23
0.0
 33
0.0
 16
0.0
 26
0.0
 36
0.0
 17
0.0
 27
0.0
 37
0.0
 76
     0
330
A
331
0
345
0
346
0
  0
LAYOUT
  5
21
102
{ACAD_REACTORS
330
1E
102
}
100
AcDbPlotSettings
  1

  2

  4

  6

 40
0.0
 41
0.0
 42
0.0
 43
0.0
 44
0.0
 45
0.0
 46
0.0
 47
0.0
 48
0.0
 49
0.0
140
0.0
141
0.0
142
1.0
143
1.0
 70
     0
 72
     0
 73
     0
 74
     0
  7

 75
     0
147
1.0
148
0.0
149
0.0
100
AcDbLayout
  1
Layout1
 70
     0
 71
     0
 10
0.0
 20
0.0
 11
0.0
 21
0.0
 12
0.0
 22
0.0
 32
0.0
 14
0.0
 24
0.0
 34
0.0
 15
0.0
 25
0.0
 35
0.0
146
0.0
 13
0.0
 23
0.0
 33
0.0
 16
0.0
 26
0.0
 36
0.0
 17
0.0
 27
0.0
 37
0.0
 76
     0
330
B
331
0
345
0
346
0
  0
DICTIONARY
  5
1E
102
{ACAD_REACTORS
330
19
102
}
100
AcDbDictionary
280
     0
281
     1
  3
Layout1
350
21
  3
Model
350
20
  0
DICTIONARY
  5
22
102
{ACAD_REACTORS
330
19
102
}
100
AcDbDictionary
280
     0
281
     1
  0
WIPEOUTVARIABLES
  5
23
100
AcDbWipeoutVariables
 70
     1
  0
ENDSEC
  0
EOF
