  0
SECTION
  2
HEADER
  9
$ACADVER
  1
AC1015
  9
$ACADMAINTVER
 70
     6
  9
$DWGCODEPAGE
  3
DOS850
  9
$INSBASE
 10
0.0
 20
0.0
 30
0.0
  9
$EXTMIN
 10
-5.96026
 20
-5.30662
 30
1.000000E+20
  9
$EXTMAX
 10
5.96645
 20
5.29918
 30
-1.000000E+20
  9
$LIMMIN
 10
0.0
 20
0.0
  9
$LIMMAX
 10
0.0
 20
0.0
  9
$ORTHOMODE
 70
     0
  9
$REGENMODE
 70
     1
  9
$FILLMODE
 70
     1
  9
$QTEXTMODE
 70
     0
  9
$MIRRTEXT
 70
     1
  9
$LTSCALE
 40
1.0
  9
$ATTMODE
 70
     1
  9
$TEXTSIZE
 40
0.2
  9
$TRACEWID
 40
0.05
  9
$TEXTSTYLE
  7
Standard
  9
$CLAYER
  8
0
  9
$CELTYPE
  6
Continuous
  9
$CECOLOR
 62
   256
  9
$CELTSCALE
 40
1.0
  9
$DISPSILH
 70
     0
  9
$DIMSCALE
 40
1.0
  9
$DIMASZ
 40
0.18
  9
$DIMEXO
 40
0.0625
  9
$DIMDLI
 40
0.38
  9
$DIMRND
 40
0.0
  9
$DIMDLE
 40
0.0
  9
$DIMEXE
 40
0.18
  9
$DIMTP
 40
0.0
  9
$DIMTM
 40
0.0
  9
$DIMTXT
 40
0.18
  9
$DIMCEN
 40
0.09
  9
$DIMTSZ
 40
0.0
  9
$DIMTOL
 70
     0
  9
$DIMLIM
 70
     0
  9
$DIMTIH
 70
     1
  9
$DIMTOH
 70
     1
  9
$DIMSE1
 70
     0
  9
$DIMSE2
 70
     0
  9
$DIMTAD
 70
     0
  9
$DIMZIN
 70
     0
  9
$DIMBLK
  1

  9
$DIMASO
 70
     1
  9
$DIMSHO
 70
     1
  9
$DIMPOST
  1

  9
$DIMAPOST
  1

  9
$DIMALT
 70
     0
  9
$DIMALTD
 70
     2
  9
$DIMALTF
 40
25.4
  9
$DIMLFAC
 40
1.0
  9
$DIMTOFL
 70
     0
  9
$DIMTVP
 40
0.0
  9
$DIMTIX
 70
     0
  9
$DIMSOXD
 70
     0
  9
$DIMSAH
 70
     0
  9
$DIMBLK1
  1

  9
$DIMBLK2
  1

  9
$DIMSTYLE
  2
Standard
  9
$DIMCLRD
 70
     0
  9
$DIMCLRE
 70
     0
  9
$DIMCLRT
 70
     0
  9
$DIMTFAC
 40
1.0
  9
$DIMGAP
 40
0.09
  9
$DIMJUST
 70
     0
  9
$DIMSD1
 70
     0
  9
$DIMSD2
 70
     0
  9
$DIMTOLJ
 70
     1
  9
$DIMTZIN
 70
     0
  9
$DIMALTZ
 70
     0
  9
$DIMALTTZ
 70
     0
  9
$DIMUPT
 70
     0
  9
$DIMDEC
 70
     4
  9
$DIMTDEC
 70
     4
  9
$DIMALTU
 70
     2
  9
$DIMALTTD
 70
     2
  9
$DIMTXSTY
  7
Standard
  9
$DIMAUNIT
 70
     0
  9
$DIMADEC
 70
     0
  9
$DIMALTRND
 40
0.0
  9
$DIMAZIN
 70
     0
  9
$DIMDSEP
 70
     0
  9
$DIMATFIT
 70
     3
  9
$DIMFRAC
 70
     0
  9
$DIMLDRBLK
  1

  9
$DIMLUNIT
 70
     2
  9
$DIMLWD
 70
     0
  9
$DIMLWE
 70
     0
  9
$DIMTMOVE
 70
     0
  9
$LUNITS
 70
     2
  9
$LUPREC
 70
     4
  9
$SKETCHINC
 40
0.1
  9
$FILLETRAD
 40
0.0
  9
$AUNITS
 70
     0
  9
$AUPREC
 70
     0
  9
$MENU
  1
acad
  9
$ELEVATION
 40
0.0
  9
$PELEVATION
 40
0.0
  9
$THICKNESS
 40
0.0
  9
$LIMCHECK
 70
     0
  9
$CHAMFERA
 40
0.0
  9
$CHAMFERB
 40
0.0
  9
$CHAMFERC
 40
0.0
  9
$CHAMFERD
 40
0.0
  9
$SKPOLY
 70
     0
  9
$TDCREATE
 40
0.000000000
  9
$TDUCREATE
 40
0.000000000
  9
$TDUPDATE
 40
0.000000000
  9
$TDUUPDATE
 40
0.000000000
  9
$TDINDWG
 40
0.0000000000
  9
$TDUSRTIMER
 40
0.0000000000
  9
$USRTIMER
 70
     1
  9
$ANGBASE
 50
0.0
  9
$ANGDIR
 70
     0
  9
$PDMODE
 70
     0
  9
$PDSIZE
 40
0.0
  9
$PLINEWID
 40
0.0
  9
$SPLFRAME
 70
     0
  9
$SPLINETYPE
 70
     6
  9
$SPLINESEGS
 70
     8
  9
$HANDSEED
  5
34
  9
$SURFTAB1
 70
     6
  9
$SURFTAB2
 70
     6
  9
$SURFTYPE
 70
     6
  9
$SURFU
 70
     6
  9
$SURFV
 70
     6
  9
$UCSBASE
  2

  9
$UCSNAME
  2

  9
$UCSORG
 10
0.0
 20
0.0
 30
0.0
  9
$UCSXDIR
 10
1.0
 20
0.0
 30
0.0
  9
$UCSYDIR
 10
0.0
 20
1.0
 30
0.0
  9
$UCSORTHOREF
  2

  9
$UCSORTHOVIEW
 70
     0
  9
$UCSORGTOP
 10
0.0
 20
0.0
 30
0.0
  9
$UCSORGBOTTOM
 10
0.0
 20
0.0
 30
0.0
  9
$UCSORGLEFT
 10
0.0
 20
0.0
 30
0.0
  9
$UCSORGRIGHT
 10
0.0
 20
0.0
 30
0.0
  9
$UCSORGFRONT
 10
0.0
 20
0.0
 30
0.0
  9
$UCSORGBACK
 10
0.0
 20
0.0
 30
0.0
  9
$PUCSBASE
  2

  9
$PUCSNAME
  2

  9
$PUCSORG
 10
0.0
 20
0.0
 30
0.0
  9
$PUCSXDIR
 10
1.0
 20
0.0
 30
0.0
  9
$PUCSYDIR
 10
0.0
 20
1.0
 30
0.0
  9
$PUCSORTHOREF
  2

  9
$PUCSORTHOVIEW
 70
     0
  9
$PUCSORGTOP
 10
0.0
 20
0.0
 30
0.0
  9
$PUCSORGBOTTOM
 10
0.0
 20
0.0
 30
0.0
  9
$PUCSORGLEFT
 10
0.0
 20
0.0
 30
0.0
  9
$PUCSORGRIGHT
 10
0.0
 20
0.0
 30
0.0
  9
$PUCSORGFRONT
 10
0.0
 20
0.0
 30
0.0
  9
$PUCSORGBACK
 10
0.0
 20
0.0
 30
0.0
  9
$USERI1
 70
     0
  9
$USERI2
 70
     0
  9
$USERI3
 70
     0
  9
$USERI4
 70
     0
  9
$USERI5
 70
     0
  9
$USERR1
 40
0.0
  9
$USERR2
 40
0.0
  9
$USERR3
 40
0.0
  9
$USERR4
 40
0.0
  9
$USERR5
 40
0.0
  9
$WORLDVIEW
 70
     1
  9
$SHADEDGE
 70
     3
  9
$SHADEDIF
 70
    70
  9
$TILEMODE
 70
     1
  9
$MAXACTVP
 70
    16
  9
$PINSBASE
 10
0.0
 20
0.0
 30
0.0
  9
$PLIMCHECK
 70
     0
  9
$PEXTMIN
 10
1.000000E+20
 20
1.000000E+20
 30
1.000000E+20
  9
$PEXTMAX
 10
-1.000000E+20
 20
-1.000000E+20
 30
-1.000000E+20
  9
$PLIMMIN
 10
0.0
 20
0.0
  9
$PLIMMAX
 10
12.0
 20
9.0
  9
$UNITMODE
 70
     0
  9
$VISRETAIN
 70
     0
  9
$PLINEGEN
 70
     1
  9
$PSLTSCALE
 70
     0
  9
$TREEDEPTH
 70
  3020
  9
$CMLSTYLE
  2
Standard
  9
$CMLJUST
 70
     0
  9
$CMLSCALE
 40
1.0
  9
$PROXYGRAPHICS
 70
     0
  9
$MEASUREMENT
 70
     0
  9
$CELWEIGHT
370
     0
  9
$ENDCAPS
280
     0
  9
$JOINSTYLE
280
     0
  9
$LWDISPLAY
290
     0
  9
$INSUNITS
 70
     5
  9
$HYPERLINKBASE
  1

  9
$XEDIT
290
     1
  9
$CEPSNTYPE
380
     0
  9
$PSTYLEMODE
290
     1
  9
$FINGERPRINTGUID
  2

  9
$VERSIONGUID
  2

  9
$EXTNAMES
290
     1
  9
$PSVPSCALE
 40
0.0
  0
ENDSEC
  0
SECTION
  2
CLASSES
  0
CLASS
  1
LWPOLYLINE
  2
AcDbPolyline
  3
AutoCAD 2000
 90
    32768
280
     0
281
     1
  0
CLASS
  1
IMAGE
  2
AcDbRasterImage
  3
ISM
 90
    32895
280
     0
281
     1
  0
CLASS
  1
OLE2FRAME
  2
AcDbOle2Frame
  3
AutoCAD 2000
 90
    32768
280
     0
281
     1
  0
CLASS
  1
HATCH
  2
AcDbHatch
  3
AutoCAD 2000
 90
    32768
280
     0
281
     1
  0
CLASS
  1
DICTIONARYVAR
  2
AcDbDictionaryVar
  3
AutoCAD 2000
 90
    32768
280
     0
281
     0
  0
CLASS
  1
RASTERVARIABLES
  2
AcDbRasterVariables
  3
ISM
 90
    32768
280
     0
281
     0
  0
CLASS
  1
IMAGEDEF
  2
AcDbRasterImageDef
  3
ISM
 90
    32768
280
     0
281
     0
  0
CLASS
  1
IMAGEDEF_REACTOR
  2
AcDbRasterImageDefReactor
  3
ISM
 90
    32769
280
     0
281
     0
  0
CLASS
  1
IDBUFFER
  2
AcDbIdBuffer
  3
AutoCAD 2000
 90
    32768
280
     0
281
     0
  0
CLASS
  1
SPATIAL_FILTER
  2
AcDbSpatialFilter
  3
AutoCAD 2000
 90
    32768
280
     0
281
     0
  0
CLASS
  1
XRECORD
  2
AcDbXrecord
  3
AutoCAD 2000
 90
    32768
280
     0
281
     0
  0
CLASS
  1
SORTENTSTABLE
  2
AcDbSortentsTable
  3
AutoCAD 2000
 90
    32768
280
     0
281
     0
  0
CLASS
  1
LAYER_INDEX
  2
AcDbLayerIndex
  3
AutoCAD 2000
 90
    32768
280
     0
281
     0
  0
CLASS
  1
SPATIAL_INDEX
  2
AcDbSpatialIndex
  3
AutoCAD 2000
 90
    32768
280
     0
281
     0
  0
CLASS
  1
OBJECT_PTR
  2
CAseDLPNTableRecord
  3
"ASE-LPNTableRecord"
 90
    32769
280
     0
281
     0
  0
CLASS
  1
LAYOUT
  2
AcDbLayout
  3
AutoCAD 2000
 90
        0
280
     0
281
     0
  0
CLASS
  1
PLOTSETTINGS
  2
AcDbPlotSettings
  3
AutoCAD 2000
 90
    32768
280
     0
281
     0
  0
CLASS
  1
ACDBDICTIONARYWDFLT
  2
AcDbDictionaryWithDefault
  3
AutoCAD 2000
 90
        0
280
     0
281
     0
  0
CLASS
  1
ACDBPLACEHOLDER
  2
AcDbPlaceHolder
  3
AutoCAD 2000
 90
        0
280
     0
281
     0
  0
CLASS
  1
VBA_PROJECT
  2
AcDbVbaProject
  3
acadvba
 90
    32768
280
     0
281
     0
  0
CLASS
  1
WIPEOUT
  2
AcDbWipeout
  3
WipeOut|AutoCAD Express Tool|expresstools@autodesk.com
 90
    32895
280
     0
281
     1
  0
CLASS
  1
WIPEOUTVARIABLES
  2
AcDbWipeoutVariables
  3
WipeOut|AutoCAD Express Tool|expresstools@autodesk.com
 90
        0
280
     0
281
     0
  0
CLASS
  1
RTEXT
  2
RText
  3
RText|AutoCAD Express Tool|expresstools@autodesk.com
 90
    32768
280
     0
281
     1
  0
CLASS
  1
ARCALIGNEDTEXT
  2
AcDbArcAlignedText
  3
ATEXT|AutoCAD Express Tool|expresstools@autodesk.com
 90
    32768
280
     0
281
     1
  0
ENDSEC
  0
SECTION
  2
TABLES
  0
TABLE
  2
VPORT
  5
7
100
AcDbSymbolTable
 70
     1
  0
VPORT
  5
15
100
AcDbSymbolTableRecord
100
AcDbViewportTableRecord
  2
*ACTIVE
 70
     0
 10
0.0
 20
0.0
 11
1.0
 21
1.0
 12
6.591288
 22
4.579184
 13
0.0
 23
0.0
 14
1.0
 24
1.0
 15
0.0
 25
0.0
 16
0.0
 26
0.0
 36
1.0
 17
0.0
 27
0.0
 37
0.0
 40
9.158369
 41
0.688564
 42
50.0
 43
0.0
 44
0.0
 50
0.0
 51
0.0
 71
     0
 72
   100
 73
     1
 74
     1
 75
     0
 76
     0
 77
     0
 78
     0
281
     0
 65
     0
110
0.0
120
0.0
130
0.0
111
1.0
121
0.0
131
0.0
112
0.0
122
1.0
132
0.0
345
0
346
0
 79
     0
146
0.0
  0
ENDTAB
  0
TABLE
  2
LTYPE
  5
4
100
AcDbSymbolTable
 70
     3
  0
LTYPE
  5
11
100
AcDbSymbolTableRecord
100
AcDbLinetypeTableRecord
  2
ByBlock
 70
    64
  3

 72
    65
 73
     0
 40
0.0
  0
LTYPE
  5
12
100
AcDbSymbolTableRecord
100
AcDbLinetypeTableRecord
  2
ByLayer
 70
    64
  3

 72
    65
 73
     0
 40
0.0
  0
LTYPE
  5
13
100
AcDbSymbolTableRecord
100
AcDbLinetypeTableRecord
  2
Continuous
 70
    64
  3
Solid line
 72
    65
 73
     0
 40
0.0
  0
ENDTAB
  0
TABLE
  2
LAYER
  5
2
100
AcDbSymbolTable
 70
     2
  0
LAYER
  5
14
100
AcDbSymbolTableRecord
100
AcDbLayerTableRecord
  2
0
 70
     0
 62
     7
  6
Continuous
290
     1
370
    -3
390
1D
  0
LAYER
  5
24
100
AcDbSymbolTableRecord
100
AcDbLayerTableRecord
  2
Ebene 1
 70
     0
 62
     7
  6
Continuous
290
     1
370
    -3
390
1F
  0
ENDTAB
  0
TABLE
  2
STYLE
  5
3
100
AcDbSymbolTable
 70
     1
  0
STYLE
  5
17
100
AcDbSymbolTableRecord
100
AcDbTextStyleTableRecord
  2
Standard
 70
     0
 40
0.0
 41
1.0
 50
0.0
 71
     0
 42
0.0
  3
txt
  4

  0
ENDTAB
  0
TABLE
  2
VIEW
  5
5
100
AcDbSymbolTable
 70
     0
  0
ENDTAB
  0
TABLE
  2
UCS
  5
6
100
AcDbSymbolTable
 70
     0
  0
ENDTAB
  0
TABLE
  2
APPID
  5
8
100
AcDbSymbolTable
 70
     1
  0
APPID
  5
16
100
AcDbSymbolTableRecord
100
AcDbRegAppTableRecord
  2
ACAD
 70
     0
  0
ENDTAB
  0
TABLE
  2
DIMSTYLE
  5
9
100
AcDbSymbolTable
 70
     1
100
AcDbDimStyleTable
 71
     0
  0
DIMSTYLE
105
18
100
AcDbSymbolTableRecord
100
AcDbDimStyleTableRecord
  2
Standard
 70
     0
  3

  4

 40
1.0
 41
0.18
 42
0.0625
 43
0.38
 44
0.18
 45
0.0
 46
0.0
 47
0.0
 48
0.0
 71
     0
 72
     0
 73
     1
 74
     1
 75
     0
 76
     0
 77
     0
 78
     0
 79
     0
140
0.18
141
0.09
142
0.0
143
25.4
144
1.0
145
0.0
146
1.0
147
0.09
148
0.0
170
     0
171
     2
172
     0
173
     0
174
     0
175
     0
176
     0
177
     0
178
     0
179
     0
271
     4
272
     4
273
     2
274
     2
275
     0
276
     0
277
     2
278
    46
279
     0
280
     0
281
     0
282
     0
283
     1
284
     0
285
     0
286
     0
288
     0
340
17
341
0
342
0
343
0
344
0
371
    -2
372
    -2
  0
ENDTAB
  0
TABLE
  2
BLOCK_RECORD
  5
1
100
AcDbSymbolTable
 70
     0
  0
BLOCK_RECORD
  5
A
100
AcDbSymbolTableRecord
100
AcDbBlockTableRecord
  2
*MODEL_SPACE
340
20
  0
BLOCK_RECORD
  5
B
100
AcDbSymbolTableRecord
100
AcDbBlockTableRecord
  2
*PAPER_SPACE
340
21
  0
ENDTAB
  0
ENDSEC
  0
SECTION
  2
BLOCKS
  0
BLOCK
  5
D
100
AcDbEntity
  8
0
100
AcDbBlockBegin
  2
*MODEL_SPACE
 70
     0
 10
0.0
 20
0.0
 30
0.0
  3
*MODEL_SPACE
  1

  0
ENDBLK
  5
E
100
AcDbEntity
  8
0
100
AcDbBlockEnd
  0
BLOCK
  5
F
100
AcDbEntity
 67
     1
  8
0
100
AcDbBlockBegin
  2
*PAPER_SPACE
 70
     0
 10
0.0
 20
0.0
 30
0.0
  3
*PAPER_SPACE
  1

  0
ENDBLK
  5
10
100
AcDbEntity
 67
     1
  8
0
100
AcDbBlockEnd
  0
ENDSEC
  0
SECTION
  2
ENTITIES
  0
SPLINE
  5
25
100
AcDbEntity
  8
Ebene 1
100
AcDbSpline
210
0.0
220
0.0
230
1.0
 70
     1
 71
     3
 72
    88
 73
    84
 74
     0
 42
0.0000000001
 43
0.0000000001
 40
0.0
 40
0.0
 40
0.0
 40
0.0
 40
0.0476190476190476
 40
0.0476190476190476
 40
0.0476190476190476
 40
0.0476190476190476
 40
0.0952380952380952
 40
0.0952380952380952
 40
0.0952380952380952
 40
0.0952380952380952
 40
0.1428571428571429
 40
0.1428571428571429
 40
0.1428571428571429
 40
0.1428571428571429
 40
0.1904761904761905
 40
0.1904761904761905
 40
0.1904761904761905
 40
0.1904761904761905
 40
0.2380952380952381
 40
0.2380952380952381
 40
0.2380952380952381
 40
0.2380952380952381
 40
0.2857142857142857
 40
0.2857142857142857
 40
0.2857142857142857
 40
0.2857142857142857
 40
0.3333333333333333
 40
0.3333333333333333
 40
0.3333333333333333
 40
0.3333333333333333
 40
0.3809523809523809
 40
0.3809523809523809
 40
0.3809523809523809
 40
0.3809523809523809
 40
0.4285714285714286
 40
0.4285714285714286
 40
0.4285714285714286
 40
0.4285714285714286
 40
0.4761904761904762
 40
0.4761904761904762
 40
0.4761904761904762
 40
0.4761904761904762
 40
0.5238095238095237
 40
0.5238095238095237
 40
0.5238095238095237
 40
0.5238095238095237
 40
0.5714285714285714
 40
0.5714285714285714
 40
0.5714285714285714
 40
0.5714285714285714
 40
0.6190476190476191
 40
0.6190476190476191
 40
0.6190476190476191
 40
0.6190476190476191
 40
0.6666666666666667
 40
0.6666666666666667
 40
0.6666666666666667
 40
0.6666666666666667
 40
0.7142857142857144
 40
0.7142857142857144
 40
0.7142857142857144
 40
0.7142857142857144
 40
0.7619047619047621
 40
0.7619047619047621
 40
0.7619047619047621
 40
0.7619047619047621
 40
0.8095238095238098
 40
0.8095238095238098
 40
0.8095238095238098
 40
0.8095238095238098
 40
0.8571428571428574
 40
0.8571428571428574
 40
0.8571428571428574
 40
0.8571428571428574
 40
0.9047619047619051
 40
0.9047619047619051
 40
0.9047619047619051
 40
0.9047619047619051
 40
0.9523809523809528
 40
0.9523809523809528
 40
0.9523809523809528
 40
0.9523809523809528
 40
1.0
 40
1.0
 40
1.0
 40
1.0
 10
-4.8487100000000005
 20
0.9316100000000001
 30
0.0
 10
-4.9630100000000006
 20
1.3430900000000001
 30
0.0
 10
-4.4727900000000007
 20
1.6275700000000002
 30
0.0
 10
-4.5337500000000004
 20
2.04921
 30
0.0
 10
-4.5337500000000004
 20
2.04921
 30
0.0
 10
-5.2297100000000007
 20
1.9476100000000001
 30
0.0
 10
-6.3650900000000004
 20
2.8137500000000002
 30
0.0
 10
-5.2398700000000007
 20
3.2099900000000003
 30
0.0
 10
-5.2398700000000007
 20
3.2099900000000003
 30
0.0
 10
-5.2398700000000007
 20
3.2099900000000003
 30
0.0
 10
-5.0493700000000006
 20
3.3293700000000004
 30
0.0
 10
-5.0493700000000006
 20
3.3293700000000004
 30
0.0
 10
-5.0493700000000006
 20
3.3293700000000004
 30
0.0
 10
-5.3846500000000006
 20
3.7332300000000003
 30
0.0
 10
-6.2355500000000008
 20
4.0024700000000006
 30
0.0
 10
-5.8723300000000007
 20
4.6857300000000004
 30
0.0
 10
-5.8723300000000007
 20
4.6857300000000004
 30
0.0
 10
-5.7580300000000006
 20
4.9041700000000006
 30
0.0
 10
-5.5675300000000005
 20
5.0819700000000001
 30
0.0
 10
-5.3414700000000002
 20
5.1835700000000005
 30
0.0
 10
-5.3414700000000002
 20
5.1835700000000005
 30
0.0
 10
-3.7514300000000005
 20
5.5213900000000002
 30
0.0
 10
-2.1232900000000003
 20
5.0565700000000007
 30
0.0
 10
-0.59421
 20
4.6044500000000008
 30
0.0
 10
-0.59421
 20
4.6044500000000008
 30
0.0
 10
0.09412
 20
3.7281500000000003
 30
0.0
 10
1.0872600000000001
 20
3.2074500000000001
 30
0.0
 10
1.9203800000000002
 20
2.4759300000000004
 30
0.0
 10
1.9203800000000002
 20
2.4759300000000004
 30
0.0
 10
2.12866
 20
2.1152500000000001
 30
0.0
 10
1.8137000000000001
 20
1.7037700000000002
 30
0.0
 10
2.0346800000000003
 20
1.3964300000000001
 30
0.0
 10
2.0346800000000003
 20
1.3964300000000001
 30
0.0
 10
2.5401400000000001
 20
1.06623
 30
0.0
 10
3.4367600000000005
 20
0.9671700000000001
 30
0.0
 10
3.5256600000000002
 20
0.23565
 30
0.0
 10
3.5256600000000002
 20
0.23565
 30
0.0
 10
4.5696000000000003
 20
-0.4044200000000001
 30
0.0
 10
5.2046000000000001
 20
-1.4864600000000001
 30
0.0
 10
5.9259600000000008
 20
-2.4389600000000002
 30
0.0
 10
5.9259600000000008
 20
-2.4389600000000002
 30
0.0
 10
5.9920000000000009
 20
-2.6497800000000002
 30
0.0
 10
5.9615200000000002
 20
-2.8682200000000004
 30
0.0
 10
5.9437400000000009
 20
-3.0765000000000002
 30
0.0
 10
5.9437400000000009
 20
-3.0765000000000002
 30
0.0
 10
5.2350800000000008
 20
-2.5431000000000004
 30
0.0
 10
4.3105200000000004
 20
-2.2560800000000003
 30
0.0
 10
3.4393000000000002
 20
-2.01478
 30
0.0
 10
3.4393000000000002
 20
-2.01478
 30
0.0
 10
3.2310200000000004
 20
-2.1646400000000003
 30
0.0
 10
3.0329000000000002
 20
-2.3399000000000001
 30
0.0
 10
2.7839800000000001
 20
-2.4110200000000002
 30
0.0
 10
2.7839800000000001
 20
-2.4110200000000002
 30
0.0
 10
3.0227400000000002
 20
-1.8649200000000001
 30
0.0
 10
2.71286
 20
-1.5702800000000001
 30
0.0
 10
2.1820000000000004
 20
-1.3442200000000002
 30
0.0
 10
2.1820000000000004
 20
-1.3442200000000002
 30
0.0
 10
1.61304
 20
-0.8032
 30
0.0
 10
0.9069200000000001
 20
-1.0572000000000001
 30
0.0
 10
0.57418
 20
-1.6541000000000001
 30
0.0
 10
0.57418
 20
-1.6541000000000001
 30
0.0
 10
0.5208400000000001
 20
-1.4128000000000001
 30
0.0
 10
0.5005200000000001
 20
-1.1054600000000001
 30
0.0
 10
0.64276
 20
-0.84384
 30
0.0
 10
0.64276
 20
-0.84384
 30
0.0
 10
0.4167
 20
-0.8082800000000001
 30
0.0
 10
0.0484
 20
-0.7016000000000001
 30
0.0
 10
-0.11161
 20
-0.7981200000000001
 30
0.0
 10
-0.11161
 20
-0.7981200000000001
 30
0.0
 10
-0.37069
 20
-1.7455400000000001
 30
0.0
 10
0.13476
 20
-2.7488400000000004
 30
0.0
 10
0.277
 20
-3.7216600000000004
 30
0.0
 10
0.277
 20
-3.7216600000000004
 30
0.0
 10
0.43702
 20
-4.2322000000000006
 30
0.0
 10
0.63768
 20
-4.78592
 30
0.0
 10
0.6961000000000001
 20
-5.3066200000000006
 30
0.0
 10
0.6961000000000001
 20
-5.3066200000000006
 30
0.0
 10
0.19572
 20
-4.9764200000000001
 30
0.0
 10
-0.44181
 20
-4.5573200000000007
 30
0.0
 10
-1.0234700000000001
 20
-4.2245800000000004
 30
0.0
 10
-1.0234700000000001
 20
-4.2245800000000004
 30
0.0
 10
-1.29271
 20
-2.9647400000000004
 30
0.0
 10
-3.7946100000000005
 20
0.33471
 30
0.0
 10
-4.8487100000000005
 20
0.9316100000000001
 30
0.0
  0
SPLINE
  5
26
100
AcDbEntity
  8
Ebene 1
100
AcDbSpline
210
0.0
220
0.0
230
1.0
 70
     1
 71
     3
 72
    20
 73
    16
 74
     0
 42
0.0000000001
 43
0.0000000001
 40
0.0
 40
0.0
 40
0.0
 40
0.0
 40
0.25
 40
0.25
 40
0.25
 40
0.25
 40
0.5
 40
0.5
 40
0.5
 40
0.5
 40
0.75
 40
0.75
 40
0.75
 40
0.75
 40
1.0
 40
1.0
 40
1.0
 40
1.0
 10
-1.1936500000000001
 20
0.01721
 30
0.0
 10
-1.1936500000000001
 20
0.01721
 30
0.0
 10
-1.4476500000000001
 20
0.12643
 30
0.0
 10
-1.4476500000000001
 20
0.12643
 30
0.0
 10
-1.4476500000000001
 20
0.12643
 30
0.0
 10
-1.5949700000000002
 20
-0.092
 30
0.0
 10
-1.3511300000000002
 20
-0.27488
 30
0.0
 10
-1.1733300000000002
 20
-0.3637800000000001
 30
0.0
 10
-1.1733300000000002
 20
-0.3637800000000001
 30
0.0
 10
-1.1733300000000002
 20
-0.3637800000000001
 30
0.0
 10
-1.1072900000000001
 20
-0.16058
 30
0.0
 10
-1.1072900000000001
 20
-0.16058
 30
0.0
 10
-1.1072900000000001
 20
-0.16058
 30
0.0
 10
-1.0590300000000001
 20
-0.0666
 30
0.0
 10
-1.08443
 20
-0.01326
 30
0.0
 10
-1.1936500000000001
 20
0.01721
 30
0.0
  0
SPLINE
  5
27
100
AcDbEntity
  8
Ebene 1
100
AcDbSpline
210
0.0
220
0.0
230
1.0
 70
     1
 71
     3
 72
    16
 73
    12
 74
     0
 42
0.0000000001
 43
0.0000000001
 40
0.0
 40
0.0
 40
0.0
 40
0.0
 40
0.3333333333333333
 40
0.3333333333333333
 40
0.3333333333333333
 40
0.3333333333333333
 40
0.6666666666666666
 40
0.6666666666666666
 40
0.6666666666666666
 40
0.6666666666666666
 40
1.0
 40
1.0
 40
1.0
 40
1.0
 10
-2.35189
 20
0.60141
 30
0.0
 10
-2.69733
 20
0.45917
 30
0.0
 10
-2.73543
 20
-0.08692
 30
0.0
 10
-2.2934700000000001
 20
-0.17328
 30
0.0
 10
-2.2934700000000001
 20
-0.17328
 30
0.0
 10
-2.1918700000000002
 20
0.05023
 30
0.0
 10
-2.31379
 20
0.28645
 30
0.0
 10
-2.1994900000000004
 20
0.5226700000000001
 30
0.0
 10
-2.1994900000000004
 20
0.5226700000000001
 30
0.0
 10
-2.1994900000000004
 20
0.5226700000000001
 30
0.0
 10
-2.35189
 20
0.60141
 30
0.0
 10
-2.35189
 20
0.60141
 30
0.0
  0
SPLINE
  5
28
100
AcDbEntity
  8
Ebene 1
100
AcDbSpline
210
0.0
220
0.0
230
1.0
 70
     1
 71
     3
 72
    20
 73
    16
 74
     0
 42
0.0000000001
 43
0.0000000001
 40
0.0
 40
0.0
 40
0.0
 40
0.0
 40
0.25
 40
0.25
 40
0.25
 40
0.25
 40
0.5
 40
0.5
 40
0.5
 40
0.5
 40
0.75
 40
0.75
 40
0.75
 40
0.75
 40
1.0
 40
1.0
 40
1.0
 40
1.0
 10
-0.5002300000000001
 20
-3.1730200000000002
 30
0.0
 10
-0.6831100000000001
 20
-2.5888200000000001
 30
0.0
 10
-0.7288300000000001
 20
-1.8420600000000003
 30
0.0
 10
-1.20635
 20
-1.4255000000000002
 30
0.0
 10
-1.20635
 20
-1.4255000000000002
 30
0.0
 10
-1.33335
 20
-0.95052
 30
0.0
 10
-1.7803900000000001
 20
-0.6254000000000001
 30
0.0
 10
-2.1156700000000002
 20
-0.34092
 30
0.0
 10
-2.1156700000000002
 20
-0.34092
 30
0.0
 10
-2.1613900000000004
 20
-0.4145800000000001
 30
0.0
 10
-2.2198100000000003
 20
-0.46538
 30
0.0
 10
-2.2401300000000002
 20
-0.55428
 30
0.0
 10
-2.2401300000000002
 20
-0.55428
 30
0.0
 10
-1.6432300000000002
 20
-1.4001000000000001
 30
0.0
 10
-1.1784100000000002
 20
-2.3627600000000002
 30
0.0
 10
-0.5002300000000001
 20
-3.1730200000000002
 30
0.0
  0
SPLINE
  5
29
100
AcDbEntity
  8
Ebene 1
 62
     7
100
AcDbSpline
210
0.0
220
0.0
230
1.0
 70
     1
 71
     3
 72
   220
 73
   216
 74
     0
 42
0.0000000001
 43
0.0000000001
 40
0.0
 40
0.0
 40
0.0
 40
0.0
 40
0.0185185185185185
 40
0.0185185185185185
 40
0.0185185185185185
 40
0.0185185185185185
 40
0.037037037037037
 40
0.037037037037037
 40
0.037037037037037
 40
0.037037037037037
 40
0.0555555555555556
 40
0.0555555555555556
 40
0.0555555555555556
 40
0.0555555555555556
 40
0.0740740740740741
 40
0.0740740740740741
 40
0.0740740740740741
 40
0.0740740740740741
 40
0.0925925925925926
 40
0.0925925925925926
 40
0.0925925925925926
 40
0.0925925925925926
 40
0.1111111111111111
 40
0.1111111111111111
 40
0.1111111111111111
 40
0.1111111111111111
 40
0.1296296296296296
 40
0.1296296296296296
 40
0.1296296296296296
 40
0.1296296296296296
 40
0.1481481481481481
 40
0.1481481481481481
 40
0.1481481481481481
 40
0.1481481481481481
 40
0.1666666666666667
 40
0.1666666666666667
 40
0.1666666666666667
 40
0.1666666666666667
 40
0.1851851851851852
 40
0.1851851851851852
 40
0.1851851851851852
 40
0.1851851851851852
 40
0.2037037037037037
 40
0.2037037037037037
 40
0.2037037037037037
 40
0.2037037037037037
 40
0.2222222222222222
 40
0.2222222222222222
 40
0.2222222222222222
 40
0.2222222222222222
 40
0.2407407407407407
 40
0.2407407407407407
 40
0.2407407407407407
 40
0.2407407407407407
 40
0.2592592592592592
 40
0.2592592592592592
 40
0.2592592592592592
 40
0.2592592592592592
 40
0.2777777777777778
 40
0.2777777777777778
 40
0.2777777777777778
 40
0.2777777777777778
 40
0.2962962962962963
 40
0.2962962962962963
 40
0.2962962962962963
 40
0.2962962962962963
 40
0.3148148148148148
 40
0.3148148148148148
 40
0.3148148148148148
 40
0.3148148148148148
 40
0.3333333333333333
 40
0.3333333333333333
 40
0.3333333333333333
 40
0.3333333333333333
 40
0.3518518518518518
 40
0.3518518518518518
 40
0.3518518518518518
 40
0.3518518518518518
 40
0.3703703703703702
 40
0.3703703703703702
 40
0.3703703703703702
 40
0.3703703703703702
 40
0.3888888888888887
 40
0.3888888888888887
 40
0.3888888888888887
 40
0.3888888888888887
 40
0.4074074074074072
 40
0.4074074074074072
 40
0.4074074074074072
 40
0.4074074074074072
 40
0.4259259259259257
 40
0.4259259259259257
 40
0.4259259259259257
 40
0.4259259259259257
 40
0.4444444444444442
 40
0.4444444444444442
 40
0.4444444444444442
 40
0.4444444444444442
 40
0.4629629629629627
 40
0.4629629629629627
 40
0.4629629629629627
 40
0.4629629629629627
 40
0.4814814814814812
 40
0.4814814814814812
 40
0.4814814814814812
 40
0.4814814814814812
 40
0.4999999999999997
 40
0.4999999999999997
 40
0.4999999999999997
 40
0.4999999999999997
 40
0.5185185185185182
 40
0.5185185185185182
 40
0.5185185185185182
 40
0.5185185185185182
 40
0.5370370370370367
 40
0.5370370370370367
 40
0.5370370370370367
 40
0.5370370370370367
 40
0.5555555555555551
 40
0.5555555555555551
 40
0.5555555555555551
 40
0.5555555555555551
 40
0.5740740740740736
 40
0.5740740740740736
 40
0.5740740740740736
 40
0.5740740740740736
 40
0.5925925925925921
 40
0.5925925925925921
 40
0.5925925925925921
 40
0.5925925925925921
 40
0.6111111111111106
 40
0.6111111111111106
 40
0.6111111111111106
 40
0.6111111111111106
 40
0.6296296296296291
 40
0.6296296296296291
 40
0.6296296296296291
 40
0.6296296296296291
 40
0.6481481481481476
 40
0.6481481481481476
 40
0.6481481481481476
 40
0.6481481481481476
 40
0.6666666666666661
 40
0.6666666666666661
 40
0.6666666666666661
 40
0.6666666666666661
 40
0.6851851851851846
 40
0.6851851851851846
 40
0.6851851851851846
 40
0.6851851851851846
 40
0.7037037037037031
 40
0.7037037037037031
 40
0.7037037037037031
 40
0.7037037037037031
 40
0.7222222222222215
 40
0.7222222222222215
 40
0.7222222222222215
 40
0.7222222222222215
 40
0.74074074074074
 40
0.74074074074074
 40
0.74074074074074
 40
0.74074074074074
 40
0.7592592592592585
 40
0.7592592592592585
 40
0.7592592592592585
 40
0.7592592592592585
 40
0.777777777777777
 40
0.777777777777777
 40
0.777777777777777
 40
0.777777777777777
 40
0.7962962962962955
 40
0.7962962962962955
 40
0.7962962962962955
 40
0.7962962962962955
 40
0.814814814814814
 40
0.814814814814814
 40
0.814814814814814
 40
0.814814814814814
 40
0.8333333333333325
 40
0.8333333333333325
 40
0.8333333333333325
 40
0.8333333333333325
 40
0.851851851851851
 40
0.851851851851851
 40
0.851851851851851
 40
0.851851851851851
 40
0.8703703703703695
 40
0.8703703703703695
 40
0.8703703703703695
 40
0.8703703703703695
 40
0.888888888888888
 40
0.888888888888888
 40
0.888888888888888
 40
0.888888888888888
 40
0.9074074074074064
 40
0.9074074074074064
 40
0.9074074074074064
 40
0.9074074074074064
 40
0.9259259259259249
 40
0.9259259259259249
 40
0.9259259259259249
 40
0.9259259259259249
 40
0.9444444444444434
 40
0.9444444444444434
 40
0.9444444444444434
 40
0.9444444444444434
 40
0.9629629629629619
 40
0.9629629629629619
 40
0.9629629629629619
 40
0.9629629629629619
 40
0.9814814814814804
 40
0.9814814814814804
 40
0.9814814814814804
 40
0.9814814814814804
 40
1.0
 40
1.0
 40
1.0
 40
1.0
 10
-1.0514100000000002
 20
4.6374700000000004
 30
0.0
 10
-0.23607
 20
4.2082100000000002
 30
0.0
 10
0.27954
 20
3.4563700000000002
 30
0.0
 10
0.9069200000000001
 20
2.8264500000000004
 30
0.0
 10
0.9069200000000001
 20
2.8264500000000004
 30
0.0
 10
1.02122
 20
2.7705700000000002
 30
0.0
 10
0.99582
 20
2.8823300000000001
 30
0.0
 10
0.9196200000000001
 20
2.9382100000000002
 30
0.0
 10
0.9196200000000001
 20
2.9382100000000002
 30
0.0
 10
0.9196200000000001
 20
2.9382100000000002
 30
0.0
 10
0.7291200000000001
 20
3.2125300000000001
 30
0.0
 10
0.7291200000000001
 20
3.2125300000000001
 30
0.0
 10
0.7291200000000001
 20
3.2125300000000001
 30
0.0
 10
1.3234800000000002
 20
2.9331300000000002
 30
0.0
 10
2.42076
 20
2.2447900000000001
 30
0.0
 10
1.6765400000000001
 20
1.5564500000000001
 30
0.0
 10
1.6765400000000001
 20
1.5564500000000001
 30
0.0
 10
1.7654400000000001
 20
1.5132700000000001
 30
0.0
 10
1.9102200000000003
 20
1.4396100000000001
 30
0.0
 10
1.7959200000000002
 20
1.2821300000000002
 30
0.0
 10
1.7959200000000002
 20
1.2821300000000002
 30
0.0
 10
1.5724
 20
1.1983100000000002
 30
0.0
 10
1.3234800000000002
 20
1.14751
 30
0.0
 10
1.1660000000000001
 20
0.9697100000000001
 30
0.0
 10
1.1660000000000001
 20
0.9697100000000001
 30
0.0
 10
1.11266
 20
0.8604900000000001
 30
0.0
 10
1.1914
 20
0.7411100000000001
 30
0.0
 10
1.2676000000000001
 20
0.66491
 30
0.0
 10
1.2676000000000001
 20
0.66491
 30
0.0
 10
1.3234800000000002
 20
0.6547500000000001
 30
0.0
 10
1.4301600000000001
 20
0.4845700000000001
 30
0.0
 10
1.4377800000000001
 20
0.57855
 30
0.0
 10
1.4377800000000001
 20
0.57855
 30
0.0
 10
1.3514200000000001
 20
0.65983
 30
0.0
 10
1.2828400000000002
 20
0.7741300000000001
 30
0.0
 10
1.27268
 20
0.8960500000000001
 30
0.0
 10
1.27268
 20
0.8960500000000001
 30
0.0
 10
2.0346800000000003
 20
1.4243700000000001
 30
0.0
 10
2.9922600000000004
 20
0.99765
 30
0.0
 10
3.3935800000000005
 20
0.17977
 30
0.0
 10
3.3935800000000005
 20
0.17977
 30
0.0
 10
3.4748600000000005
 20
0.01213
 30
0.0
 10
3.4850200000000005
 20
-0.17836
 30
0.0
 10
3.6856800000000005
 20
-0.39172
 30
0.0
 10
3.6856800000000005
 20
-0.39172
 30
0.0
 10
3.7923600000000004
 20
-0.36632
 30
0.0
 10
3.6501200000000003
 20
-0.17582
 30
0.0
 10
3.7288600000000005
 20
-0.13772
 30
0.0
 10
3.7288600000000005
 20
-0.13772
 30
0.0
 10
4.4095800000000001
 20
-0.4806200000000001
 30
0.0
 10
4.8261400000000005
 20
-1.1410200000000001
 30
0.0
 10
5.1563400000000001
 20
-1.7988800000000003
 30
0.0
 10
5.1563400000000001
 20
-1.7988800000000003
 30
0.0
 10
5.2731800000000009
 20
-1.79634
 30
0.0
 10
5.0318800000000001
 20
-1.5779000000000001
 30
0.0
 10
5.0801400000000001
 20
-1.4839200000000001
 30
0.0
 10
5.0801400000000001
 20
-1.4839200000000001
 30
0.0
 10
5.4306600000000005
 20
-1.8166600000000002
 30
0.0
 10
5.7888000000000002
 20
-2.2713200000000002
 30
0.0
 10
5.7837200000000006
 20
-2.7996400000000001
 30
0.0
 10
5.7837200000000006
 20
-2.7996400000000001
 30
0.0
 10
5.2655600000000007
 20
-2.5964400000000003
 30
0.0
 10
5.2020600000000004
 20
-1.8776200000000001
 30
0.0
 10
4.6585000000000001
 20
-1.7252200000000002
 30
0.0
 10
4.6585000000000001
 20
-1.7252200000000002
 30
0.0
 10
4.6585000000000001
 20
-1.7252200000000002
 30
0.0
 10
4.7499400000000005
 20
-1.8293600000000001
 30
0.0
 10
4.7499400000000005
 20
-1.8293600000000001
 30
0.0
 10
4.7499400000000005
 20
-1.8293600000000001
 30
0.0
 10
4.7499400000000005
 20
-1.8293600000000001
 30
0.0
 10
4.8312200000000001
 20
-1.8877800000000002
 30
0.0
 10
4.8312200000000001
 20
-1.8877800000000002
 30
0.0
 10
4.8312200000000001
 20
-1.8877800000000002
 30
0.0
 10
5.0496600000000003
 20
-2.0173200000000002
 30
0.0
 10
5.1792000000000007
 20
-2.2586200000000001
 30
0.0
 10
5.2503200000000003
 20
-2.4923000000000002
 30
0.0
 10
5.2503200000000003
 20
-2.4923000000000002
 30
0.0
 10
4.5594400000000004
 20
-2.27894
 30
0.0
 10
3.1065600000000004
 20
-1.9639800000000001
 30
0.0
 10
3.9447600000000005
 20
-1.0292600000000001
 30
0.0
 10
3.9447600000000005
 20
-1.0292600000000001
 30
0.0
 10
3.8406200000000004
 20
-0.8413000000000001
 30
0.0
 10
3.6247200000000004
 20
-1.42042
 30
0.0
 10
3.5663000000000005
 20
-1.62616
 30
0.0
 10
3.5663000000000005
 20
-1.62616
 30
0.0
 10
3.4469200000000004
 20
-1.6464800000000002
 30
0.0
 10
3.2310200000000004
 20
-1.49916
 30
0.0
 10
3.2742000000000004
 20
-1.3924800000000002
 30
0.0
 10
3.2742000000000004
 20
-1.3924800000000002
 30
0.0
 10
3.3351600000000001
 20
-1.2350000000000001
 30
0.0
 10
3.3681800000000002
 20
-1.0572000000000001
 30
0.0
 10
3.2843600000000004
 20
-1.0241800000000001
 30
0.0
 10
3.2843600000000004
 20
-1.0241800000000001
 30
0.0
 10
3.0710000000000002
 20
-2.0351000000000004
 30
0.0
 10
1.9813400000000001
 20
-0.9683000000000001
 30
0.0
 10
1.3946000000000001
 20
-0.8489200000000001
 30
0.0
 10
1.3946000000000001
 20
-0.8489200000000001
 30
0.0
 10
1.3946000000000001
 20
-0.8489200000000001
 30
0.0
 10
1.5241400000000001
 20
-0.6203200000000001
 30
0.0
 10
1.5241400000000001
 20
-0.6203200000000001
 30
0.0
 10
1.5241400000000001
 20
-0.6203200000000001
 30
0.0
 10
1.3184
 20
-0.65334
 30
0.0
 10
1.2472800000000002
 20
-0.8743200000000001
 30
0.0
 10
1.1355200000000001
 20
-1.0318000000000001
 30
0.0
 10
1.1355200000000001
 20
-1.0318000000000001
 30
0.0
 10
1.1355200000000001
 20
-1.0318000000000001
 30
0.0
 10
0.61736
 20
-1.42042
 30
0.0
 10
0.61736
 20
-1.42042
 30
0.0
 10
0.61736
 20
-1.42042
 30
0.0
 10
0.6529200000000001
 20
-1.16388
 30
0.0
 10
0.658
 20
-0.8717800000000001
 30
0.0
 10
0.8866000000000001
 20
-0.7117600000000001
 30
0.0
 10
0.8866000000000001
 20
-0.7117600000000001
 30
0.0
 10
1.0847200000000001
 20
-0.65334
 30
0.0
 10
0.6199
 20
-1.1080000000000001
 30
0.0
 10
0.6884800000000001
 20
-1.2985000000000002
 30
0.0
 10
0.6884800000000001
 20
-1.2985000000000002
 30
0.0
 10
1.0517000000000001
 20
-0.5796800000000001
 30
0.0
 10
1.1710800000000001
 20
-0.9048000000000001
 30
0.0
 10
1.3539600000000001
 20
-0.2698
 30
0.0
 10
1.3539600000000001
 20
-0.2698
 30
0.0
 10
1.2218800000000001
 20
-0.29012
 30
0.0
 10
1.1990200000000002
 20
-0.5187200000000001
 30
0.0
 10
1.0771000000000002
 20
-0.5796800000000001
 30
0.0
 10
1.0771000000000002
 20
-0.5796800000000001
 30
0.0
 10
0.4497200000000001
 20
-0.8946400000000001
 30
0.0
 10
-0.6069100000000001
 20
-0.56952
 30
0.0
 10
-0.17257
 20
0.17215
 30
0.0
 10
-0.17257
 20
0.17215
 30
0.0
 10
0.0103
 20
0.47187
 30
0.0
 10
-0.13193
 20
0.5633100000000001
 30
0.0
 10
-0.25131
 20
0.21279
 30
0.0
 10
-0.25131
 20
0.21279
 30
0.0
 10
-0.36307
 20
-0.14026
 30
0.0
 10
-0.84567
 20
-0.1555
 30
0.0
 10
-0.5611900000000001
 20
0.23057
 30
0.0
 10
-0.5611900000000001
 20
0.23057
 30
0.0
 10
-0.7085100000000001
 20
0.16707
 30
0.0
 10
-0.7288300000000001
 20
-0.03612
 30
0.0
 10
-0.8710700000000001
 20
-0.08184
 30
0.0
 10
-0.8710700000000001
 20
-0.08184
 30
0.0
 10
-0.65771
 20
0.63951
 30
0.0
 10
-0.31735
 20
0.20517
 30
0.0
 10
-0.07859
 20
0.83001
 30
0.0
 10
-0.07859
 20
0.83001
 30
0.0
 10
-0.35291
 20
0.51759
 30
0.0
 10
-0.84821
 20
0.41345
 30
0.0
 10
-1.0209300000000001
 20
0.00959
 30
0.0
 10
-1.0209300000000001
 20
0.00959
 30
0.0
 10
-1.0209300000000001
 20
0.00959
 30
0.0
 10
-2.3163300000000002
 20
0.70047
 30
0.0
 10
-2.3163300000000002
 20
0.70047
 30
0.0
 10
-2.3163300000000002
 20
0.70047
 30
0.0
 10
-1.4425700000000001
 20
1.8307700000000002
 30
0.0
 10
-2.8954500000000003
 20
2.01111
 30
0.0
 10
-3.5355300000000005
 20
2.4911700000000003
 30
0.0
 10
-3.5355300000000005
 20
2.4911700000000003
 30
0.0
 10
-3.5507700000000004
 20
2.6562700000000001
 30
0.0
 10
-3.4136100000000003
 20
2.7223100000000002
 30
0.0
 10
-3.2967700000000004
 20
2.7832700000000004
 30
0.0
 10
-3.2967700000000004
 20
2.7832700000000004
 30
0.0
 10
-3.3577300000000001
 20
2.93059
 30
0.0
 10
-3.6447500000000002
 20
2.7400900000000004
 30
0.0
 10
-3.7006300000000003
 20
2.6511900000000002
 30
0.0
 10
-3.7006300000000003
 20
2.6511900000000002
 30
0.0
 10
-3.6142700000000003
 20
2.0974700000000004
 30
0.0
 10
-2.31887
 20
2.0568300000000002
 30
0.0
 10
-2.9970500000000002
 20
1.31769
 30
0.0
 10
-2.9970500000000002
 20
1.31769
 30
0.0
 10
-3.1545300000000003
 20
1.3557900000000001
 30
0.0
 10
-3.2307300000000003
 20
1.4751700000000001
 30
0.0
 10
-3.3577300000000001
 20
1.5564500000000001
 30
0.0
 10
-3.3577300000000001
 20
1.5564500000000001
 30
0.0
 10
-3.5482300000000002
 20
1.6910700000000001
 30
0.0
 10
-3.3755100000000002
 20
1.8993500000000001
 30
0.0
 10
-3.2307300000000003
 20
1.9450700000000001
 30
0.0
 10
-3.2307300000000003
 20
1.9450700000000001
 30
0.0
 10
-3.9317700000000002
 20
2.12033
 30
0.0
 10
-4.6785300000000003
 20
2.2016100000000001
 30
0.0
 10
-5.3541700000000008
 20
2.42259
 30
0.0
 10
-5.3541700000000008
 20
2.42259
 30
0.0
 10
-5.7986700000000004
 20
2.9026500000000004
 30
0.0
 10
-5.0671500000000007
 20
3.1439500000000002
 30
0.0
 10
-4.6785300000000003
 20
3.0855300000000003
 30
0.0
 10
-4.6785300000000003
 20
3.0855300000000003
 30
0.0
 10
-4.4550100000000006
 20
3.0880700000000001
 30
0.0
 10
-4.2264100000000004
 20
3.0144100000000003
 30
0.0
 10
-4.02067
 20
2.9509100000000004
 30
0.0
 10
-4.02067
 20
2.9509100000000004
 30
0.0
 10
-3.7158700000000002
 20
2.9559900000000003
 30
0.0
 10
-4.1222700000000003
 20
3.1515700000000004
 30
0.0
 10
-4.22133
 20
3.1769700000000003
 30
0.0
 10
-4.22133
 20
3.1769700000000003
 30
0.0
 10
-4.9909500000000007
 20
3.3877900000000003
 30
0.0
 10
-6.1161700000000003
 20
3.9186500000000004
 30
0.0
 10
-5.5954700000000006
 20
4.7924100000000003
 30
0.0
 10
-5.5954700000000006
 20
4.7924100000000003
 30
0.0
 10
-5.3465500000000006
 20
5.3258100000000006
 30
0.0
 10
-4.0054300000000005
 20
5.2191300000000007
 30
0.0
 10
-3.3043900000000002
 20
5.0032300000000003
 30
0.0
 10
-3.3043900000000002
 20
5.0032300000000003
 30
0.0
 10
-3.4872700000000001
 20
4.6831900000000006
 30
0.0
 10
-3.2688300000000003
 20
4.2996500000000006
 30
0.0
 10
-3.3348700000000004
 20
3.9592900000000002
 30
0.0
 10
-3.3348700000000004
 20
3.9592900000000002
 30
0.0
 10
-3.5964900000000002
 20
3.7764100000000003
 30
0.0
 10
-4.0130500000000007
 20
3.8856300000000004
 30
0.0
 10
-4.23149
 20
3.7637100000000001
 30
0.0
 10
-4.23149
 20
3.7637100000000001
 30
0.0
 10
-3.3704300000000003
 20
3.4868500000000004
 30
0.0
 10
-3.0300700000000003
 20
3.9821500000000003
 30
0.0
 10
-3.0580100000000003
 20
4.7416100000000005
 30
0.0
 10
-3.0580100000000003
 20
4.7416100000000005
 30
0.0
 10
-2.4712700000000001
 20
5.1734100000000005
 30
0.0
 10
-1.6635500000000001
 20
4.8279700000000005
 30
0.0
 10
-1.0514100000000002
 20
4.6374700000000004
 30
0.0
  0
SPLINE
  5
2A
100
AcDbEntity
  8
Ebene 1
100
AcDbSpline
210
0.0
220
0.0
230
1.0
 70
     1
 71
     3
 72
    52
 73
    48
 74
     0
 42
0.0000000001
 43
0.0000000001
 40
0.0
 40
0.0
 40
0.0
 40
0.0
 40
0.0833333333333333
 40
0.0833333333333333
 40
0.0833333333333333
 40
0.0833333333333333
 40
0.1666666666666667
 40
0.1666666666666667
 40
0.1666666666666667
 40
0.1666666666666667
 40
0.25
 40
0.25
 40
0.25
 40
0.25
 40
0.3333333333333333
 40
0.3333333333333333
 40
0.3333333333333333
 40
0.3333333333333333
 40
0.4166666666666666
 40
0.4166666666666666
 40
0.4166666666666666
 40
0.4166666666666666
 40
0.4999999999999999
 40
0.4999999999999999
 40
0.4999999999999999
 40
0.4999999999999999
 40
0.5833333333333333
 40
0.5833333333333333
 40
0.5833333333333333
 40
0.5833333333333333
 40
0.6666666666666666
 40
0.6666666666666666
 40
0.6666666666666666
 40
0.6666666666666666
 40
0.75
 40
0.75
 40
0.75
 40
0.75
 40
0.8333333333333334
 40
0.8333333333333334
 40
0.8333333333333334
 40
0.8333333333333334
 40
0.9166666666666667
 40
0.9166666666666667
 40
0.9166666666666667
 40
0.9166666666666667
 40
1.0
 40
1.0
 40
1.0
 40
1.0
 10
-0.84821
 20
3.5935300000000003
 30
0.0
 10
-0.32497
 20
3.2023700000000002
 30
0.0
 10
0.24144
 20
2.5826100000000003
 30
0.0
 10
0.6122800000000001
 20
2.0619100000000001
 30
0.0
 10
0.6122800000000001
 20
2.0619100000000001
 30
0.0
 10
0.7977000000000001
 20
1.8053700000000001
 30
0.0
 10
0.88914
 20
1.6656700000000002
 30
0.0
 10
0.8485
 20
1.5539100000000001
 30
0.0
 10
0.8485
 20
1.5539100000000001
 30
0.0
 10
0.4548
 20
2.04413
 30
0.0
 10
0.00268
 20
2.3489300000000002
 30
0.0
 10
-0.65771
 20
2.4759300000000004
 30
0.0
 10
-0.65771
 20
2.4759300000000004
 30
0.0
 10
-0.42149
 20
2.5546700000000002
 30
0.0
 10
-0.13955
 20
2.3743300000000001
 30
0.0
 10
0.0992
 20
2.3692500000000001
 30
0.0
 10
0.0992
 20
2.3692500000000001
 30
0.0
 10
-0.46467
 20
2.6943700000000002
 30
0.0
 10
-1.20381
 20
2.59531
 30
0.0
 10
-1.8083300000000002
 20
2.8797900000000003
 30
0.0
 10
-1.8083300000000002
 20
2.8797900000000003
 30
0.0
 10
-1.9632700000000001
 20
3.0931500000000001
 30
0.0
 10
-1.9023100000000002
 20
3.3750900000000001
 30
0.0
 10
-1.9886700000000002
 20
3.6163900000000004
 30
0.0
 10
-1.9886700000000002
 20
3.6163900000000004
 30
0.0
 10
-1.9505700000000001
 20
3.7738700000000005
 30
0.0
 10
-2.0572500000000002
 20
3.7306900000000005
 30
0.0
 10
-2.0572500000000002
 20
3.6113100000000005
 30
0.0
 10
-2.0572500000000002
 20
3.6113100000000005
 30
0.0
 10
-2.0902700000000003
 20
3.5097100000000001
 30
0.0
 10
-2.1258300000000001
 20
3.4106500000000004
 30
0.0
 10
-2.0877300000000001
 20
3.3141300000000005
 30
0.0
 10
-2.0877300000000001
 20
3.3141300000000005
 30
0.0
 10
-2.0851900000000003
 20
3.2709500000000005
 30
0.0
 10
-2.06487
 20
3.2252300000000003
 30
0.0
 10
-2.1232900000000003
 20
3.2125300000000001
 30
0.0
 10
-2.1232900000000003
 20
3.2125300000000001
 30
0.0
 10
-2.14615
 20
3.4030300000000002
 30
0.0
 10
-2.2909300000000004
 20
3.5909900000000001
 30
0.0
 10
-2.1537700000000002
 20
3.7789500000000005
 30
0.0
 10
-2.1537700000000002
 20
3.7789500000000005
 30
0.0
 10
-2.1537700000000002
 20
3.7789500000000005
 30
0.0
 10
-2.3696700000000002
 20
3.8475300000000003
 30
0.0
 10
-2.3696700000000002
 20
3.8475300000000003
 30
0.0
 10
-2.3696700000000002
 20
3.8475300000000003
 30
0.0
 10
-1.8540500000000002
 20
3.9211900000000002
 30
0.0
 10
-1.33081
 20
3.7560900000000004
 30
0.0
 10
-0.84821
 20
3.5935300000000003
 30
0.0
  0
SPLINE
  5
2B
100
AcDbEntity
  8
Ebene 1
100
AcDbSpline
210
0.0
220
0.0
230
1.0
 70
     1
 71
     3
 72
    32
 73
    28
 74
     0
 42
0.0000000001
 43
0.0000000001
 40
0.0
 40
0.0
 40
0.0
 40
0.0
 40
0.1428571428571429
 40
0.1428571428571429
 40
0.1428571428571429
 40
0.1428571428571429
 40
0.2857142857142857
 40
0.2857142857142857
 40
0.2857142857142857
 40
0.2857142857142857
 40
0.4285714285714286
 40
0.4285714285714286
 40
0.4285714285714286
 40
0.4285714285714286
 40
0.5714285714285714
 40
0.5714285714285714
 40
0.5714285714285714
 40
0.5714285714285714
 40
0.7142857142857142
 40
0.7142857142857142
 40
0.7142857142857142
 40
0.7142857142857142
 40
0.857142857142857
 40
0.857142857142857
 40
0.857142857142857
 40
0.857142857142857
 40
1.0
 40
1.0
 40
1.0
 40
1.0
 10
0.4954400000000001
 20
2.4073500000000001
 30
0.0
 10
0.7926200000000001
 20
2.1965300000000001
 30
0.0
 10
1.0085200000000001
 20
1.8917300000000001
 30
0.0
 10
1.1990200000000002
 20
1.5818500000000002
 30
0.0
 10
1.1990200000000002
 20
1.5818500000000002
 30
0.0
 10
1.1990200000000002
 20
1.5818500000000002
 30
0.0
 10
1.52668
 20
1.5158100000000001
 30
0.0
 10
1.52668
 20
1.5158100000000001
 30
0.0
 10
1.52668
 20
1.5158100000000001
 30
0.0
 10
1.52668
 20
1.5158100000000001
 30
0.0
 10
1.5647800000000001
 20
1.4573900000000002
 30
0.0
 10
1.5647800000000001
 20
1.4573900000000002
 30
0.0
 10
1.5647800000000001
 20
1.4573900000000002
 30
0.0
 10
1.3819000000000001
 20
1.4116700000000002
 30
0.0
 10
1.18632
 20
1.4116700000000002
 30
0.0
 10
1.0085200000000001
 20
1.4624700000000002
 30
0.0
 10
1.0085200000000001
 20
1.4624700000000002
 30
0.0
 10
1.0085200000000001
 20
1.4624700000000002
 30
0.0
 10
1.0720200000000002
 20
1.48787
 30
0.0
 10
1.0720200000000002
 20
1.48787
 30
0.0
 10
1.0720200000000002
 20
1.48787
 30
0.0
 10
0.9602600000000001
 20
1.8206100000000001
 30
0.0
 10
0.7469
 20
2.1050900000000001
 30
0.0
 10
0.4827400000000001
 20
2.3336900000000003
 30
0.0
 10
0.4827400000000001
 20
2.3336900000000003
 30
0.0
 10
0.47004
 20
2.3590900000000001
 30
0.0
 10
0.48528
 20
2.3921100000000002
 30
0.0
 10
0.4954400000000001
 20
2.4073500000000001
 30
0.0
  0
SPLINE
  5
2C
100
AcDbEntity
  8
Ebene 1
100
AcDbSpline
210
0.0
220
0.0
230
1.0
 70
     1
 71
     3
 72
    32
 73
    28
 74
     0
 42
0.0000000001
 43
0.0000000001
 40
0.0
 40
0.0
 40
0.0
 40
0.0
 40
0.1428571428571429
 40
0.1428571428571429
 40
0.1428571428571429
 40
0.1428571428571429
 40
0.2857142857142857
 40
0.2857142857142857
 40
0.2857142857142857
 40
0.2857142857142857
 40
0.4285714285714286
 40
0.4285714285714286
 40
0.4285714285714286
 40
0.4285714285714286
 40
0.5714285714285714
 40
0.5714285714285714
 40
0.5714285714285714
 40
0.5714285714285714
 40
0.7142857142857142
 40
0.7142857142857142
 40
0.7142857142857142
 40
0.7142857142857142
 40
0.857142857142857
 40
0.857142857142857
 40
0.857142857142857
 40
0.857142857142857
 40
1.0
 40
1.0
 40
1.0
 40
1.0
 10
-2.0420100000000003
 20
3.05505
 30
0.0
 10
-2.0420100000000003
 20
3.05505
 30
0.0
 10
-1.8057900000000002
 20
2.5445100000000003
 30
0.0
 10
-1.8057900000000002
 20
2.5445100000000003
 30
0.0
 10
-1.8057900000000002
 20
2.5445100000000003
 30
0.0
 10
-1.6483100000000002
 20
2.4835500000000001
 30
0.0
 10
-1.4324100000000002
 20
2.4530700000000003
 30
0.0
 10
-1.3231900000000001
 20
2.3387700000000002
 30
0.0
 10
-1.3231900000000001
 20
2.3387700000000002
 30
0.0
 10
-1.3231900000000001
 20
2.3387700000000002
 30
0.0
 10
-1.3485900000000002
 20
2.29305
 30
0.0
 10
-1.3485900000000002
 20
2.29305
 30
0.0
 10
-1.3485900000000002
 20
2.29305
 30
0.0
 10
-1.5568700000000002
 20
2.4378300000000004
 30
0.0
 10
-1.9708900000000003
 20
2.54705
 30
0.0
 10
-2.11313
 20
2.2473300000000003
 30
0.0
 10
-2.11313
 20
2.2473300000000003
 30
0.0
 10
-2.1740900000000001
 20
2.0034900000000002
 30
0.0
 10
-1.8642100000000001
 20
1.9044300000000001
 30
0.0
 10
-1.7346700000000002
 20
1.7621900000000001
 30
0.0
 10
-1.7346700000000002
 20
1.7621900000000001
 30
0.0
 10
-2.1613900000000004
 20
1.7418700000000003
 30
0.0
 10
-2.4306300000000003
 20
2.34639
 30
0.0
 10
-2.01153
 20
2.5673700000000004
 30
0.0
 10
-2.01153
 20
2.5673700000000004
 30
0.0
 10
-2.0089900000000003
 20
2.7223100000000002
 30
0.0
 10
-2.1588500000000002
 20
2.9178900000000003
 30
0.0
 10
-2.0420100000000003
 20
3.05505
 30
0.0
  0
SPLINE
  5
2D
100
AcDbEntity
  8
Ebene 1
100
AcDbSpline
210
0.0
220
0.0
230
1.0
 70
     1
 71
     3
 72
    36
 73
    32
 74
     0
 42
0.0000000001
 43
0.0000000001
 40
0.0
 40
0.0
 40
0.0
 40
0.0
 40
0.125
 40
0.125
 40
0.125
 40
0.125
 40
0.25
 40
0.25
 40
0.25
 40
0.25
 40
0.375
 40
0.375
 40
0.375
 40
0.375
 40
0.5
 40
0.5
 40
0.5
 40
0.5
 40
0.625
 40
0.625
 40
0.625
 40
0.625
 40
0.75
 40
0.75
 40
0.75
 40
0.75
 40
0.875
 40
0.875
 40
0.875
 40
0.875
 40
1.0
 40
1.0
 40
1.0
 40
1.0
 10
2.8449400000000002
 20
0.59633
 30
0.0
 10
2.9922600000000004
 20
0.4845700000000001
 30
0.0
 10
3.1827600000000005
 20
0.40837
 30
0.0
 10
3.2640400000000001
 20
0.23057
 30
0.0
 10
3.2640400000000001
 20
0.23057
 30
0.0
 10
3.0583000000000005
 20
-0.01834
 30
0.0
 10
3.2538800000000001
 20
-0.25202
 30
0.0
 10
3.4850200000000005
 20
-0.38918
 30
0.0
 10
3.4850200000000005
 20
-0.38918
 30
0.0
 10
3.5739200000000002
 20
-0.473
 30
0.0
 10
3.7364800000000002
 20
-0.55428
 30
0.0
 10
3.7491800000000004
 20
-0.67874
 30
0.0
 10
3.7491800000000004
 20
-0.67874
 30
0.0
 10
3.7491800000000004
 20
-0.67874
 30
0.0
 10
3.5485200000000003
 20
-0.5771400000000001
 30
0.0
 10
3.5485200000000003
 20
-0.5771400000000001
 30
0.0
 10
3.5485200000000003
 20
-0.5771400000000001
 30
0.0
 10
3.1014800000000005
 20
-0.07676
 30
0.0
 10
2.3623400000000001
 20
0.03499
 30
0.0
 10
1.8213200000000001
 20
0.38551
 30
0.0
 10
1.8213200000000001
 20
0.38551
 30
0.0
 10
1.78068
 20
0.4845700000000001
 30
0.0
 10
1.7603600000000001
 20
0.59379
 30
0.0
 10
1.7984600000000002
 20
0.6928500000000001
 30
0.0
 10
1.7984600000000002
 20
0.6928500000000001
 30
0.0
 10
1.8924400000000001
 20
0.7817500000000001
 30
0.0
 10
2.0346800000000003
 20
0.78937
 30
0.0
 10
2.1693000000000002
 20
0.7792100000000001
 30
0.0
 10
2.1693000000000002
 20
0.7792100000000001
 30
0.0
 10
2.4004400000000001
 20
0.7411100000000001
 30
0.0
 10
2.63158
 20
0.6674500000000001
 30
0.0
 10
2.8449400000000002
 20
0.59633
 30
0.0
  0
SPLINE
  5
2E
100
AcDbEntity
  8
Ebene 1
100
AcDbSpline
210
0.0
220
0.0
230
1.0
 70
     1
 71
     3
 72
    32
 73
    28
 74
     0
 42
0.0000000001
 43
0.0000000001
 40
0.0
 40
0.0
 40
0.0
 40
0.0
 40
0.1428571428571429
 40
0.1428571428571429
 40
0.1428571428571429
 40
0.1428571428571429
 40
0.2857142857142857
 40
0.2857142857142857
 40
0.2857142857142857
 40
0.2857142857142857
 40
0.4285714285714286
 40
0.4285714285714286
 40
0.4285714285714286
 40
0.4285714285714286
 40
0.5714285714285714
 40
0.5714285714285714
 40
0.5714285714285714
 40
0.5714285714285714
 40
0.7142857142857142
 40
0.7142857142857142
 40
0.7142857142857142
 40
0.7142857142857142
 40
0.857142857142857
 40
0.857142857142857
 40
0.857142857142857
 40
0.857142857142857
 40
1.0
 40
1.0
 40
1.0
 40
1.0
 10
0.36082
 20
1.7875900000000002
 30
0.0
 10
0.36082
 20
1.7875900000000002
 30
0.0
 10
1.0542400000000001
 20
1.2237100000000001
 30
0.0
 10
1.0542400000000001
 20
1.2237100000000001
 30
0.0
 10
1.0542400000000001
 20
1.2237100000000001
 30
0.0
 10
0.5208400000000001
 20
1.4700900000000001
 30
0.0
 10
-0.10145
 20
1.9806300000000001
 30
0.0
 10
-0.72121
 20
1.5869300000000002
 30
0.0
 10
-0.72121
 20
1.5869300000000002
 30
0.0
 10
-0.72121
 20
1.5869300000000002
 30
0.0
 10
-1.17079
 20
1.4980300000000002
 30
0.0
 10
-1.17079
 20
1.4980300000000002
 30
0.0
 10
-1.17079
 20
1.4980300000000002
 30
0.0
 10
-1.2393700000000001
 20
1.4726300000000001
 30
0.0
 10
-1.3638300000000001
 20
1.5361300000000002
 30
0.0
 10
-1.38161
 20
1.5843900000000002
 30
0.0
 10
-1.38161
 20
1.5843900000000002
 30
0.0
 10
-1.2825500000000001
 20
1.4954900000000002
 30
0.0
 10
-1.1860300000000001
 20
1.5462900000000002
 30
0.0
 10
-1.07935
 20
1.56915
 30
0.0
 10
-1.07935
 20
1.56915
 30
0.0
 10
-0.8583700000000001
 20
1.61487
 30
0.0
 10
-0.6450100000000001
 20
1.7037700000000002
 30
0.0
 10
-0.44689
 20
1.8206100000000001
 30
0.0
 10
-0.44689
 20
1.8206100000000001
 30
0.0
 10
-0.21321
 20
1.9984100000000002
 30
0.0
 10
0.1119
 20
1.8129900000000001
 30
0.0
 10
0.36082
 20
1.7875900000000002
 30
0.0
  0
SPLINE
  5
2F
100
AcDbEntity
  8
Ebene 1
 62
     7
100
AcDbSpline
210
0.0
220
0.0
230
1.0
 70
     1
 71
     3
 72
    96
 73
    92
 74
     0
 42
0.0000000001
 43
0.0000000001
 40
0.0
 40
0.0
 40
0.0
 40
0.0
 40
0.0434782608695652
 40
0.0434782608695652
 40
0.0434782608695652
 40
0.0434782608695652
 40
0.0869565217391304
 40
0.0869565217391304
 40
0.0869565217391304
 40
0.0869565217391304
 40
0.1304347826086957
 40
0.1304347826086957
 40
0.1304347826086957
 40
0.1304347826086957
 40
0.1739130434782609
 40
0.1739130434782609
 40
0.1739130434782609
 40
0.1739130434782609
 40
0.2173913043478261
 40
0.2173913043478261
 40
0.2173913043478261
 40
0.2173913043478261
 40
0.2608695652173913
 40
0.2608695652173913
 40
0.2608695652173913
 40
0.2608695652173913
 40
0.3043478260869565
 40
0.3043478260869565
 40
0.3043478260869565
 40
0.3043478260869565
 40
0.3478260869565217
 40
0.3478260869565217
 40
0.3478260869565217
 40
0.3478260869565217
 40
0.3913043478260869
 40
0.3913043478260869
 40
0.3913043478260869
 40
0.3913043478260869
 40
0.4347826086956521
 40
0.4347826086956521
 40
0.4347826086956521
 40
0.4347826086956521
 40
0.4782608695652173
 40
0.4782608695652173
 40
0.4782608695652173
 40
0.4782608695652173
 40
0.5217391304347825
 40
0.5217391304347825
 40
0.5217391304347825
 40
0.5217391304347825
 40
0.5652173913043477
 40
0.5652173913043477
 40
0.5652173913043477
 40
0.5652173913043477
 40
0.6086956521739129
 40
0.6086956521739129
 40
0.6086956521739129
 40
0.6086956521739129
 40
0.6521739130434781
 40
0.6521739130434781
 40
0.6521739130434781
 40
0.6521739130434781
 40
0.6956521739130432
 40
0.6956521739130432
 40
0.6956521739130432
 40
0.6956521739130432
 40
0.7391304347826084
 40
0.7391304347826084
 40
0.7391304347826084
 40
0.7391304347826084
 40
0.7826086956521736
 40
0.7826086956521736
 40
0.7826086956521736
 40
0.7826086956521736
 40
0.8260869565217388
 40
0.8260869565217388
 40
0.8260869565217388
 40
0.8260869565217388
 40
0.869565217391304
 40
0.869565217391304
 40
0.869565217391304
 40
0.869565217391304
 40
0.9130434782608692
 40
0.9130434782608692
 40
0.9130434782608692
 40
0.9130434782608692
 40
0.9565217391304344
 40
0.9565217391304344
 40
0.9565217391304344
 40
0.9565217391304344
 40
1.0
 40
1.0
 40
1.0
 40
1.0
 10
-1.20635
 20
-2.4669000000000003
 30
0.0
 10
-0.51293
 20
-3.1476200000000003
 30
0.0
 10
-0.09129
 20
-4.0670999999999999
 30
0.0
 10
0.38368
 20
-4.9129200000000006
 30
0.0
 10
0.38368
 20
-4.9129200000000006
 30
0.0
 10
0.00268
 20
-4.6436800000000007
 30
0.0
 10
-0.5180100000000001
 20
-4.5192200000000007
 30
0.0
 10
-0.8583700000000001
 20
-4.1712400000000001
 30
0.0
 10
-0.8583700000000001
 20
-4.1712400000000001
 30
0.0
 10
-0.8583700000000001
 20
-4.1712400000000001
 30
0.0
 10
-0.8913900000000001
 20
-3.9985200000000005
 30
0.0
 10
-0.8913900000000001
 20
-3.9985200000000005
 30
0.0
 10
-0.8913900000000001
 20
-3.9985200000000005
 30
0.0
 10
-0.7796300000000001
 20
-3.9756600000000004
 30
0.0
 10
-0.6831100000000001
 20
-4.2195
 30
0.0
 10
-0.5434100000000001
 20
-4.19156
 30
0.0
 10
-0.5434100000000001
 20
-4.19156
 30
0.0
 10
-1.58989
 20
-2.3703800000000004
 30
0.0
 10
-3.1748500000000002
 20
-0.8286000000000001
 30
0.0
 10
-4.2365700000000004
 20
0.99765
 30
0.0
 10
-4.2365700000000004
 20
0.99765
 30
0.0
 10
-4.3305500000000006
 20
1.0433700000000001
 30
0.0
 10
-4.4372300000000005
 20
1.1170300000000002
 30
0.0
 10
-4.5362900000000002
 20
1.1271900000000001
 30
0.0
 10
-4.5362900000000002
 20
1.1271900000000001
 30
0.0
 10
-4.5362900000000002
 20
1.1271900000000001
 30
0.0
 10
-4.2772100000000002
 20
0.8198500000000001
 30
0.0
 10
-4.2772100000000002
 20
0.8198500000000001
 30
0.0
 10
-4.2772100000000002
 20
0.8198500000000001
 30
0.0
 10
-4.0790900000000008
 20
0.6242700000000001
 30
0.0
 10
-4.7369500000000002
 20
0.8579500000000001
 30
0.0
 10
-4.7318700000000007
 20
1.0484500000000001
 30
0.0
 10
-4.7318700000000007
 20
1.0484500000000001
 30
0.0
 10
-4.4981900000000001
 20
1.36341
 30
0.0
 10
-4.3813500000000003
 20
2.2092300000000002
 30
0.0
 10
-3.8708100000000005
 20
1.9526900000000003
 30
0.0
 10
-3.8708100000000005
 20
1.9526900000000003
 30
0.0
 10
-4.5083500000000001
 20
1.27197
 30
0.0
 10
-2.9767300000000003
 20
0.91383
 30
0.0
 10
-2.81671
 20
1.3049900000000001
 30
0.0
 10
-2.81671
 20
1.3049900000000001
 30
0.0
 10
-2.7735300000000001
 20
0.8808100000000001
 30
0.0
 10
-3.3856700000000002
 20
0.9239900000000001
 30
0.0
 10
-3.6549100000000001
 20
0.9011300000000001
 30
0.0
 10
-3.6549100000000001
 20
0.9011300000000001
 30
0.0
 10
-3.3882100000000004
 20
0.7284100000000001
 30
0.0
 10
-2.8243300000000002
 20
0.7792100000000001
 30
0.0
 10
-2.6719300000000001
 20
1.1348100000000001
 30
0.0
 10
-2.6719300000000001
 20
1.1348100000000001
 30
0.0
 10
-2.7379700000000002
 20
1.4599300000000002
 30
0.0
 10
-2.6566900000000002
 20
2.1457300000000004
 30
0.0
 10
-2.2248900000000003
 20
1.6732900000000002
 30
0.0
 10
-2.2248900000000003
 20
1.6732900000000002
 30
0.0
 10
-1.9023100000000002
 20
1.1322700000000001
 30
0.0
 10
-2.4941300000000002
 20
0.8376300000000001
 30
0.0
 10
-2.8141700000000003
 20
0.47187
 30
0.0
 10
-2.8141700000000003
 20
0.47187
 30
0.0
 10
-2.9411700000000001
 20
0.3270900000000001
 30
0.0
 10
-2.9767300000000003
 20
0.15437
 30
0.0
 10
-2.94625
 20
-0.02342
 30
0.0
 10
-2.94625
 20
-0.02342
 30
0.0
 10
-2.94625
 20
-0.02342
 30
0.0
 10
-2.7735300000000001
 20
0.3905900000000001
 30
0.0
 10
-2.7735300000000001
 20
0.3905900000000001
 30
0.0
 10
-2.7735300000000001
 20
0.3905900000000001
 30
0.0
 10
-2.7379700000000002
 20
0.3905900000000001
 30
0.0
 10
-2.7430500000000002
 20
0.26613
 30
0.0
 10
-2.7481300000000002
 20
0.23057
 30
0.0
 10
-2.7481300000000002
 20
0.23057
 30
0.0
 10
-2.7481300000000002
 20
0.23057
 30
0.0
 10
-2.7481300000000002
 20
0.09341
 30
0.0
 10
-2.7481300000000002
 20
0.09341
 30
0.0
 10
-2.7481300000000002
 20
0.09341
 30
0.0
 10
-2.7481300000000002
 20
0.09341
 30
0.0
 10
-2.6693900000000004
 20
-0.219
 30
0.0
 10
-2.6693900000000004
 20
-0.219
 30
0.0
 10
-2.6693900000000004
 20
-0.219
 30
0.0
 10
-2.8014700000000001
 20
-0.32822
 30
0.0
 10
-2.9005300000000003
 20
-0.47554
 30
0.0
 10
-2.9157700000000002
 20
-0.6457200000000001
 30
0.0
 10
-2.9157700000000002
 20
-0.6457200000000001
 30
0.0
 10
-2.8014700000000001
 20
-0.6050800000000001
 30
0.0
 10
-2.8090900000000003
 20
-0.3841000000000001
 30
0.0
 10
-2.6008100000000001
 20
-0.3714
 30
0.0
 10
-2.6008100000000001
 20
-0.3714
 30
0.0
 10
-1.9099300000000001
 20
-1.0724400000000001
 30
0.0
 10
-1.3536700000000002
 20
-2.09606
 30
0.0
 10
-1.08443
 20
-3.0765000000000002
 30
0.0
 10
-1.08443
 20
-3.0765000000000002
 30
0.0
 10
-1.04125
 20
-2.8834600000000004
 30
0.0
 10
-1.1987300000000001
 20
-2.6650200000000002
 30
0.0
 10
-1.20635
 20
-2.4669000000000003
 30
0.0
  0
SPLINE
  5
30
100
AcDbEntity
  8
Ebene 1
 62
     7
100
AcDbSpline
210
0.0
220
0.0
230
1.0
 70
     1
 71
     3
 72
    28
 73
    24
 74
     0
 42
0.0000000001
 43
0.0000000001
 40
0.0
 40
0.0
 40
0.0
 40
0.0
 40
0.1666666666666667
 40
0.1666666666666667
 40
0.1666666666666667
 40
0.1666666666666667
 40
0.3333333333333333
 40
0.3333333333333333
 40
0.3333333333333333
 40
0.3333333333333333
 40
0.5
 40
0.5
 40
0.5
 40
0.5
 40
0.6666666666666666
 40
0.6666666666666666
 40
0.6666666666666666
 40
0.6666666666666666
 40
0.8333333333333333
 40
0.8333333333333333
 40
0.8333333333333333
 40
0.8333333333333333
 40
1.0
 40
1.0
 40
1.0
 40
1.0
 10
3.2640400000000001
 20
-1.5728200000000001
 30
0.0
 10
3.4723200000000003
 20
-1.6388600000000002
 30
0.0
 10
3.4291400000000003
 20
-1.8217400000000001
 30
0.0
 10
3.2640400000000001
 20
-2.0020800000000003
 30
0.0
 10
3.2640400000000001
 20
-2.0020800000000003
 30
0.0
 10
3.2640400000000001
 20
-2.0020800000000003
 30
0.0
 10
2.9211400000000003
 20
-2.2637
 30
0.0
 10
2.9211400000000003
 20
-2.2637
 30
0.0
 10
2.9211400000000003
 20
-2.2637
 30
0.0
 10
2.92876
 20
-2.05288
 30
0.0
 10
3.0583000000000005
 20
-1.8420600000000003
 30
0.0
 10
3.0329000000000002
 20
-1.6134600000000001
 30
0.0
 10
3.0329000000000002
 20
-1.6134600000000001
 30
0.0
 10
3.1472000000000002
 20
-1.5931400000000002
 30
0.0
 10
3.0354400000000004
 20
-1.7328400000000002
 30
0.0
 10
3.0506800000000003
 20
-1.7988800000000003
 30
0.0
 10
3.0506800000000003
 20
-1.7988800000000003
 30
0.0
 10
3.0506800000000003
 20
-1.7988800000000003
 30
0.0
 10
2.9871800000000004
 20
-2.0427200000000001
 30
0.0
 10
2.9871800000000004
 20
-2.0427200000000001
 30
0.0
 10
2.9871800000000004
 20
-2.0427200000000001
 30
0.0
 10
3.2259400000000005
 20
-1.9944600000000001
 30
0.0
 10
3.2488000000000001
 20
-1.5804400000000001
 30
0.0
 10
3.2640400000000001
 20
-1.5728200000000001
 30
0.0
  0
SPLINE
  5
31
100
AcDbEntity
  8
Ebene 1
 62
     7
100
AcDbSpline
210
0.0
220
0.0
230
1.0
 70
     1
 71
     3
 72
    24
 73
    20
 74
     0
 42
0.0000000001
 43
0.0000000001
 40
0.0
 40
0.0
 40
0.0
 40
0.0
 40
0.2
 40
0.2
 40
0.2
 40
0.2
 40
0.4
 40
0.4
 40
0.4
 40
0.4
 40
0.6000000000000001
 40
0.6000000000000001
 40
0.6000000000000001
 40
0.6000000000000001
 40
0.8
 40
0.8
 40
0.8
 40
0.8
 40
1.0
 40
1.0
 40
1.0
 40
1.0
 10
-0.7313700000000001
 20
-0.15296
 30
0.0
 10
-0.38085
 20
-0.40696
 30
0.0
 10
-0.86853
 20
-0.63302
 30
0.0
 10
-0.99299
 20
-0.86416
 30
0.0
 10
-0.99299
 20
-0.86416
 30
0.0
 10
-1.0691900000000001
 20
-0.6889000000000001
 30
0.0
 10
-0.9879100000000001
 20
-0.49332
 30
0.0
 10
-0.9701300000000001
 20
-0.32822
 30
0.0
 10
-0.9701300000000001
 20
-0.32822
 30
0.0
 10
-0.9701300000000001
 20
-0.32822
 30
0.0
 10
-0.91171
 20
-0.16058
 30
0.0
 10
-0.91171
 20
-0.16058
 30
0.0
 10
-0.91171
 20
-0.16058
 30
0.0
 10
-0.71613
 20
-0.10216
 30
0.0
 10
-1.04379
 20
-0.40696
 30
0.0
 10
-0.9066300000000001
 20
-0.49586
 30
0.0
 10
-0.9066300000000001
 20
-0.49586
 30
0.0
 10
-0.8202700000000001
 20
-0.3841000000000001
 30
0.0
 10
-0.84567
 20
-0.21138
 30
0.0
 10
-0.7313700000000001
 20
-0.15296
 30
0.0
  0
SPLINE
  5
32
100
AcDbEntity
  8
Ebene 1
 62
     7
100
AcDbSpline
210
0.0
220
0.0
230
1.0
 70
     1
 71
     3
 72
    20
 73
    16
 74
     0
 42
0.0000000001
 43
0.0000000001
 40
0.0
 40
0.0
 40
0.0
 40
0.0
 40
0.25
 40
0.25
 40
0.25
 40
0.25
 40
0.5
 40
0.5
 40
0.5
 40
0.5
 40
0.75
 40
0.75
 40
0.75
 40
0.75
 40
1.0
 40
1.0
 40
1.0
 40
1.0
 10
-2.1182100000000004
 20
-0.22154
 30
0.0
 10
-2.10805
 20
-0.22662
 30
0.0
 10
-2.0851900000000003
 20
-0.23932
 30
0.0
 10
-2.0953500000000003
 20
-0.25202
 30
0.0
 10
-2.0953500000000003
 20
-0.25202
 30
0.0
 10
-2.2071100000000001
 20
-0.3333
 30
0.0
 10
-2.2350500000000002
 20
-0.5161800000000001
 30
0.0
 10
-2.3696700000000002
 20
-0.5644400000000001
 30
0.0
 10
-2.3696700000000002
 20
-0.5644400000000001
 30
0.0
 10
-2.3696700000000002
 20
-0.5644400000000001
 30
0.0
 10
-2.4966700000000004
 20
-0.346
 30
0.0
 10
-2.4966700000000004
 20
-0.346
 30
0.0
 10
-2.4966700000000004
 20
-0.346
 30
0.0
 10
-2.4966700000000004
 20
-0.346
 30
0.0
 10
-2.1182100000000004
 20
-0.22154
 30
0.0
 10
-2.1182100000000004
 20
-0.22154
 30
0.0
  0
SPLINE
  5
33
100
AcDbEntity
  8
Ebene 1
 62
     7
100
AcDbSpline
210
0.0
220
0.0
230
1.0
 70
     1
 71
     3
 72
    28
 73
    24
 74
     0
 42
0.0000000001
 43
0.0000000001
 40
0.0
 40
0.0
 40
0.0
 40
0.0
 40
0.1666666666666667
 40
0.1666666666666667
 40
0.1666666666666667
 40
0.1666666666666667
 40
0.3333333333333333
 40
0.3333333333333333
 40
0.3333333333333333
 40
0.3333333333333333
 40
0.5
 40
0.5
 40
0.5
 40
0.5
 40
0.6666666666666666
 40
0.6666666666666666
 40
0.6666666666666666
 40
0.6666666666666666
 40
0.8333333333333333
 40
0.8333333333333333
 40
0.8333333333333333
 40
0.8333333333333333
 40
1.0
 40
1.0
 40
1.0
 40
1.0
 10
-0.37069
 20
-1.4712200000000002
 30
0.0
 10
-0.12685
 20
-2.2230600000000003
 30
0.0
 10
0.06618
 20
-3.0257000000000001
 30
0.0
 10
0.23636
 20
-3.8004000000000002
 30
0.0
 10
0.23636
 20
-3.8004000000000002
 30
0.0
 10
0.06618
 20
-3.5362400000000003
 30
0.0
 10
0.11444
 20
-3.1095200000000003
 30
0.0
 10
-0.06335
 20
-2.90124
 30
0.0
 10
-0.06335
 20
-2.90124
 30
0.0
 10
-0.12177
 20
-3.0485600000000002
 30
0.0
 10
0.03062
 20
-3.2060400000000002
 30
0.0
 10
-0.01001
 20
-3.3609800000000001
 30
0.0
 10
-0.01001
 20
-3.3609800000000001
 30
0.0
 10
-0.17511
 20
-2.8860000000000001
 30
0.0
 10
-0.35291
 20
-2.3830800000000001
 30
0.0
 10
-0.48499
 20
-1.8852400000000002
 30
0.0
 10
-0.48499
 20
-1.8852400000000002
 30
0.0
 10
-0.41133
 20
-1.9030200000000002
 30
0.0
 10
-0.3325900000000001
 20
-2.2764000000000002
 30
0.0
 10
-0.21321
 20
-2.35514
 30
0.0
 10
-0.21321
 20
-2.35514
 30
0.0
 10
-0.21321
 20
-2.35514
 30
0.0
 10
-0.37069
 20
-1.4712200000000002
 30
0.0
 10
-0.37069
 20
-1.4712200000000002
 30
0.0
  0
ENDSEC
  0
SECTION
  2
OBJECTS
  0
DICTIONARY
  5
19
100
AcDbDictionary
280
     0
281
     1
  3
ACAD_GROUP
350
1A
  3
ACAD_MLINESTYLE
350
1B
  3
ACAD_LAYOUT
350
1E
  3
ACAD_PLOTSETTINGS
350
22
  3
ACAD_PLOTSTYLENAME
350
1F
  3
ACAD_WIPEOUT_VARS
350
23
  0
DICTIONARY
  5
1A
102
{ACAD_REACTORS
330
19
102
}
100
AcDbDictionary
280
     0
281
     1
  0
DICTIONARY
  5
1B
102
{ACAD_REACTORS
330
19
102
}
100
AcDbDictionary
280
     0
281
     1
  3
Standard
350
1C
  0
MLINESTYLE
  5
1C
102
{ACAD_REACTORS
330
1B
102
}
100
AcDbMlineStyle
  2
Standard
 70
     0
  3

 62
     0
 51
90.0
 52
90.0
 71
     2
 49
0.5
 62
   256
  6
BYLAYER
 49
-0.5
 62
   256
  6
BYLAYER
  0
ACDBDICTIONARYWDFLT
  5
1F
102
{ACAD_REACTORS
330
19
102
}
100
AcDbDictionary
281
     1
  3
Normal
350
1D
100
AcDbDictionaryWithDefault
340
1D
  0
ACDBPLACEHOLDER
  5
1D
102
{ACAD_REACTORS
330
1F
102
}
  0
LAYOUT
  5
20
102
{ACAD_REACTORS
330
1E
102
}
100
AcDbPlotSettings
  1

  2

  4

  6

 40
0.0
 41
0.0
 42
0.0
 43
0.0
 44
0.0
 45
0.0
 46
0.0
 47
0.0
 48
0.0
 49
0.0
140
0.0
141
0.0
142
1.0
143
1.0
 70
  1024
 72
     0
 73
     0
 74
     0
  7

 75
     0
147
1.0
148
0.0
149
0.0
100
AcDbLayout
  1
Model
 70
     0
 71
     0
 10
0.0
 20
0.0
 11
0.0
 21
0.0
 12
0.0
 22
0.0
 32
0.0
 14
0.0
 24
0.0
 34
0.0
 15
0.0
 25
0.0
 35
0.0
146
0.0
 13
0.0
 23
0.0
 33
0.0
 16
0.0
 26
0.0
 36
0.0
 17
0.0
 27
0.0
 37
0.0
 76
     0
330
A
331
0
345
0
346
0
  0
LAYOUT
  5
21
102
{ACAD_REACTORS
330
1E
102
}
100
AcDbPlotSettings
  1

  2

  4

  6

 40
0.0
 41
0.0
 42
0.0
 43
0.0
 44
0.0
 45
0.0
 46
0.0
 47
0.0
 48
0.0
 49
0.0
140
0.0
141
0.0
142
1.0
143
1.0
 70
     0
 72
     0
 73
     0
 74
     0
  7

 75
     0
147
1.0
148
0.0
149
0.0
100
AcDbLayout
  1
Layout1
 70
     0
 71
     0
 10
0.0
 20
0.0
 11
0.0
 21
0.0
 12
0.0
 22
0.0
 32
0.0
 14
0.0
 24
0.0
 34
0.0
 15
0.0
 25
0.0
 35
0.0
146
0.0
 13
0.0
 23
0.0
 33
0.0
 16
0.0
 26
0.0
 36
0.0
 17
0.0
 27
0.0
 37
0.0
 76
     0
330
B
331
0
345
0
346
0
  0
DICTIONARY
  5
1E
102
{ACAD_REACTORS
330
19
102
}
100
AcDbDictionary
280
     0
281
     1
  3
Layout1
350
21
  3
Model
350
20
  0
DICTIONARY
  5
22
102
{ACAD_REACTORS
330
19
102
}
100
AcDbDictionary
280
     0
281
     1
  0
WIPEOUTVARIABLES
  5
23
100
AcDbWipeoutVariables
 70
     1
  0
ENDSEC
  0
EOF
