  0
SECTION
  2
HEADER
  9
$ACADVER
  1
AC1015
  9
$ACADMAINTVER
 70
     6
  9
$DWGCODEPAGE
  3
DOS850
  9
$INSBASE
 10
0.0
 20
0.0
 30
0.0
  9
$EXTMIN
 10
-5.19505
 20
-6.188
 30
1.000000E+20
  9
$EXTMAX
 10
5.2007
 20
6.18147
 30
-1.000000E+20
  9
$LIMMIN
 10
0.0
 20
0.0
  9
$LIMMAX
 10
0.0
 20
0.0
  9
$ORTHOMODE
 70
     0
  9
$REGENMODE
 70
     1
  9
$FILLMODE
 70
     1
  9
$QTEXTMODE
 70
     0
  9
$MIRRTEXT
 70
     1
  9
$LTSCALE
 40
1.0
  9
$ATTMODE
 70
     1
  9
$TEXTSIZE
 40
0.2
  9
$TRACEWID
 40
0.05
  9
$TEXTSTYLE
  7
Standard
  9
$CLAYER
  8
0
  9
$CELTYPE
  6
Continuous
  9
$CECOLOR
 62
   256
  9
$CELTSCALE
 40
1.0
  9
$DISPSILH
 70
     0
  9
$DIMSCALE
 40
1.0
  9
$DIMASZ
 40
0.18
  9
$DIMEXO
 40
0.0625
  9
$DIMDLI
 40
0.38
  9
$DIMRND
 40
0.0
  9
$DIMDLE
 40
0.0
  9
$DIMEXE
 40
0.18
  9
$DIMTP
 40
0.0
  9
$DIMTM
 40
0.0
  9
$DIMTXT
 40
0.18
  9
$DIMCEN
 40
0.09
  9
$DIMTSZ
 40
0.0
  9
$DIMTOL
 70
     0
  9
$DIMLIM
 70
     0
  9
$DIMTIH
 70
     1
  9
$DIMTOH
 70
     1
  9
$DIMSE1
 70
     0
  9
$DIMSE2
 70
     0
  9
$DIMTAD
 70
     0
  9
$DIMZIN
 70
     0
  9
$DIMBLK
  1

  9
$DIMASO
 70
     1
  9
$DIMSHO
 70
     1
  9
$DIMPOST
  1

  9
$DIMAPOST
  1

  9
$DIMALT
 70
     0
  9
$DIMALTD
 70
     2
  9
$DIMALTF
 40
25.4
  9
$DIMLFAC
 40
1.0
  9
$DIMTOFL
 70
     0
  9
$DIMTVP
 40
0.0
  9
$DIMTIX
 70
     0
  9
$DIMSOXD
 70
     0
  9
$DIMSAH
 70
     0
  9
$DIMBLK1
  1

  9
$DIMBLK2
  1

  9
$DIMSTYLE
  2
Standard
  9
$DIMCLRD
 70
     0
  9
$DIMCLRE
 70
     0
  9
$DIMCLRT
 70
     0
  9
$DIMTFAC
 40
1.0
  9
$DIMGAP
 40
0.09
  9
$DIMJUST
 70
     0
  9
$DIMSD1
 70
     0
  9
$DIMSD2
 70
     0
  9
$DIMTOLJ
 70
     1
  9
$DIMTZIN
 70
     0
  9
$DIMALTZ
 70
     0
  9
$DIMALTTZ
 70
     0
  9
$DIMUPT
 70
     0
  9
$DIMDEC
 70
     4
  9
$DIMTDEC
 70
     4
  9
$DIMALTU
 70
     2
  9
$DIMALTTD
 70
     2
  9
$DIMTXSTY
  7
Standard
  9
$DIMAUNIT
 70
     0
  9
$DIMADEC
 70
     0
  9
$DIMALTRND
 40
0.0
  9
$DIMAZIN
 70
     0
  9
$DIMDSEP
 70
     0
  9
$DIMATFIT
 70
     3
  9
$DIMFRAC
 70
     0
  9
$DIMLDRBLK
  1

  9
$DIMLUNIT
 70
     2
  9
$DIMLWD
 70
     0
  9
$DIMLWE
 70
     0
  9
$DIMTMOVE
 70
     0
  9
$LUNITS
 70
     2
  9
$LUPREC
 70
     4
  9
$SKETCHINC
 40
0.1
  9
$FILLETRAD
 40
0.0
  9
$AUNITS
 70
     0
  9
$AUPREC
 70
     0
  9
$MENU
  1
acad
  9
$ELEVATION
 40
0.0
  9
$PELEVATION
 40
0.0
  9
$THICKNESS
 40
0.0
  9
$LIMCHECK
 70
     0
  9
$CHAMFERA
 40
0.0
  9
$CHAMFERB
 40
0.0
  9
$CHAMFERC
 40
0.0
  9
$CHAMFERD
 40
0.0
  9
$SKPOLY
 70
     0
  9
$TDCREATE
 40
0.000000000
  9
$TDUCREATE
 40
0.000000000
  9
$TDUPDATE
 40
0.000000000
  9
$TDUUPDATE
 40
0.000000000
  9
$TDINDWG
 40
0.0000000000
  9
$TDUSRTIMER
 40
0.0000000000
  9
$USRTIMER
 70
     1
  9
$ANGBASE
 50
0.0
  9
$ANGDIR
 70
     0
  9
$PDMODE
 70
     0
  9
$PDSIZE
 40
0.0
  9
$PLINEWID
 40
0.0
  9
$SPLFRAME
 70
     0
  9
$SPLINETYPE
 70
     6
  9
$SPLINESEGS
 70
     8
  9
$HANDSEED
  5
4B
  9
$SURFTAB1
 70
     6
  9
$SURFTAB2
 70
     6
  9
$SURFTYPE
 70
     6
  9
$SURFU
 70
     6
  9
$SURFV
 70
     6
  9
$UCSBASE
  2

  9
$UCSNAME
  2

  9
$UCSORG
 10
0.0
 20
0.0
 30
0.0
  9
$UCSXDIR
 10
1.0
 20
0.0
 30
0.0
  9
$UCSYDIR
 10
0.0
 20
1.0
 30
0.0
  9
$UCSORTHOREF
  2

  9
$UCSORTHOVIEW
 70
     0
  9
$UCSORGTOP
 10
0.0
 20
0.0
 30
0.0
  9
$UCSORGBOTTOM
 10
0.0
 20
0.0
 30
0.0
  9
$UCSORGLEFT
 10
0.0
 20
0.0
 30
0.0
  9
$UCSORGRIGHT
 10
0.0
 20
0.0
 30
0.0
  9
$UCSORGFRONT
 10
0.0
 20
0.0
 30
0.0
  9
$UCSORGBACK
 10
0.0
 20
0.0
 30
0.0
  9
$PUCSBASE
  2

  9
$PUCSNAME
  2

  9
$PUCSORG
 10
0.0
 20
0.0
 30
0.0
  9
$PUCSXDIR
 10
1.0
 20
0.0
 30
0.0
  9
$PUCSYDIR
 10
0.0
 20
1.0
 30
0.0
  9
$PUCSORTHOREF
  2

  9
$PUCSORTHOVIEW
 70
     0
  9
$PUCSORGTOP
 10
0.0
 20
0.0
 30
0.0
  9
$PUCSORGBOTTOM
 10
0.0
 20
0.0
 30
0.0
  9
$PUCSORGLEFT
 10
0.0
 20
0.0
 30
0.0
  9
$PUCSORGRIGHT
 10
0.0
 20
0.0
 30
0.0
  9
$PUCSORGFRONT
 10
0.0
 20
0.0
 30
0.0
  9
$PUCSORGBACK
 10
0.0
 20
0.0
 30
0.0
  9
$USERI1
 70
     0
  9
$USERI2
 70
     0
  9
$USERI3
 70
     0
  9
$USERI4
 70
     0
  9
$USERI5
 70
     0
  9
$USERR1
 40
0.0
  9
$USERR2
 40
0.0
  9
$USERR3
 40
0.0
  9
$USERR4
 40
0.0
  9
$USERR5
 40
0.0
  9
$WORLDVIEW
 70
     1
  9
$SHADEDGE
 70
     3
  9
$SHADEDIF
 70
    70
  9
$TILEMODE
 70
     1
  9
$MAXACTVP
 70
    16
  9
$PINSBASE
 10
0.0
 20
0.0
 30
0.0
  9
$PLIMCHECK
 70
     0
  9
$PEXTMIN
 10
1.000000E+20
 20
1.000000E+20
 30
1.000000E+20
  9
$PEXTMAX
 10
-1.000000E+20
 20
-1.000000E+20
 30
-1.000000E+20
  9
$PLIMMIN
 10
0.0
 20
0.0
  9
$PLIMMAX
 10
12.0
 20
9.0
  9
$UNITMODE
 70
     0
  9
$VISRETAIN
 70
     0
  9
$PLINEGEN
 70
     1
  9
$PSLTSCALE
 70
     0
  9
$TREEDEPTH
 70
  3020
  9
$CMLSTYLE
  2
Standard
  9
$CMLJUST
 70
     0
  9
$CMLSCALE
 40
1.0
  9
$PROXYGRAPHICS
 70
     0
  9
$MEASUREMENT
 70
     0
  9
$CELWEIGHT
370
     0
  9
$ENDCAPS
280
     0
  9
$JOINSTYLE
280
     0
  9
$LWDISPLAY
290
     0
  9
$INSUNITS
 70
     5
  9
$HYPERLINKBASE
  1

  9
$XEDIT
290
     1
  9
$CEPSNTYPE
380
     0
  9
$PSTYLEMODE
290
     1
  9
$FINGERPRINTGUID
  2

  9
$VERSIONGUID
  2

  9
$EXTNAMES
290
     1
  9
$PSVPSCALE
 40
0.0
  0
ENDSEC
  0
SECTION
  2
CLASSES
  0
CLASS
  1
LWPOLYLINE
  2
AcDbPolyline
  3
AutoCAD 2000
 90
    32768
280
     0
281
     1
  0
CLASS
  1
IMAGE
  2
AcDbRasterImage
  3
ISM
 90
    32895
280
     0
281
     1
  0
CLASS
  1
OLE2FRAME
  2
AcDbOle2Frame
  3
AutoCAD 2000
 90
    32768
280
     0
281
     1
  0
CLASS
  1
HATCH
  2
AcDbHatch
  3
AutoCAD 2000
 90
    32768
280
     0
281
     1
  0
CLASS
  1
DICTIONARYVAR
  2
AcDbDictionaryVar
  3
AutoCAD 2000
 90
    32768
280
     0
281
     0
  0
CLASS
  1
RASTERVARIABLES
  2
AcDbRasterVariables
  3
ISM
 90
    32768
280
     0
281
     0
  0
CLASS
  1
IMAGEDEF
  2
AcDbRasterImageDef
  3
ISM
 90
    32768
280
     0
281
     0
  0
CLASS
  1
IMAGEDEF_REACTOR
  2
AcDbRasterImageDefReactor
  3
ISM
 90
    32769
280
     0
281
     0
  0
CLASS
  1
IDBUFFER
  2
AcDbIdBuffer
  3
AutoCAD 2000
 90
    32768
280
     0
281
     0
  0
CLASS
  1
SPATIAL_FILTER
  2
AcDbSpatialFilter
  3
AutoCAD 2000
 90
    32768
280
     0
281
     0
  0
CLASS
  1
XRECORD
  2
AcDbXrecord
  3
AutoCAD 2000
 90
    32768
280
     0
281
     0
  0
CLASS
  1
SORTENTSTABLE
  2
AcDbSortentsTable
  3
AutoCAD 2000
 90
    32768
280
     0
281
     0
  0
CLASS
  1
LAYER_INDEX
  2
AcDbLayerIndex
  3
AutoCAD 2000
 90
    32768
280
     0
281
     0
  0
CLASS
  1
SPATIAL_INDEX
  2
AcDbSpatialIndex
  3
AutoCAD 2000
 90
    32768
280
     0
281
     0
  0
CLASS
  1
OBJECT_PTR
  2
CAseDLPNTableRecord
  3
"ASE-LPNTableRecord"
 90
    32769
280
     0
281
     0
  0
CLASS
  1
LAYOUT
  2
AcDbLayout
  3
AutoCAD 2000
 90
        0
280
     0
281
     0
  0
CLASS
  1
PLOTSETTINGS
  2
AcDbPlotSettings
  3
AutoCAD 2000
 90
    32768
280
     0
281
     0
  0
CLASS
  1
ACDBDICTIONARYWDFLT
  2
AcDbDictionaryWithDefault
  3
AutoCAD 2000
 90
        0
280
     0
281
     0
  0
CLASS
  1
ACDBPLACEHOLDER
  2
AcDbPlaceHolder
  3
AutoCAD 2000
 90
        0
280
     0
281
     0
  0
CLASS
  1
VBA_PROJECT
  2
AcDbVbaProject
  3
acadvba
 90
    32768
280
     0
281
     0
  0
CLASS
  1
WIPEOUT
  2
AcDbWipeout
  3
WipeOut|AutoCAD Express Tool|expresstools@autodesk.com
 90
    32895
280
     0
281
     1
  0
CLASS
  1
WIPEOUTVARIABLES
  2
AcDbWipeoutVariables
  3
WipeOut|AutoCAD Express Tool|expresstools@autodesk.com
 90
        0
280
     0
281
     0
  0
CLASS
  1
RTEXT
  2
RText
  3
RText|AutoCAD Express Tool|expresstools@autodesk.com
 90
    32768
280
     0
281
     1
  0
CLASS
  1
ARCALIGNEDTEXT
  2
AcDbArcAlignedText
  3
ATEXT|AutoCAD Express Tool|expresstools@autodesk.com
 90
    32768
280
     0
281
     1
  0
ENDSEC
  0
SECTION
  2
TABLES
  0
TABLE
  2
VPORT
  5
7
100
AcDbSymbolTable
 70
     1
  0
VPORT
  5
15
100
AcDbSymbolTableRecord
100
AcDbViewportTableRecord
  2
*ACTIVE
 70
     0
 10
0.0
 20
0.0
 11
1.0
 21
1.0
 12
6.591288
 22
4.579184
 13
0.0
 23
0.0
 14
1.0
 24
1.0
 15
0.0
 25
0.0
 16
0.0
 26
0.0
 36
1.0
 17
0.0
 27
0.0
 37
0.0
 40
9.158369
 41
0.688564
 42
50.0
 43
0.0
 44
0.0
 50
0.0
 51
0.0
 71
     0
 72
   100
 73
     1
 74
     1
 75
     0
 76
     0
 77
     0
 78
     0
281
     0
 65
     0
110
0.0
120
0.0
130
0.0
111
1.0
121
0.0
131
0.0
112
0.0
122
1.0
132
0.0
345
0
346
0
 79
     0
146
0.0
  0
ENDTAB
  0
TABLE
  2
LTYPE
  5
4
100
AcDbSymbolTable
 70
     3
  0
LTYPE
  5
11
100
AcDbSymbolTableRecord
100
AcDbLinetypeTableRecord
  2
ByBlock
 70
    64
  3

 72
    65
 73
     0
 40
0.0
  0
LTYPE
  5
12
100
AcDbSymbolTableRecord
100
AcDbLinetypeTableRecord
  2
ByLayer
 70
    64
  3

 72
    65
 73
     0
 40
0.0
  0
LTYPE
  5
13
100
AcDbSymbolTableRecord
100
AcDbLinetypeTableRecord
  2
Continuous
 70
    64
  3
Solid line
 72
    65
 73
     0
 40
0.0
  0
ENDTAB
  0
TABLE
  2
LAYER
  5
2
100
AcDbSymbolTable
 70
     2
  0
LAYER
  5
14
100
AcDbSymbolTableRecord
100
AcDbLayerTableRecord
  2
0
 70
     0
 62
     7
  6
Continuous
290
     1
370
    -3
390
1D
  0
LAYER
  5
24
100
AcDbSymbolTableRecord
100
AcDbLayerTableRecord
  2
Ebene 1
 70
     0
 62
     7
  6
Continuous
290
     1
370
    -3
390
1F
  0
ENDTAB
  0
TABLE
  2
STYLE
  5
3
100
AcDbSymbolTable
 70
     1
  0
STYLE
  5
17
100
AcDbSymbolTableRecord
100
AcDbTextStyleTableRecord
  2
Standard
 70
     0
 40
0.0
 41
1.0
 50
0.0
 71
     0
 42
0.0
  3
txt
  4

  0
ENDTAB
  0
TABLE
  2
VIEW
  5
5
100
AcDbSymbolTable
 70
     0
  0
ENDTAB
  0
TABLE
  2
UCS
  5
6
100
AcDbSymbolTable
 70
     0
  0
ENDTAB
  0
TABLE
  2
APPID
  5
8
100
AcDbSymbolTable
 70
     1
  0
APPID
  5
16
100
AcDbSymbolTableRecord
100
AcDbRegAppTableRecord
  2
ACAD
 70
     0
  0
ENDTAB
  0
TABLE
  2
DIMSTYLE
  5
9
100
AcDbSymbolTable
 70
     1
100
AcDbDimStyleTable
 71
     0
  0
DIMSTYLE
105
18
100
AcDbSymbolTableRecord
100
AcDbDimStyleTableRecord
  2
Standard
 70
     0
  3

  4

 40
1.0
 41
0.18
 42
0.0625
 43
0.38
 44
0.18
 45
0.0
 46
0.0
 47
0.0
 48
0.0
 71
     0
 72
     0
 73
     1
 74
     1
 75
     0
 76
     0
 77
     0
 78
     0
 79
     0
140
0.18
141
0.09
142
0.0
143
25.4
144
1.0
145
0.0
146
1.0
147
0.09
148
0.0
170
     0
171
     2
172
     0
173
     0
174
     0
175
     0
176
     0
177
     0
178
     0
179
     0
271
     4
272
     4
273
     2
274
     2
275
     0
276
     0
277
     2
278
    46
279
     0
280
     0
281
     0
282
     0
283
     1
284
     0
285
     0
286
     0
288
     0
340
17
341
0
342
0
343
0
344
0
371
    -2
372
    -2
  0
ENDTAB
  0
TABLE
  2
BLOCK_RECORD
  5
1
100
AcDbSymbolTable
 70
     0
  0
BLOCK_RECORD
  5
A
100
AcDbSymbolTableRecord
100
AcDbBlockTableRecord
  2
*MODEL_SPACE
340
20
  0
BLOCK_RECORD
  5
B
100
AcDbSymbolTableRecord
100
AcDbBlockTableRecord
  2
*PAPER_SPACE
340
21
  0
ENDTAB
  0
ENDSEC
  0
SECTION
  2
BLOCKS
  0
BLOCK
  5
D
100
AcDbEntity
  8
0
100
AcDbBlockBegin
  2
*MODEL_SPACE
 70
     0
 10
0.0
 20
0.0
 30
0.0
  3
*MODEL_SPACE
  1

  0
ENDBLK
  5
E
100
AcDbEntity
  8
0
100
AcDbBlockEnd
  0
BLOCK
  5
F
100
AcDbEntity
 67
     1
  8
0
100
AcDbBlockBegin
  2
*PAPER_SPACE
 70
     0
 10
0.0
 20
0.0
 30
0.0
  3
*PAPER_SPACE
  1

  0
ENDBLK
  5
10
100
AcDbEntity
 67
     1
  8
0
100
AcDbBlockEnd
  0
ENDSEC
  0
SECTION
  2
ENTITIES
  0
SPLINE
  5
25
100
AcDbEntity
  8
Ebene 1
100
AcDbSpline
210
0.0
220
0.0
230
1.0
 70
     1
 71
     3
 72
    88
 73
    84
 74
     0
 42
0.0000000001
 43
0.0000000001
 40
0.0
 40
0.0
 40
0.0
 40
0.0
 40
0.0476190476190476
 40
0.0476190476190476
 40
0.0476190476190476
 40
0.0476190476190476
 40
0.0952380952380952
 40
0.0952380952380952
 40
0.0952380952380952
 40
0.0952380952380952
 40
0.1428571428571429
 40
0.1428571428571429
 40
0.1428571428571429
 40
0.1428571428571429
 40
0.1904761904761905
 40
0.1904761904761905
 40
0.1904761904761905
 40
0.1904761904761905
 40
0.2380952380952381
 40
0.2380952380952381
 40
0.2380952380952381
 40
0.2380952380952381
 40
0.2857142857142857
 40
0.2857142857142857
 40
0.2857142857142857
 40
0.2857142857142857
 40
0.3333333333333333
 40
0.3333333333333333
 40
0.3333333333333333
 40
0.3333333333333333
 40
0.3809523809523809
 40
0.3809523809523809
 40
0.3809523809523809
 40
0.3809523809523809
 40
0.4285714285714286
 40
0.4285714285714286
 40
0.4285714285714286
 40
0.4285714285714286
 40
0.4761904761904762
 40
0.4761904761904762
 40
0.4761904761904762
 40
0.4761904761904762
 40
0.5238095238095237
 40
0.5238095238095237
 40
0.5238095238095237
 40
0.5238095238095237
 40
0.5714285714285714
 40
0.5714285714285714
 40
0.5714285714285714
 40
0.5714285714285714
 40
0.6190476190476191
 40
0.6190476190476191
 40
0.6190476190476191
 40
0.6190476190476191
 40
0.6666666666666667
 40
0.6666666666666667
 40
0.6666666666666667
 40
0.6666666666666667
 40
0.7142857142857144
 40
0.7142857142857144
 40
0.7142857142857144
 40
0.7142857142857144
 40
0.7619047619047621
 40
0.7619047619047621
 40
0.7619047619047621
 40
0.7619047619047621
 40
0.8095238095238098
 40
0.8095238095238098
 40
0.8095238095238098
 40
0.8095238095238098
 40
0.8571428571428574
 40
0.8571428571428574
 40
0.8571428571428574
 40
0.8571428571428574
 40
0.9047619047619051
 40
0.9047619047619051
 40
0.9047619047619051
 40
0.9047619047619051
 40
0.9523809523809528
 40
0.9523809523809528
 40
0.9523809523809528
 40
0.9523809523809528
 40
1.0
 40
1.0
 40
1.0
 40
1.0
 10
1.7451200000000002
 20
-4.0340800000000003
 30
0.0
 10
2.0499200000000002
 20
-4.6944800000000004
 30
0.0
 10
2.08548
 20
-5.4793400000000005
 30
0.0
 10
2.2124800000000002
 20
-6.1880000000000006
 30
0.0
 10
2.2124800000000002
 20
-6.1880000000000006
 30
0.0
 10
2.4309200000000004
 20
-5.9009800000000006
 30
0.0
 10
2.5223600000000004
 20
-5.4437800000000003
 30
0.0
 10
2.5909400000000002
 20
-5.0627800000000001
 30
0.0
 10
2.5909400000000002
 20
-5.0627800000000001
 30
0.0
 10
2.6290400000000003
 20
-4.7910000000000004
 30
0.0
 10
2.6874600000000002
 20
-4.5243000000000002
 30
0.0
 10
2.67984
 20
-4.2449000000000003
 30
0.0
 10
2.67984
 20
-4.2449000000000003
 30
0.0
 10
3.2869000000000002
 20
-4.3871400000000005
 30
0.0
 10
3.7136200000000001
 20
-3.9350200000000002
 30
0.0
 10
4.3003600000000004
 20
-3.8588200000000001
 30
0.0
 10
4.3003600000000004
 20
-3.8588200000000001
 30
0.0
 10
4.2698800000000006
 20
-3.5362400000000003
 30
0.0
 10
4.3537000000000008
 20
-3.2263600000000001
 30
0.0
 10
4.5315000000000003
 20
-2.9622000000000002
 30
0.0
 10
4.5315000000000003
 20
-2.9622000000000002
 30
0.0
 10
4.8490000000000002
 20
-3.7038800000000003
 30
0.0
 10
4.7601000000000004
 20
-4.5547800000000001
 30
0.0
 10
4.8007400000000002
 20
-5.3117000000000001
 30
0.0
 10
4.8007400000000002
 20
-5.3117000000000001
 30
0.0
 10
5.1995200000000006
 20
-4.7021000000000006
 30
0.0
 10
5.1182400000000001
 20
-3.7394400000000001
 30
0.0
 10
5.1995200000000006
 20
-2.9723600000000001
 30
0.0
 10
5.1995200000000006
 20
-2.9723600000000001
 30
0.0
 10
5.2223800000000002
 20
-2.1214600000000003
 30
0.0
 10
4.9125000000000005
 20
-1.3823200000000002
 30
0.0
 10
4.5848400000000007
 20
-0.6431800000000001
 30
0.0
 10
4.5848400000000007
 20
-0.6431800000000001
 30
0.0
 10
4.4908600000000005
 20
-0.4374400000000001
 30
0.0
 10
4.3867200000000004
 20
0.22549
 30
0.0
 10
4.2825800000000003
 20
0.42869
 30
0.0
 10
4.2825800000000003
 20
0.42869
 30
0.0
 10
3.8685600000000004
 20
1.2440300000000002
 30
0.0
 10
3.4748600000000005
 20
1.6021700000000001
 30
0.0
 10
3.1675200000000001
 20
2.42767
 30
0.0
 10
3.1675200000000001
 20
2.42767
 30
0.0
 10
2.8449400000000002
 20
2.4987900000000001
 30
0.0
 10
2.4537800000000001
 20
2.5064100000000002
 30
0.0
 10
2.2328000000000001
 20
2.8162900000000004
 30
0.0
 10
2.2328000000000001
 20
2.8162900000000004
 30
0.0
 10
2.4893400000000003
 20
3.5274900000000002
 30
0.0
 10
1.8086200000000001
 20
4.0532700000000004
 30
0.0
 10
1.32094
 20
4.4545900000000005
 30
0.0
 10
1.32094
 20
4.4545900000000005
 30
0.0
 10
0.9729600000000001
 20
5.2750100000000009
 30
0.0
 10
0.16016
 20
5.8236500000000007
 30
0.0
 10
-0.65771
 20
6.1005100000000008
 30
0.0
 10
-0.65771
 20
6.1005100000000008
 30
0.0
 10
-1.3689100000000001
 20
6.2833900000000007
 30
0.0
 10
-2.1994900000000004
 20
6.1513100000000005
 30
0.0
 10
-2.8192500000000003
 20
5.7626900000000001
 30
0.0
 10
-2.8192500000000003
 20
5.7626900000000001
 30
0.0
 10
-3.6625300000000003
 20
5.6026700000000007
 30
0.0
 10
-4.4346900000000007
 20
5.1988100000000008
 30
0.0
 10
-4.9655500000000004
 20
4.5358700000000001
 30
0.0
 10
-4.9655500000000004
 20
4.5358700000000001
 30
0.0
 10
-5.5675300000000005
 20
3.4335100000000001
 30
0.0
 10
-4.8817300000000001
 20
2.1457300000000004
 30
0.0
 10
-4.1298900000000005
 20
1.3075300000000001
 30
0.0
 10
-4.1298900000000005
 20
1.3075300000000001
 30
0.0
 10
-4.3203900000000006
 20
0.9443100000000001
 30
0.0
 10
-4.0460700000000003
 20
0.38551
 30
0.0
 10
-3.6193500000000003
 20
0.32201
 30
0.0
 10
-3.6193500000000003
 20
0.32201
 30
0.0
 10
-2.4966700000000004
 20
-0.7905000000000001
 30
0.0
 10
-2.06995
 20
-2.4135600000000004
 30
0.0
 10
-1.1377700000000002
 20
-3.6175200000000003
 30
0.0
 10
-1.1377700000000002
 20
-3.6175200000000003
 30
0.0
 10
-0.78217
 20
-3.7953200000000002
 30
0.0
 10
-0.47483
 20
-3.5972000000000004
 30
0.0
 10
-0.11161
 20
-3.5387800000000005
 30
0.0
 10
-0.11161
 20
-3.5387800000000005
 30
0.0
 10
0.13222
 20
-3.5286200000000001
 30
0.0
 10
0.38368
 20
-3.5438600000000005
 30
0.0
 10
0.63514
 20
-3.5768800000000005
 30
0.0
 10
0.63514
 20
-3.5768800000000005
 30
0.0
 10
1.02122
 20
-3.6683200000000005
 30
0.0
 10
1.40222
 20
-3.8562800000000004
 30
0.0
 10
1.7451200000000002
 20
-4.0340800000000003
 30
0.0
  0
SPLINE
  5
26
100
AcDbEntity
  8
Ebene 1
100
AcDbSpline
210
0.0
220
0.0
230
1.0
 70
     1
 71
     3
 72
    16
 73
    12
 74
     0
 42
0.0000000001
 43
0.0000000001
 40
0.0
 40
0.0
 40
0.0
 40
0.0
 40
0.3333333333333333
 40
0.3333333333333333
 40
0.3333333333333333
 40
0.3333333333333333
 40
0.6666666666666666
 40
0.6666666666666666
 40
0.6666666666666666
 40
0.6666666666666666
 40
1.0
 40
1.0
 40
1.0
 40
1.0
 10
3.4951800000000004
 20
-2.1621000000000001
 30
0.0
 10
3.4951800000000004
 20
-2.1621000000000001
 30
0.0
 10
3.5510600000000001
 20
-2.7361400000000002
 30
0.0
 10
3.5510600000000001
 20
-2.7361400000000002
 30
0.0
 10
3.5510600000000001
 20
-2.7361400000000002
 30
0.0
 10
3.5231200000000005
 20
-2.6802600000000001
 30
0.0
 10
3.4647000000000001
 20
-2.5862800000000004
 30
0.0
 10
3.3961200000000002
 20
-2.6116800000000002
 30
0.0
 10
3.3961200000000002
 20
-2.6116800000000002
 30
0.0
 10
3.3961200000000002
 20
-2.6116800000000002
 30
0.0
 10
3.4951800000000004
 20
-2.1621000000000001
 30
0.0
 10
3.4951800000000004
 20
-2.1621000000000001
 30
0.0
  0
SPLINE
  5
27
100
AcDbEntity
  8
Ebene 1
100
AcDbSpline
210
0.0
220
0.0
230
1.0
 70
     1
 71
     3
 72
    12
 73
     8
 74
     0
 42
0.0000000001
 43
0.0000000001
 40
0.0
 40
0.0
 40
0.0
 40
0.0
 40
0.5
 40
0.5
 40
0.5
 40
0.5
 40
1.0
 40
1.0
 40
1.0
 40
1.0
 10
4.0412800000000004
 20
-2.0909800000000001
 30
0.0
 10
4.1301800000000002
 20
-2.2078200000000003
 30
0.0
 10
4.1022400000000001
 20
-2.3399000000000001
 30
0.0
 10
4.0412800000000004
 20
-2.4592800000000001
 30
0.0
 10
4.0412800000000004
 20
-2.4592800000000001
 30
0.0
 10
4.0285800000000007
 20
-2.3399000000000001
 30
0.0
 10
4.0260400000000001
 20
-2.2027400000000004
 30
0.0
 10
4.0412800000000004
 20
-2.0909800000000001
 30
0.0
  0
SPLINE
  5
28
100
AcDbEntity
  8
Ebene 1
100
AcDbSpline
210
0.0
220
0.0
230
1.0
 70
     1
 71
     3
 72
    12
 73
     8
 74
     0
 42
0.0000000001
 43
0.0000000001
 40
0.0
 40
0.0
 40
0.0
 40
0.0
 40
0.5
 40
0.5
 40
0.5
 40
0.5
 40
1.0
 40
1.0
 40
1.0
 40
1.0
 10
3.7314000000000003
 20
-2.0782800000000003
 30
0.0
 10
3.7364800000000002
 20
-2.3424400000000003
 30
0.0
 10
3.9498400000000005
 20
-2.5380200000000004
 30
0.0
 10
3.9600000000000004
 20
-2.7793200000000002
 30
0.0
 10
3.9600000000000004
 20
-2.7793200000000002
 30
0.0
 10
3.8787200000000004
 20
-2.5532600000000003
 30
0.0
 10
3.6323400000000001
 20
-2.3272000000000004
 30
0.0
 10
3.7314000000000003
 20
-2.0782800000000003
 30
0.0
  0
SPLINE
  5
29
100
AcDbEntity
  8
Ebene 1
100
AcDbSpline
210
0.0
220
0.0
230
1.0
 70
     1
 71
     3
 72
    56
 73
    52
 74
     0
 42
0.0000000001
 43
0.0000000001
 40
0.0
 40
0.0
 40
0.0
 40
0.0
 40
0.0769230769230769
 40
0.0769230769230769
 40
0.0769230769230769
 40
0.0769230769230769
 40
0.1538461538461539
 40
0.1538461538461539
 40
0.1538461538461539
 40
0.1538461538461539
 40
0.2307692307692308
 40
0.2307692307692308
 40
0.2307692307692308
 40
0.2307692307692308
 40
0.3076923076923077
 40
0.3076923076923077
 40
0.3076923076923077
 40
0.3076923076923077
 40
0.3846153846153846
 40
0.3846153846153846
 40
0.3846153846153846
 40
0.3846153846153846
 40
0.4615384615384616
 40
0.4615384615384616
 40
0.4615384615384616
 40
0.4615384615384616
 40
0.5384615384615386
 40
0.5384615384615386
 40
0.5384615384615386
 40
0.5384615384615386
 40
0.6153846153846154
 40
0.6153846153846154
 40
0.6153846153846154
 40
0.6153846153846154
 40
0.6923076923076923
 40
0.6923076923076923
 40
0.6923076923076923
 40
0.6923076923076923
 40
0.7692307692307692
 40
0.7692307692307692
 40
0.7692307692307692
 40
0.7692307692307692
 40
0.846153846153846
 40
0.846153846153846
 40
0.846153846153846
 40
0.846153846153846
 40
0.9230769230769229
 40
0.9230769230769229
 40
0.9230769230769229
 40
0.9230769230769229
 40
1.0
 40
1.0
 40
1.0
 40
1.0
 10
-1.6051300000000002
 20
0.6242700000000001
 30
0.0
 10
-1.5619500000000002
 20
0.5429900000000001
 30
0.0
 10
-1.50353
 20
0.45917
 30
0.0
 10
-1.4324100000000002
 20
0.40329
 30
0.0
 10
-1.4324100000000002
 20
0.40329
 30
0.0
 10
-1.4933700000000001
 20
0.11119
 30
0.0
 10
-1.41717
 20
-0.26726
 30
0.0
 10
-1.2012700000000001
 20
-0.4679200000000001
 30
0.0
 10
-1.2012700000000001
 20
-0.4679200000000001
 30
0.0
 10
-1.1123700000000001
 20
-0.33838
 30
0.0
 10
-1.1860300000000001
 20
-0.1682
 30
0.0
 10
-1.13015
 20
-0.03104
 30
0.0
 10
-1.13015
 20
-0.03104
 30
0.0
 10
-1.1123700000000001
 20
-0.0539
 30
0.0
 10
-1.08697
 20
-0.1047
 30
0.0
 10
-1.08189
 20
-0.1428
 30
0.0
 10
-1.08189
 20
-0.1428
 30
0.0
 10
-1.08189
 20
-0.1428
 30
0.0
 10
-1.1098300000000001
 20
-0.26726
 30
0.0
 10
-1.1098300000000001
 20
-0.26726
 30
0.0
 10
-1.1098300000000001
 20
-0.26726
 30
0.0
 10
-1.1098300000000001
 20
-0.26726
 30
0.0
 10
-1.1174500000000001
 20
-0.31552
 30
0.0
 10
-1.1174500000000001
 20
-0.31552
 30
0.0
 10
-1.1174500000000001
 20
-0.31552
 30
0.0
 10
-1.1606300000000001
 20
-0.4222
 30
0.0
 10
-1.1580900000000001
 20
-0.5365000000000001
 30
0.0
 10
-1.1555500000000001
 20
-0.6508000000000001
 30
0.0
 10
-1.1555500000000001
 20
-0.6508000000000001
 30
0.0
 10
-1.1530100000000001
 20
-0.67874
 30
0.0
 10
-1.12761
 20
-0.7270000000000001
 30
0.0
 10
-1.1733300000000002
 20
-0.74224
 30
0.0
 10
-1.1733300000000002
 20
-0.74224
 30
0.0
 10
-1.2647700000000002
 20
-0.5568200000000001
 30
0.0
 10
-1.3181100000000001
 20
-0.31806
 30
0.0
 10
-1.4908300000000001
 20
-0.2063
 30
0.0
 10
-1.4908300000000001
 20
-0.2063
 30
0.0
 10
-1.5289300000000001
 20
-0.24948
 30
0.0
 10
-1.5340100000000001
 20
-0.32568
 30
0.0
 10
-1.5238500000000001
 20
-0.3841000000000001
 30
0.0
 10
-1.5238500000000001
 20
-0.3841000000000001
 30
0.0
 10
-1.54671
 20
-0.52888
 30
0.0
 10
-1.5390900000000001
 20
-0.6762
 30
0.0
 10
-1.5162300000000002
 20
-0.82606
 30
0.0
 10
-1.5162300000000002
 20
-0.82606
 30
0.0
 10
-1.9912100000000001
 20
-0.56952
 30
0.0
 10
-1.6406900000000002
 20
0.15183
 30
0.0
 10
-1.7118100000000001
 20
0.6039500000000001
 30
0.0
 10
-1.7118100000000001
 20
0.6039500000000001
 30
0.0
 10
-1.7118100000000001
 20
0.6039500000000001
 30
0.0
 10
-1.6051300000000002
 20
0.6242700000000001
 30
0.0
 10
-1.6051300000000002
 20
0.6242700000000001
 30
0.0
  0
SPLINE
  5
2A
100
AcDbEntity
  8
Ebene 1
100
AcDbSpline
210
0.0
220
0.0
230
1.0
 70
     1
 71
     3
 72
    40
 73
    36
 74
     0
 42
0.0000000001
 43
0.0000000001
 40
0.0
 40
0.0
 40
0.0
 40
0.0
 40
0.1111111111111111
 40
0.1111111111111111
 40
0.1111111111111111
 40
0.1111111111111111
 40
0.2222222222222222
 40
0.2222222222222222
 40
0.2222222222222222
 40
0.2222222222222222
 40
0.3333333333333333
 40
0.3333333333333333
 40
0.3333333333333333
 40
0.3333333333333333
 40
0.4444444444444444
 40
0.4444444444444444
 40
0.4444444444444444
 40
0.4444444444444444
 40
0.5555555555555556
 40
0.5555555555555556
 40
0.5555555555555556
 40
0.5555555555555556
 40
0.6666666666666667
 40
0.6666666666666667
 40
0.6666666666666667
 40
0.6666666666666667
 40
0.7777777777777779
 40
0.7777777777777779
 40
0.7777777777777779
 40
0.7777777777777779
 40
0.8888888888888891
 40
0.8888888888888891
 40
0.8888888888888891
 40
0.8888888888888891
 40
1.0
 40
1.0
 40
1.0
 40
1.0
 10
-0.06589
 20
-0.19868
 30
0.0
 10
0.61482
 20
-0.50348
 30
0.0
 10
0.8789800000000001
 20
-1.29088
 30
0.0
 10
1.14568
 20
-1.92334
 30
0.0
 10
1.14568
 20
-1.92334
 30
0.0
 10
0.99582
 20
-1.8750800000000001
 30
0.0
 10
0.85104
 20
-1.8954000000000002
 30
0.0
 10
0.6961000000000001
 20
-1.8928600000000002
 30
0.0
 10
0.6961000000000001
 20
-1.8928600000000002
 30
0.0
 10
0.63514
 20
-2.0020800000000003
 30
0.0
 10
0.785
 20
-2.1646400000000003
 30
0.0
 10
0.65546
 20
-2.2230600000000003
 30
0.0
 10
0.65546
 20
-2.2230600000000003
 30
0.0
 10
0.5564
 20
-2.1849600000000002
 30
0.0
 10
0.45734
 20
-2.1570200000000002
 30
0.0
 10
0.37098
 20
-2.0935200000000003
 30
0.0
 10
0.37098
 20
-2.0935200000000003
 30
0.0
 10
0.23382
 20
-1.6160000000000001
 30
0.0
 10
0.02046
 20
-1.1588000000000001
 30
0.0
 10
-0.21321
 20
-0.7346200000000001
 30
0.0
 10
-0.21321
 20
-0.7346200000000001
 30
0.0
 10
-0.3021100000000001
 20
-0.75748
 30
0.0
 10
-0.27163
 20
-0.9606800000000001
 30
0.0
 10
-0.3325900000000001
 20
-0.9530600000000001
 30
0.0
 10
-0.3325900000000001
 20
-0.9530600000000001
 30
0.0
 10
-0.3325900000000001
 20
-0.9530600000000001
 30
0.0
 10
-0.42149
 20
-0.3968
 30
0.0
 10
-0.42149
 20
-0.3968
 30
0.0
 10
-0.42149
 20
-0.3968
 30
0.0
 10
-0.34783
 20
-0.46538
 30
0.0
 10
-0.22083
 20
-0.78034
 30
0.0
 10
-0.12685
 20
-0.59238
 30
0.0
 10
-0.12685
 20
-0.59238
 30
0.0
 10
-0.11669
 20
-0.46284
 30
0.0
 10
-0.14209
 20
-0.31298
 30
0.0
 10
-0.06589
 20
-0.19868
 30
0.0
  0
SPLINE
  5
2B
100
AcDbEntity
  8
Ebene 1
100
AcDbSpline
210
0.0
220
0.0
230
1.0
 70
     1
 71
     3
 72
    28
 73
    24
 74
     0
 42
0.0000000001
 43
0.0000000001
 40
0.0
 40
0.0
 40
0.0
 40
0.0
 40
0.1666666666666667
 40
0.1666666666666667
 40
0.1666666666666667
 40
0.1666666666666667
 40
0.3333333333333333
 40
0.3333333333333333
 40
0.3333333333333333
 40
0.3333333333333333
 40
0.5
 40
0.5
 40
0.5
 40
0.5
 40
0.6666666666666666
 40
0.6666666666666666
 40
0.6666666666666666
 40
0.6666666666666666
 40
0.8333333333333333
 40
0.8333333333333333
 40
0.8333333333333333
 40
0.8333333333333333
 40
1.0
 40
1.0
 40
1.0
 40
1.0
 10
2.4995000000000003
 20
-1.6515600000000001
 30
0.0
 10
2.5909400000000002
 20
-1.66934
 30
0.0
 10
2.6290400000000003
 20
-1.7506200000000001
 30
0.0
 10
2.6849200000000004
 20
-1.8217400000000001
 30
0.0
 10
2.6849200000000004
 20
-1.8217400000000001
 30
0.0
 10
2.7712800000000004
 20
-1.8674600000000001
 30
0.0
 10
2.8779600000000003
 20
-1.7836400000000001
 30
0.0
 10
2.9490800000000004
 20
-1.8649200000000001
 30
0.0
 10
2.9490800000000004
 20
-1.8649200000000001
 30
0.0
 10
3.0456000000000003
 20
-2.2052800000000001
 30
0.0
 10
3.0887800000000003
 20
-2.57104
 30
0.0
 10
3.2538800000000001
 20
-2.8809200000000001
 30
0.0
 10
3.2538800000000001
 20
-2.8809200000000001
 30
0.0
 10
3.2488000000000001
 20
-2.9342600000000001
 30
0.0
 10
3.2056200000000001
 20
-2.9622000000000002
 30
0.0
 10
3.1726000000000001
 20
-2.9977600000000004
 30
0.0
 10
3.1726000000000001
 20
-2.9977600000000004
 30
0.0
 10
2.9922600000000004
 20
-2.94442
 30
0.0
 10
2.8017600000000003
 20
-2.8275800000000002
 30
0.0
 10
2.6519000000000004
 20
-2.6929600000000002
 30
0.0
 10
2.6519000000000004
 20
-2.6929600000000002
 30
0.0
 10
2.5858600000000003
 20
-2.35514
 30
0.0
 10
2.4842600000000004
 20
-1.9462000000000002
 30
0.0
 10
2.4995000000000003
 20
-1.6515600000000001
 30
0.0
  0
SPLINE
  5
2C
100
AcDbEntity
  8
Ebene 1
 62
     7
100
AcDbSpline
210
0.0
220
0.0
230
1.0
 70
     1
 71
     3
 72
   236
 73
   232
 74
     0
 42
0.0000000001
 43
0.0000000001
 40
0.0
 40
0.0
 40
0.0
 40
0.0
 40
0.0172413793103448
 40
0.0172413793103448
 40
0.0172413793103448
 40
0.0172413793103448
 40
0.0344827586206897
 40
0.0344827586206897
 40
0.0344827586206897
 40
0.0344827586206897
 40
0.0517241379310345
 40
0.0517241379310345
 40
0.0517241379310345
 40
0.0517241379310345
 40
0.0689655172413793
 40
0.0689655172413793
 40
0.0689655172413793
 40
0.0689655172413793
 40
0.0862068965517241
 40
0.0862068965517241
 40
0.0862068965517241
 40
0.0862068965517241
 40
0.103448275862069
 40
0.103448275862069
 40
0.103448275862069
 40
0.103448275862069
 40
0.1206896551724138
 40
0.1206896551724138
 40
0.1206896551724138
 40
0.1206896551724138
 40
0.1379310344827587
 40
0.1379310344827587
 40
0.1379310344827587
 40
0.1379310344827587
 40
0.1551724137931035
 40
0.1551724137931035
 40
0.1551724137931035
 40
0.1551724137931035
 40
0.1724137931034483
 40
0.1724137931034483
 40
0.1724137931034483
 40
0.1724137931034483
 40
0.1896551724137932
 40
0.1896551724137932
 40
0.1896551724137932
 40
0.1896551724137932
 40
0.206896551724138
 40
0.206896551724138
 40
0.206896551724138
 40
0.206896551724138
 40
0.2241379310344828
 40
0.2241379310344828
 40
0.2241379310344828
 40
0.2241379310344828
 40
0.2413793103448277
 40
0.2413793103448277
 40
0.2413793103448277
 40
0.2413793103448277
 40
0.2586206896551725
 40
0.2586206896551725
 40
0.2586206896551725
 40
0.2586206896551725
 40
0.2758620689655173
 40
0.2758620689655173
 40
0.2758620689655173
 40
0.2758620689655173
 40
0.2931034482758621
 40
0.2931034482758621
 40
0.2931034482758621
 40
0.2931034482758621
 40
0.3103448275862069
 40
0.3103448275862069
 40
0.3103448275862069
 40
0.3103448275862069
 40
0.3275862068965517
 40
0.3275862068965517
 40
0.3275862068965517
 40
0.3275862068965517
 40
0.3448275862068965
 40
0.3448275862068965
 40
0.3448275862068965
 40
0.3448275862068965
 40
0.3620689655172413
 40
0.3620689655172413
 40
0.3620689655172413
 40
0.3620689655172413
 40
0.3793103448275861
 40
0.3793103448275861
 40
0.3793103448275861
 40
0.3793103448275861
 40
0.3965517241379309
 40
0.3965517241379309
 40
0.3965517241379309
 40
0.3965517241379309
 40
0.4137931034482758
 40
0.4137931034482758
 40
0.4137931034482758
 40
0.4137931034482758
 40
0.4310344827586206
 40
0.4310344827586206
 40
0.4310344827586206
 40
0.4310344827586206
 40
0.4482758620689654
 40
0.4482758620689654
 40
0.4482758620689654
 40
0.4482758620689654
 40
0.4655172413793102
 40
0.4655172413793102
 40
0.4655172413793102
 40
0.4655172413793102
 40
0.482758620689655
 40
0.482758620689655
 40
0.482758620689655
 40
0.482758620689655
 40
0.4999999999999998
 40
0.4999999999999998
 40
0.4999999999999998
 40
0.4999999999999998
 40
0.5172413793103446
 40
0.5172413793103446
 40
0.5172413793103446
 40
0.5172413793103446
 40
0.5344827586206895
 40
0.5344827586206895
 40
0.5344827586206895
 40
0.5344827586206895
 40
0.5517241379310344
 40
0.5517241379310344
 40
0.5517241379310344
 40
0.5517241379310344
 40
0.5689655172413792
 40
0.5689655172413792
 40
0.5689655172413792
 40
0.5689655172413792
 40
0.5862068965517241
 40
0.5862068965517241
 40
0.5862068965517241
 40
0.5862068965517241
 40
0.603448275862069
 40
0.603448275862069
 40
0.603448275862069
 40
0.603448275862069
 40
0.6206896551724138
 40
0.6206896551724138
 40
0.6206896551724138
 40
0.6206896551724138
 40
0.6379310344827587
 40
0.6379310344827587
 40
0.6379310344827587
 40
0.6379310344827587
 40
0.6551724137931035
 40
0.6551724137931035
 40
0.6551724137931035
 40
0.6551724137931035
 40
0.6724137931034484
 40
0.6724137931034484
 40
0.6724137931034484
 40
0.6724137931034484
 40
0.6896551724137933
 40
0.6896551724137933
 40
0.6896551724137933
 40
0.6896551724137933
 40
0.7068965517241381
 40
0.7068965517241381
 40
0.7068965517241381
 40
0.7068965517241381
 40
0.724137931034483
 40
0.724137931034483
 40
0.724137931034483
 40
0.724137931034483
 40
0.7413793103448279
 40
0.7413793103448279
 40
0.7413793103448279
 40
0.7413793103448279
 40
0.7586206896551727
 40
0.7586206896551727
 40
0.7586206896551727
 40
0.7586206896551727
 40
0.7758620689655176
 40
0.7758620689655176
 40
0.7758620689655176
 40
0.7758620689655176
 40
0.7931034482758624
 40
0.7931034482758624
 40
0.7931034482758624
 40
0.7931034482758624
 40
0.8103448275862073
 40
0.8103448275862073
 40
0.8103448275862073
 40
0.8103448275862073
 40
0.8275862068965522
 40
0.8275862068965522
 40
0.8275862068965522
 40
0.8275862068965522
 40
0.844827586206897
 40
0.844827586206897
 40
0.844827586206897
 40
0.844827586206897
 40
0.8620689655172419
 40
0.8620689655172419
 40
0.8620689655172419
 40
0.8620689655172419
 40
0.8793103448275867
 40
0.8793103448275867
 40
0.8793103448275867
 40
0.8793103448275867
 40
0.8965517241379316
 40
0.8965517241379316
 40
0.8965517241379316
 40
0.8965517241379316
 40
0.9137931034482765
 40
0.9137931034482765
 40
0.9137931034482765
 40
0.9137931034482765
 40
0.9310344827586213
 40
0.9310344827586213
 40
0.9310344827586213
 40
0.9310344827586213
 40
0.9482758620689662
 40
0.9482758620689662
 40
0.9482758620689662
 40
0.9482758620689662
 40
0.9655172413793111
 40
0.9655172413793111
 40
0.9655172413793111
 40
0.9655172413793111
 40
0.9827586206896559
 40
0.9827586206896559
 40
0.9827586206896559
 40
0.9827586206896559
 40
1.0
 40
1.0
 40
1.0
 40
1.0
 10
-0.6196100000000001
 20
1.0382900000000002
 30
0.0
 10
-0.47737
 20
0.8020700000000001
 30
0.0
 10
-0.4291100000000001
 20
0.56077
 30
0.0
 10
-0.35545
 20
0.2635900000000001
 30
0.0
 10
-0.35545
 20
0.2635900000000001
 30
0.0
 10
-0.15987
 20
0.20517
 30
0.0
 10
-0.11161
 20
-0.00564
 30
0.0
 10
0.04332
 20
-0.11486
 30
0.0
 10
0.04332
 20
-0.11486
 30
0.0
 10
0.04332
 20
-0.11486
 30
0.0
 10
0.10174
 20
-0.09454
 30
0.0
 10
0.10174
 20
-0.09454
 30
0.0
 10
0.10174
 20
-0.09454
 30
0.0
 10
-0.22337
 20
0.70555
 30
0.0
 10
0.6503800000000001
 20
-0.92766
 30
0.0
 10
0.4497200000000001
 20
-0.14788
 30
0.0
 10
0.4497200000000001
 20
-0.14788
 30
0.0
 10
0.4192400000000001
 20
0.24073
 30
0.0
 10
0.41416
 20
0.6725300000000001
 30
0.0
 10
0.2617600000000001
 20
1.0408300000000001
 30
0.0
 10
0.2617600000000001
 20
1.0408300000000001
 30
0.0
 10
0.52846
 20
0.8249300000000001
 30
0.0
 10
0.63768
 20
0.42361
 30
0.0
 10
0.8104000000000001
 20
0.12389
 30
0.0
 10
0.8104000000000001
 20
0.12389
 30
0.0
 10
0.6834
 20
0.12643
 30
0.0
 10
0.6224400000000001
 20
0.4312300000000001
 30
0.0
 10
0.4827400000000001
 20
0.53283
 30
0.0
 10
0.4827400000000001
 20
0.53283
 30
0.0
 10
0.4497200000000001
 20
-0.04882
 30
0.0
 10
0.83072
 20
-1.2705600000000001
 30
0.0
 10
1.0821800000000001
 20
-1.3035800000000002
 30
0.0
 10
1.0821800000000001
 20
-1.3035800000000002
 30
0.0
 10
1.0821800000000001
 20
-1.3035800000000002
 30
0.0
 10
0.80532
 20
-0.63302
 30
0.0
 10
0.80532
 20
-0.63302
 30
0.0
 10
0.80532
 20
-0.63302
 30
0.0
 10
0.80532
 20
-0.63302
 30
0.0
 10
0.658
 20
-0.09962
 30
0.0
 10
0.658
 20
-0.09962
 30
0.0
 10
0.658
 20
-0.09962
 30
0.0
 10
0.6122800000000001
 20
0.10357
 30
0.0
 10
0.6503800000000001
 20
0.14929
 30
0.0
 10
0.71896
 20
-0.0539
 30
0.0
 10
0.71896
 20
-0.0539
 30
0.0
 10
0.8408800000000001
 20
-0.7320800000000001
 30
0.0
 10
1.1990200000000002
 20
-1.1994400000000001
 30
0.0
 10
2.0651600000000001
 20
-1.37724
 30
0.0
 10
2.0651600000000001
 20
-1.37724
 30
0.0
 10
2.0346800000000003
 20
-1.2477
 30
0.0
 10
1.9788000000000001
 20
-1.1207
 30
0.0
 10
1.9178400000000002
 20
-1.00132
 30
0.0
 10
1.9178400000000002
 20
-1.00132
 30
0.0
 10
1.9178400000000002
 20
-1.00132
 30
0.0
 10
1.69432
 20
-0.34854
 30
0.0
 10
1.69432
 20
-0.34854
 30
0.0
 10
1.69432
 20
-0.34854
 30
0.0
 10
1.5343000000000002
 20
0.45917
 30
0.0
 10
2.1743800000000002
 20
-1.83952
 30
0.0
 10
2.2302600000000004
 20
-1.0140200000000001
 30
0.0
 10
2.2302600000000004
 20
-1.0140200000000001
 30
0.0
 10
2.2302600000000004
 20
-1.0140200000000001
 30
0.0
 10
2.2505800000000002
 20
-0.65334
 30
0.0
 10
2.2505800000000002
 20
-0.65334
 30
0.0
 10
2.2505800000000002
 20
-0.65334
 30
0.0
 10
2.3496400000000004
 20
-0.0539
 30
0.0
 10
2.3496400000000004
 20
-0.84638
 30
0.0
 10
2.3496400000000004
 20
-1.08768
 30
0.0
 10
2.3496400000000004
 20
-1.08768
 30
0.0
 10
2.3521800000000002
 20
-1.33406
 30
0.0
 10
2.6011000000000002
 20
-1.8903200000000002
 30
0.0
 10
2.5680800000000001
 20
-1.3950200000000001
 30
0.0
 10
2.5680800000000001
 20
-1.3950200000000001
 30
0.0
 10
2.5655400000000004
 20
-1.0267200000000001
 30
0.0
 10
2.6442800000000002
 20
-1.8420600000000003
 30
0.0
 10
2.9160600000000003
 20
-1.7252200000000002
 30
0.0
 10
2.9160600000000003
 20
-1.7252200000000002
 30
0.0
 10
2.9592400000000003
 20
-1.4712200000000002
 30
0.0
 10
2.8551000000000002
 20
-1.16134
 30
0.0
 10
2.7458800000000001
 20
-0.9352800000000001
 30
0.0
 10
2.7458800000000001
 20
-0.9352800000000001
 30
0.0
 10
2.7941400000000001
 20
-0.8997200000000001
 30
0.0
 10
2.8373200000000001
 20
-0.9606800000000001
 30
0.0
 10
2.8830400000000003
 20
-1.0470400000000002
 30
0.0
 10
2.8830400000000003
 20
-1.0470400000000002
 30
0.0
 10
3.0862400000000001
 20
-1.41788
 30
0.0
 10
3.1573600000000002
 20
-1.7861800000000001
 30
0.0
 10
3.5053400000000003
 20
-1.92334
 30
0.0
 10
3.5053400000000003
 20
-1.92334
 30
0.0
 10
3.7415600000000002
 20
-1.6820400000000002
 30
0.0
 10
3.5739200000000002
 20
-1.3594600000000001
 30
0.0
 10
3.3808800000000003
 20
-1.0216400000000001
 30
0.0
 10
3.3808800000000003
 20
-1.0216400000000001
 30
0.0
 10
3.3351600000000001
 20
-1.2172200000000002
 30
0.0
 10
3.6069400000000003
 20
-1.6871200000000002
 30
0.0
 10
3.3707200000000004
 20
-1.66934
 30
0.0
 10
3.3707200000000004
 20
-1.66934
 30
0.0
 10
3.3656400000000004
 20
-1.12324
 30
0.0
 10
3.0125800000000003
 20
-0.7016000000000001
 30
0.0
 10
2.8373200000000001
 20
-0.22408
 30
0.0
 10
2.8373200000000001
 20
-0.22408
 30
0.0
 10
2.8373200000000001
 20
-0.22408
 30
0.0
 10
3.2005400000000002
 20
-0.6685800000000001
 30
0.0
 10
3.2005400000000002
 20
-0.6685800000000001
 30
0.0
 10
3.2005400000000002
 20
-0.6685800000000001
 30
0.0
 10
3.6704400000000001
 20
-1.0064000000000002
 30
0.0
 10
3.4748600000000005
 20
-1.1740400000000002
 30
0.0
 10
3.7872800000000004
 20
-1.6515600000000001
 30
0.0
 10
3.7872800000000004
 20
-1.6515600000000001
 30
0.0
 10
4.08446
 20
-1.6160000000000001
 30
0.0
 10
3.9650800000000004
 20
-1.3670800000000001
 30
0.0
 10
3.8482400000000001
 20
-1.1334000000000002
 30
0.0
 10
3.8482400000000001
 20
-1.1334000000000002
 30
0.0
 10
4.0412800000000004
 20
-1.2629400000000002
 30
0.0
 10
4.0793800000000005
 20
-1.6871200000000002
 30
0.0
 10
4.3410000000000002
 20
-1.5601200000000002
 30
0.0
 10
4.3410000000000002
 20
-1.5601200000000002
 30
0.0
 10
4.3232200000000001
 20
-1.41534
 30
0.0
 10
4.0133400000000004
 20
-0.95052
 30
0.0
 10
4.2597200000000006
 20
-1.2375400000000001
 30
0.0
 10
4.2597200000000006
 20
-1.2375400000000001
 30
0.0
 10
4.3054399999999999
 20
-1.3188200000000001
 30
0.0
 10
4.3587800000000003
 20
-1.4102600000000001
 30
0.0
 10
4.41974
 20
-1.4686800000000002
 30
0.0
 10
4.41974
 20
-1.4686800000000002
 30
0.0
 10
4.2038400000000005
 20
-0.75748
 30
0.0
 10
4.4603800000000007
 20
0.53791
 30
0.0
 10
3.6145600000000004
 20
1.1678300000000001
 30
0.0
 10
3.6145600000000004
 20
1.1678300000000001
 30
0.0
 10
3.5790000000000002
 20
1.1373500000000001
 30
0.0
 10
3.5891600000000001
 20
1.0027300000000001
 30
0.0
 10
3.5332800000000004
 20
1.0332100000000002
 30
0.0
 10
3.5332800000000004
 20
1.0332100000000002
 30
0.0
 10
3.6069400000000003
 20
1.48787
 30
0.0
 10
3.2538800000000001
 20
1.7799700000000001
 30
0.0
 10
2.8881200000000002
 20
1.9907900000000001
 30
0.0
 10
2.8881200000000002
 20
1.9907900000000001
 30
0.0
 10
3.7568000000000001
 20
1.8688700000000003
 30
0.0
 10
2.8728800000000003
 20
2.4302100000000002
 30
0.0
 10
1.9076800000000003
 20
2.5013300000000003
 30
0.0
 10
1.9076800000000003
 20
2.5013300000000003
 30
0.0
 10
1.9483200000000001
 20
2.59531
 30
0.0
 10
2.1591400000000003
 20
2.5064100000000002
 30
0.0
 10
2.2937600000000002
 20
2.5622900000000004
 30
0.0
 10
2.2937600000000002
 20
2.5622900000000004
 30
0.0
 10
2.0981800000000002
 20
2.8264500000000004
 30
0.0
 10
2.0423
 20
3.0626700000000002
 30
0.0
 10
1.5622400000000001
 20
3.1922100000000002
 30
0.0
 10
1.5622400000000001
 20
3.1922100000000002
 30
0.0
 10
1.56732
 20
3.3242900000000004
 30
0.0
 10
1.8086200000000001
 20
3.1947500000000004
 30
0.0
 10
1.8924400000000001
 20
3.2328500000000004
 30
0.0
 10
1.8924400000000001
 20
3.2328500000000004
 30
0.0
 10
2.0727800000000003
 20
3.3090500000000005
 30
0.0
 10
2.1159600000000003
 20
3.5046300000000001
 30
0.0
 10
1.9407000000000001
 20
3.7230700000000003
 30
0.0
 10
1.9407000000000001
 20
3.7230700000000003
 30
0.0
 10
1.5800200000000002
 20
4.1447100000000008
 30
0.0
 10
1.0847200000000001
 20
4.4571300000000003
 30
0.0
 10
0.6300600000000001
 20
4.8101900000000004
 30
0.0
 10
0.6300600000000001
 20
4.8101900000000004
 30
0.0
 10
0.7342000000000001
 20
4.8660700000000006
 30
0.0
 10
0.912
 20
4.6400100000000002
 30
0.0
 10
1.0415400000000001
 20
4.6095300000000003
 30
0.0
 10
1.0415400000000001
 20
4.6095300000000003
 30
0.0
 10
1.0517000000000001
 20
4.8686100000000003
 30
0.0
 10
0.4395600000000001
 20
5.5721900000000009
 30
0.0
 10
0.5868800000000001
 20
4.9879900000000008
 30
0.0
 10
0.5868800000000001
 20
4.9879900000000008
 30
0.0
 10
0.38622
 20
5.4832900000000002
 30
0.0
 10
-0.06589
 20
5.8261900000000004
 30
0.0
 10
-0.5637300000000001
 20
5.9912900000000002
 30
0.0
 10
-0.5637300000000001
 20
5.9912900000000002
 30
0.0
 10
-1.20635
 20
6.1360700000000001
 30
0.0
 10
-1.9531100000000001
 20
6.0624100000000007
 30
0.0
 10
-2.4992100000000002
 20
5.6890300000000007
 30
0.0
 10
-2.4992100000000002
 20
5.6890300000000007
 30
0.0
 10
-2.4407900000000002
 20
5.6052100000000005
 30
0.0
 10
-2.2629900000000003
 20
5.5671100000000004
 30
0.0
 10
-2.2680700000000003
 20
5.4934500000000002
 30
0.0
 10
-2.2680700000000003
 20
5.4934500000000002
 30
0.0
 10
-3.5075900000000004
 20
5.6966500000000009
 30
0.0
 10
-5.37195
 20
4.84321
 30
0.0
 10
-5.0468300000000008
 20
3.3700100000000002
 30
0.0
 10
-5.0468300000000008
 20
3.3700100000000002
 30
0.0
 10
-5.0468300000000008
 20
3.3700100000000002
 30
0.0
 10
-4.9172900000000004
 20
3.9262700000000001
 30
0.0
 10
-4.9172900000000004
 20
3.9262700000000001
 30
0.0
 10
-4.9172900000000004
 20
3.9262700000000001
 30
0.0
 10
-4.8385500000000006
 20
3.9262700000000001
 30
0.0
 10
-4.9147500000000006
 20
3.8221300000000005
 30
0.0
 10
-4.8918900000000001
 20
3.7764100000000003
 30
0.0
 10
-4.8918900000000001
 20
3.7764100000000003
 30
0.0
 10
-5.0620700000000003
 20
2.8797900000000003
 30
0.0
 10
-4.6124900000000002
 20
1.6021700000000001
 30
0.0
 10
-3.6193500000000003
 20
1.40151
 30
0.0
 10
-3.6193500000000003
 20
1.40151
 30
0.0
 10
-3.9952700000000005
 20
1.3278500000000002
 30
0.0
 10
-4.2238700000000007
 20
0.9163700000000001
 30
0.0
 10
-3.8657300000000001
 20
0.61411
 30
0.0
 10
-3.8657300000000001
 20
0.61411
 30
0.0
 10
-3.6295100000000002
 20
0.5887100000000001
 30
0.0
 10
-2.7455900000000004
 20
0.6725300000000001
 30
0.0
 10
-3.4009100000000001
 20
0.9951100000000001
 30
0.0
 10
-3.4009100000000001
 20
0.9951100000000001
 30
0.0
 10
-3.4009100000000001
 20
0.9951100000000001
 30
0.0
 10
-3.5329900000000003
 20
1.0459100000000001
 30
0.0
 10
-3.5329900000000003
 20
1.0459100000000001
 30
0.0
 10
-3.5329900000000003
 20
1.0459100000000001
 30
0.0
 10
-2.9081500000000005
 20
1.1195700000000002
 30
0.0
 10
-2.2807700000000004
 20
0.68269
 30
0.0
 10
-1.6635500000000001
 20
0.78937
 30
0.0
 10
-1.6635500000000001
 20
0.78937
 30
0.0
 10
-1.2241300000000002
 20
1.2440300000000002
 30
0.0
 10
-0.33513
 20
2.7807300000000001
 30
0.0
 10
0.29986
 20
1.6885300000000001
 30
0.0
 10
0.29986
 20
1.6885300000000001
 30
0.0
 10
0.2008
 20
1.7266300000000001
 30
0.0
 10
0.13222
 20
1.86633
 30
0.0
 10
-0.00747
 20
1.8841100000000002
 30
0.0
 10
-0.00747
 20
1.8841100000000002
 30
0.0
 10
-0.25893
 20
1.9120500000000002
 30
0.0
 10
-0.54849
 20
1.8764900000000002
 30
0.0
 10
-0.71867
 20
1.6682100000000002
 30
0.0
 10
-0.71867
 20
1.6682100000000002
 30
0.0
 10
-1.08951
 20
1.3811900000000001
 30
0.0
 10
-0.39355
 20
1.19069
 30
0.0
 10
-0.32497
 20
0.8427100000000001
 30
0.0
 10
-0.32497
 20
0.8427100000000001
 30
0.0
 10
-0.00493
 20
0.20009
 30
0.0
 10
-0.40371
 20
0.8401700000000001
 30
0.0
 10
-0.6196100000000001
 20
1.0382900000000002
 30
0.0
  0
SPLINE
  5
2D
100
AcDbEntity
  8
Ebene 1
100
AcDbSpline
210
0.0
220
0.0
230
1.0
 70
     1
 71
     3
 72
    64
 73
    60
 74
     0
 42
0.0000000001
 43
0.0000000001
 40
0.0
 40
0.0
 40
0.0
 40
0.0
 40
0.0666666666666667
 40
0.0666666666666667
 40
0.0666666666666667
 40
0.0666666666666667
 40
0.1333333333333333
 40
0.1333333333333333
 40
0.1333333333333333
 40
0.1333333333333333
 40
0.2
 40
0.2
 40
0.2
 40
0.2
 40
0.2666666666666667
 40
0.2666666666666667
 40
0.2666666666666667
 40
0.2666666666666667
 40
0.3333333333333333
 40
0.3333333333333333
 40
0.3333333333333333
 40
0.3333333333333333
 40
0.4
 40
0.4
 40
0.4
 40
0.4
 40
0.4666666666666666
 40
0.4666666666666666
 40
0.4666666666666666
 40
0.4666666666666666
 40
0.5333333333333333
 40
0.5333333333333333
 40
0.5333333333333333
 40
0.5333333333333333
 40
0.6
 40
0.6
 40
0.6
 40
0.6
 40
0.6666666666666666
 40
0.6666666666666666
 40
0.6666666666666666
 40
0.6666666666666666
 40
0.7333333333333333
 40
0.7333333333333333
 40
0.7333333333333333
 40
0.7333333333333333
 40
0.7999999999999999
 40
0.7999999999999999
 40
0.7999999999999999
 40
0.7999999999999999
 40
0.8666666666666666
 40
0.8666666666666666
 40
0.8666666666666666
 40
0.8666666666666666
 40
0.9333333333333332
 40
0.9333333333333332
 40
0.9333333333333332
 40
0.9333333333333332
 40
1.0
 40
1.0
 40
1.0
 40
1.0
 10
-1.07935
 20
4.3479100000000006
 30
0.0
 10
-1.07935
 20
4.3479100000000006
 30
0.0
 10
-1.16317
 20
4.2920300000000005
 30
0.0
 10
-1.16317
 20
4.2920300000000005
 30
0.0
 10
-1.16317
 20
4.2920300000000005
 30
0.0
 10
-0.4824500000000001
 20
4.1091500000000005
 30
0.0
 10
0.64276
 20
4.0964499999999999
 30
0.0
 10
0.86882
 20
3.2988900000000001
 30
0.0
 10
0.86882
 20
3.2988900000000001
 30
0.0
 10
0.95518
 20
3.3065100000000003
 30
0.0
 10
0.89168
 20
3.4436700000000005
 30
0.0
 10
0.9297800000000001
 20
3.4995500000000002
 30
0.0
 10
0.9297800000000001
 20
3.4995500000000002
 30
0.0
 10
1.1583800000000002
 20
3.3928700000000003
 30
0.0
 10
1.2574400000000001
 20
3.1058500000000002
 30
0.0
 10
1.4225400000000001
 20
2.9839300000000004
 30
0.0
 10
1.4225400000000001
 20
2.9839300000000004
 30
0.0
 10
1.44286
 20
3.1261700000000001
 30
0.0
 10
1.3514200000000001
 20
3.2709500000000005
 30
0.0
 10
1.2955400000000001
 20
3.4030300000000002
 30
0.0
 10
1.2955400000000001
 20
3.4030300000000002
 30
0.0
 10
1.2955400000000001
 20
3.4030300000000002
 30
0.0
 10
1.2574400000000001
 20
3.4639900000000003
 30
0.0
 10
1.2574400000000001
 20
3.4639900000000003
 30
0.0
 10
1.2574400000000001
 20
3.4639900000000003
 30
0.0
 10
1.2447400000000002
 20
3.4792300000000003
 30
0.0
 10
1.23204
 20
3.4970100000000004
 30
0.0
 10
1.23458
 20
3.5198700000000005
 30
0.0
 10
1.23458
 20
3.5198700000000005
 30
0.0
 10
1.2599800000000001
 20
3.5986100000000003
 30
0.0
 10
1.3641200000000002
 20
3.4614500000000001
 30
0.0
 10
1.4276200000000001
 20
3.4487500000000004
 30
0.0
 10
1.4276200000000001
 20
3.4487500000000004
 30
0.0
 10
1.2574400000000001
 20
3.8043500000000003
 30
0.0
 10
1.1380600000000001
 20
4.37331
 30
0.0
 10
0.7088000000000001
 20
4.5206300000000006
 30
0.0
 10
0.7088000000000001
 20
4.5206300000000006
 30
0.0
 10
0.7088000000000001
 20
4.5206300000000006
 30
0.0
 10
0.76214
 20
4.4545900000000005
 30
0.0
 10
0.76214
 20
4.4545900000000005
 30
0.0
 10
0.76214
 20
4.4545900000000005
 30
0.0
 10
0.87136
 20
4.2031300000000007
 30
0.0
 10
1.0847200000000001
 20
4.0050100000000004
 30
0.0
 10
1.05932
 20
3.7154500000000001
 30
0.0
 10
1.05932
 20
3.7154500000000001
 30
0.0
 10
0.8637400000000001
 20
3.6748100000000004
 30
0.0
 10
0.67832
 20
3.8907100000000003
 30
0.0
 10
0.48782
 20
3.9440500000000003
 30
0.0
 10
0.48782
 20
3.9440500000000003
 30
0.0
 10
0.48782
 20
3.9440500000000003
 30
0.0
 10
0.65546
 20
3.9415100000000005
 30
0.0
 10
0.65546
 20
3.9415100000000005
 30
0.0
 10
0.65546
 20
3.9415100000000005
 30
0.0
 10
0.68086
 20
3.9542100000000002
 30
0.0
 10
0.7088000000000001
 20
3.9897700000000005
 30
0.0
 10
0.6859400000000001
 20
4.0202500000000008
 30
0.0
 10
0.6859400000000001
 20
4.0202500000000008
 30
0.0
 10
0.10936
 20
4.1777300000000004
 30
0.0
 10
-0.49515
 20
4.28695
 30
0.0
 10
-1.07935
 20
4.3479100000000006
 30
0.0
  0
SPLINE
  5
2E
100
AcDbEntity
  8
Ebene 1
100
AcDbSpline
210
0.0
220
0.0
230
1.0
 70
     1
 71
     3
 72
    60
 73
    56
 74
     0
 42
0.0000000001
 43
0.0000000001
 40
0.0
 40
0.0
 40
0.0
 40
0.0
 40
0.0714285714285714
 40
0.0714285714285714
 40
0.0714285714285714
 40
0.0714285714285714
 40
0.1428571428571429
 40
0.1428571428571429
 40
0.1428571428571429
 40
0.1428571428571429
 40
0.2142857142857143
 40
0.2142857142857143
 40
0.2142857142857143
 40
0.2142857142857143
 40
0.2857142857142857
 40
0.2857142857142857
 40
0.2857142857142857
 40
0.2857142857142857
 40
0.3571428571428571
 40
0.3571428571428571
 40
0.3571428571428571
 40
0.3571428571428571
 40
0.4285714285714285
 40
0.4285714285714285
 40
0.4285714285714285
 40
0.4285714285714285
 40
0.4999999999999999
 40
0.4999999999999999
 40
0.4999999999999999
 40
0.4999999999999999
 40
0.5714285714285713
 40
0.5714285714285713
 40
0.5714285714285713
 40
0.5714285714285713
 40
0.6428571428571427
 40
0.6428571428571427
 40
0.6428571428571427
 40
0.6428571428571427
 40
0.7142857142857141
 40
0.7142857142857141
 40
0.7142857142857141
 40
0.7142857142857141
 40
0.7857142857142855
 40
0.7857142857142855
 40
0.7857142857142855
 40
0.7857142857142855
 40
0.8571428571428569
 40
0.8571428571428569
 40
0.8571428571428569
 40
0.8571428571428569
 40
0.9285714285714283
 40
0.9285714285714283
 40
0.9285714285714283
 40
0.9285714285714283
 40
1.0
 40
1.0
 40
1.0
 40
1.0
 10
-3.0656300000000001
 20
3.8805500000000004
 30
0.0
 10
-2.81671
 20
3.7687900000000005
 30
0.0
 10
-2.3112500000000002
 20
3.7154500000000001
 30
0.0
 10
-2.1613900000000004
 20
3.3573100000000005
 30
0.0
 10
-2.1613900000000004
 20
3.3573100000000005
 30
0.0
 10
-2.5322300000000002
 20
2.8518500000000002
 30
0.0
 10
-1.9150100000000001
 20
2.2905100000000003
 30
0.0
 10
-2.22743
 20
1.8079100000000001
 30
0.0
 10
-2.22743
 20
1.8079100000000001
 30
0.0
 10
-2.5500100000000003
 20
1.6224900000000002
 30
0.0
 10
-3.0351500000000002
 20
1.2440300000000002
 30
0.0
 10
-3.3602700000000003
 20
1.5183500000000001
 30
0.0
 10
-3.3602700000000003
 20
1.5183500000000001
 30
0.0
 10
-3.5914100000000002
 20
1.7113900000000002
 30
0.0
 10
-3.6422100000000004
 20
1.6580500000000002
 30
0.0
 10
-3.6295100000000002
 20
1.5894700000000002
 30
0.0
 10
-3.6295100000000002
 20
1.5894700000000002
 30
0.0
 10
-3.6295100000000002
 20
1.5894700000000002
 30
0.0
 10
-3.3780500000000004
 20
1.3557900000000001
 30
0.0
 10
-3.3780500000000004
 20
1.3557900000000001
 30
0.0
 10
-3.3780500000000004
 20
1.3557900000000001
 30
0.0
 10
-3.2459700000000002
 20
1.2999100000000001
 30
0.0
 10
-3.3526500000000001
 20
1.2922900000000002
 30
0.0
 10
-3.4237700000000002
 20
1.2516500000000002
 30
0.0
 10
-3.4237700000000002
 20
1.2516500000000002
 30
0.0
 10
-3.4821900000000001
 20
1.23133
 30
0.0
 10
-3.5863300000000002
 20
1.19323
 30
0.0
 10
-3.5888700000000004
 20
1.1195700000000002
 30
0.0
 10
-3.5888700000000004
 20
1.1195700000000002
 30
0.0
 10
-3.3120100000000003
 20
1.32277
 30
0.0
 10
-2.9691100000000001
 20
1.11449
 30
0.0
 10
-2.69225
 20
1.1221100000000002
 30
0.0
 10
-2.69225
 20
1.1221100000000002
 30
0.0
 10
-2.69225
 20
1.1221100000000002
 30
0.0
 10
-2.98943
 20
1.3481700000000001
 30
0.0
 10
-2.98943
 20
1.3481700000000001
 30
0.0
 10
-2.98943
 20
1.3481700000000001
 30
0.0
 10
-2.6135100000000002
 20
1.5081900000000001
 30
0.0
 10
-2.1385300000000003
 20
1.5386700000000002
 30
0.0
 10
-1.9175500000000001
 20
1.9120500000000002
 30
0.0
 10
-1.9175500000000001
 20
1.9120500000000002
 30
0.0
 10
-1.9302500000000002
 20
2.1914500000000001
 30
0.0
 10
-2.0801100000000003
 20
2.4429100000000004
 30
0.0
 10
-2.0623300000000002
 20
2.7350100000000004
 30
0.0
 10
-2.0623300000000002
 20
2.7350100000000004
 30
0.0
 10
-2.0445500000000001
 20
2.8086700000000002
 30
0.0
 10
-2.0064500000000001
 20
2.8670900000000001
 30
0.0
 10
-1.9861300000000002
 20
2.93059
 30
0.0
 10
-1.9861300000000002
 20
2.93059
 30
0.0
 10
-1.5136900000000002
 20
3.4766900000000005
 30
0.0
 10
-2.26553
 20
4.0227900000000005
 30
0.0
 10
-2.7989300000000004
 20
3.8602300000000005
 30
0.0
 10
-2.7989300000000004
 20
3.8602300000000005
 30
0.0
 10
-2.7989300000000004
 20
3.8602300000000005
 30
0.0
 10
-3.0656300000000001
 20
3.8805500000000004
 30
0.0
 10
-3.0656300000000001
 20
3.8805500000000004
 30
0.0
  0
SPLINE
  5
2F
100
AcDbEntity
  8
Ebene 1
100
AcDbSpline
210
0.0
220
0.0
230
1.0
 70
     1
 71
     3
 72
    52
 73
    48
 74
     0
 42
0.0000000001
 43
0.0000000001
 40
0.0
 40
0.0
 40
0.0
 40
0.0
 40
0.0833333333333333
 40
0.0833333333333333
 40
0.0833333333333333
 40
0.0833333333333333
 40
0.1666666666666667
 40
0.1666666666666667
 40
0.1666666666666667
 40
0.1666666666666667
 40
0.25
 40
0.25
 40
0.25
 40
0.25
 40
0.3333333333333333
 40
0.3333333333333333
 40
0.3333333333333333
 40
0.3333333333333333
 40
0.4166666666666666
 40
0.4166666666666666
 40
0.4166666666666666
 40
0.4166666666666666
 40
0.4999999999999999
 40
0.4999999999999999
 40
0.4999999999999999
 40
0.4999999999999999
 40
0.5833333333333333
 40
0.5833333333333333
 40
0.5833333333333333
 40
0.5833333333333333
 40
0.6666666666666666
 40
0.6666666666666666
 40
0.6666666666666666
 40
0.6666666666666666
 40
0.75
 40
0.75
 40
0.75
 40
0.75
 40
0.8333333333333334
 40
0.8333333333333334
 40
0.8333333333333334
 40
0.8333333333333334
 40
0.9166666666666667
 40
0.9166666666666667
 40
0.9166666666666667
 40
0.9166666666666667
 40
1.0
 40
1.0
 40
1.0
 40
1.0
 10
-0.44181
 20
2.5622900000000004
 30
0.0
 10
-0.7948700000000001
 20
3.0423500000000003
 30
0.0
 10
-1.0641100000000001
 20
3.8653100000000005
 30
0.0
 10
-1.7956300000000001
 20
3.8907100000000003
 30
0.0
 10
-1.7956300000000001
 20
3.8907100000000003
 30
0.0
 10
-1.6152900000000001
 20
3.8221300000000005
 30
0.0
 10
-1.4552700000000001
 20
3.6824300000000001
 30
0.0
 10
-1.3181100000000001
 20
3.5198700000000005
 30
0.0
 10
-1.3181100000000001
 20
3.5198700000000005
 30
0.0
 10
-1.3435100000000002
 20
3.4792300000000003
 30
0.0
 10
-1.4374900000000002
 20
3.5732100000000004
 30
0.0
 10
-1.4730500000000002
 20
3.5071700000000003
 30
0.0
 10
-1.4730500000000002
 20
3.5071700000000003
 30
0.0
 10
-1.4857500000000001
 20
2.9051900000000002
 30
0.0
 10
-1.9353300000000002
 20
2.13049
 30
0.0
 10
-1.4120900000000001
 20
1.6504300000000001
 30
0.0
 10
-1.4120900000000001
 20
1.6504300000000001
 30
0.0
 10
-1.0564900000000002
 20
1.7571100000000002
 30
0.0
 10
-0.8304300000000001
 20
2.1939900000000003
 30
0.0
 10
-0.4164100000000001
 20
2.22193
 30
0.0
 10
-0.4164100000000001
 20
2.22193
 30
0.0
 10
-0.4164100000000001
 20
2.22193
 30
0.0
 10
0.82564
 20
2.3921100000000002
 30
0.0
 10
0.82564
 20
2.3921100000000002
 30
0.0
 10
0.82564
 20
2.3921100000000002
 30
0.0
 10
0.8739000000000001
 20
2.2854300000000003
 30
0.0
 10
0.7392800000000001
 20
2.1330300000000002
 30
0.0
 10
0.7926200000000001
 20
1.9958700000000003
 30
0.0
 10
0.7926200000000001
 20
1.9958700000000003
 30
0.0
 10
0.8027800000000001
 20
1.8510900000000001
 30
0.0
 10
0.8662800000000001
 20
1.6301100000000002
 30
0.0
 10
1.0313800000000002
 20
1.6351900000000001
 30
0.0
 10
1.0313800000000002
 20
1.6351900000000001
 30
0.0
 10
0.6910200000000001
 20
1.9552300000000002
 30
0.0
 10
1.23712
 20
2.4378300000000004
 30
0.0
 10
0.7748400000000001
 20
2.6892900000000002
 30
0.0
 10
0.7748400000000001
 20
2.6892900000000002
 30
0.0
 10
0.7748400000000001
 20
2.6892900000000002
 30
0.0
 10
0.8027800000000001
 20
2.9864700000000002
 30
0.0
 10
0.8027800000000001
 20
2.9864700000000002
 30
0.0
 10
0.8027800000000001
 20
2.9864700000000002
 30
0.0
 10
0.6478400000000001
 20
2.8620100000000002
 30
0.0
 10
0.66054
 20
2.7654900000000002
 30
0.0
 10
0.5462400000000001
 20
2.6537300000000004
 30
0.0
 10
0.5462400000000001
 20
2.6537300000000004
 30
0.0
 10
0.35828
 20
2.4683100000000002
 30
0.0
 10
0.03062
 20
2.3235300000000003
 30
0.0
 10
-0.44181
 20
2.5622900000000004
 30
0.0
  0
SPLINE
  5
30
100
AcDbEntity
  8
Ebene 1
100
AcDbSpline
210
0.0
220
0.0
230
1.0
 70
     1
 71
     3
 72
    40
 73
    36
 74
     0
 42
0.0000000001
 43
0.0000000001
 40
0.0
 40
0.0
 40
0.0
 40
0.0
 40
0.1111111111111111
 40
0.1111111111111111
 40
0.1111111111111111
 40
0.1111111111111111
 40
0.2222222222222222
 40
0.2222222222222222
 40
0.2222222222222222
 40
0.2222222222222222
 40
0.3333333333333333
 40
0.3333333333333333
 40
0.3333333333333333
 40
0.3333333333333333
 40
0.4444444444444444
 40
0.4444444444444444
 40
0.4444444444444444
 40
0.4444444444444444
 40
0.5555555555555556
 40
0.5555555555555556
 40
0.5555555555555556
 40
0.5555555555555556
 40
0.6666666666666667
 40
0.6666666666666667
 40
0.6666666666666667
 40
0.6666666666666667
 40
0.7777777777777779
 40
0.7777777777777779
 40
0.7777777777777779
 40
0.7777777777777779
 40
0.8888888888888891
 40
0.8888888888888891
 40
0.8888888888888891
 40
0.8888888888888891
 40
1.0
 40
1.0
 40
1.0
 40
1.0
 10
2.1870800000000004
 20
1.9044300000000001
 30
0.0
 10
2.1134200000000001
 20
1.8561700000000001
 30
0.0
 10
2.2709000000000001
 20
1.7647300000000001
 30
0.0
 10
2.2175600000000002
 20
1.6834500000000001
 30
0.0
 10
2.2175600000000002
 20
1.6834500000000001
 30
0.0
 10
1.9813400000000001
 20
1.7037700000000002
 30
0.0
 10
1.7349600000000001
 20
1.65551
 30
0.0
 10
1.5038200000000002
 20
1.61233
 30
0.0
 10
1.5038200000000002
 20
1.61233
 30
0.0
 10
1.5038200000000002
 20
1.61233
 30
0.0
 10
1.1279000000000001
 20
1.6580500000000002
 30
0.0
 10
1.1279000000000001
 20
1.6580500000000002
 30
0.0
 10
1.1279000000000001
 20
1.6580500000000002
 30
0.0
 10
1.4657200000000001
 20
1.4370700000000001
 30
0.0
 10
2.0143600000000004
 20
1.7545700000000002
 30
0.0
 10
2.2353400000000003
 20
1.3126100000000001
 30
0.0
 10
2.2353400000000003
 20
1.3126100000000001
 30
0.0
 10
2.2353400000000003
 20
1.3126100000000001
 30
0.0
 10
2.4360000000000004
 20
1.1271900000000001
 30
0.0
 10
2.4360000000000004
 20
1.1271900000000001
 30
0.0
 10
2.4360000000000004
 20
1.1271900000000001
 30
0.0
 10
2.4360000000000004
 20
1.1271900000000001
 30
0.0
 10
2.5960200000000002
 20
1.0535300000000001
 30
0.0
 10
2.5960200000000002
 20
1.0535300000000001
 30
0.0
 10
2.5960200000000002
 20
1.0535300000000001
 30
0.0
 10
2.7458800000000001
 20
0.9671700000000001
 30
0.0
 10
2.7662000000000004
 20
1.0332100000000002
 30
0.0
 10
2.6341200000000002
 20
1.1246500000000001
 30
0.0
 10
2.6341200000000002
 20
1.1246500000000001
 30
0.0
 10
2.6341200000000002
 20
1.1246500000000001
 30
0.0
 10
2.4385400000000002
 20
1.3532500000000001
 30
0.0
 10
2.4385400000000002
 20
1.3532500000000001
 30
0.0
 10
2.4385400000000002
 20
1.3532500000000001
 30
0.0
 10
2.33948
 20
1.52597
 30
0.0
 10
2.3953600000000002
 20
1.7952100000000002
 30
0.0
 10
2.1870800000000004
 20
1.9044300000000001
 30
0.0
  0
SPLINE
  5
31
100
AcDbEntity
  8
Ebene 1
 62
     7
100
AcDbSpline
210
0.0
220
0.0
230
1.0
 70
     1
 71
     3
 72
   172
 73
   168
 74
     0
 42
0.0000000001
 43
0.0000000001
 40
0.0
 40
0.0
 40
0.0
 40
0.0
 40
0.0238095238095238
 40
0.0238095238095238
 40
0.0238095238095238
 40
0.0238095238095238
 40
0.0476190476190476
 40
0.0476190476190476
 40
0.0476190476190476
 40
0.0476190476190476
 40
0.0714285714285714
 40
0.0714285714285714
 40
0.0714285714285714
 40
0.0714285714285714
 40
0.0952380952380952
 40
0.0952380952380952
 40
0.0952380952380952
 40
0.0952380952380952
 40
0.119047619047619
 40
0.119047619047619
 40
0.119047619047619
 40
0.119047619047619
 40
0.1428571428571429
 40
0.1428571428571429
 40
0.1428571428571429
 40
0.1428571428571429
 40
0.1666666666666667
 40
0.1666666666666667
 40
0.1666666666666667
 40
0.1666666666666667
 40
0.1904761904761905
 40
0.1904761904761905
 40
0.1904761904761905
 40
0.1904761904761905
 40
0.2142857142857143
 40
0.2142857142857143
 40
0.2142857142857143
 40
0.2142857142857143
 40
0.2380952380952381
 40
0.2380952380952381
 40
0.2380952380952381
 40
0.2380952380952381
 40
0.2619047619047619
 40
0.2619047619047619
 40
0.2619047619047619
 40
0.2619047619047619
 40
0.2857142857142857
 40
0.2857142857142857
 40
0.2857142857142857
 40
0.2857142857142857
 40
0.3095238095238095
 40
0.3095238095238095
 40
0.3095238095238095
 40
0.3095238095238095
 40
0.3333333333333334
 40
0.3333333333333334
 40
0.3333333333333334
 40
0.3333333333333334
 40
0.3571428571428572
 40
0.3571428571428572
 40
0.3571428571428572
 40
0.3571428571428572
 40
0.380952380952381
 40
0.380952380952381
 40
0.380952380952381
 40
0.380952380952381
 40
0.4047619047619049
 40
0.4047619047619049
 40
0.4047619047619049
 40
0.4047619047619049
 40
0.4285714285714287
 40
0.4285714285714287
 40
0.4285714285714287
 40
0.4285714285714287
 40
0.4523809523809526
 40
0.4523809523809526
 40
0.4523809523809526
 40
0.4523809523809526
 40
0.4761904761904764
 40
0.4761904761904764
 40
0.4761904761904764
 40
0.4761904761904764
 40
0.5000000000000002
 40
0.5000000000000002
 40
0.5000000000000002
 40
0.5000000000000002
 40
0.5238095238095241
 40
0.5238095238095241
 40
0.5238095238095241
 40
0.5238095238095241
 40
0.5476190476190479
 40
0.5476190476190479
 40
0.5476190476190479
 40
0.5476190476190479
 40
0.5714285714285717
 40
0.5714285714285717
 40
0.5714285714285717
 40
0.5714285714285717
 40
0.5952380952380956
 40
0.5952380952380956
 40
0.5952380952380956
 40
0.5952380952380956
 40
0.6190476190476194
 40
0.6190476190476194
 40
0.6190476190476194
 40
0.6190476190476194
 40
0.6428571428571432
 40
0.6428571428571432
 40
0.6428571428571432
 40
0.6428571428571432
 40
0.6666666666666671
 40
0.6666666666666671
 40
0.6666666666666671
 40
0.6666666666666671
 40
0.6904761904761909
 40
0.6904761904761909
 40
0.6904761904761909
 40
0.6904761904761909
 40
0.7142857142857148
 40
0.7142857142857148
 40
0.7142857142857148
 40
0.7142857142857148
 40
0.7380952380952386
 40
0.7380952380952386
 40
0.7380952380952386
 40
0.7380952380952386
 40
0.7619047619047624
 40
0.7619047619047624
 40
0.7619047619047624
 40
0.7619047619047624
 40
0.7857142857142863
 40
0.7857142857142863
 40
0.7857142857142863
 40
0.7857142857142863
 40
0.8095238095238101
 40
0.8095238095238101
 40
0.8095238095238101
 40
0.8095238095238101
 40
0.8333333333333339
 40
0.8333333333333339
 40
0.8333333333333339
 40
0.8333333333333339
 40
0.8571428571428578
 40
0.8571428571428578
 40
0.8571428571428578
 40
0.8571428571428578
 40
0.8809523809523816
 40
0.8809523809523816
 40
0.8809523809523816
 40
0.8809523809523816
 40
0.9047619047619054
 40
0.9047619047619054
 40
0.9047619047619054
 40
0.9047619047619054
 40
0.9285714285714293
 40
0.9285714285714293
 40
0.9285714285714293
 40
0.9285714285714293
 40
0.9523809523809531
 40
0.9523809523809531
 40
0.9523809523809531
 40
0.9523809523809531
 40
0.9761904761904769
 40
0.9761904761904769
 40
0.9761904761904769
 40
0.9761904761904769
 40
1.0
 40
1.0
 40
1.0
 40
1.0
 10
-0.54849
 20
-3.1247600000000002
 30
0.0
 10
-0.57643
 20
-3.2441400000000002
 30
0.0
 10
-0.8837700000000001
 20
-2.8682200000000004
 30
0.0
 10
-0.9015500000000001
 20
-2.7513800000000002
 30
0.0
 10
-0.9015500000000001
 20
-2.7513800000000002
 30
0.0
 10
-0.14717
 20
-3.3076400000000001
 30
0.0
 10
0.86882
 20
-3.4778200000000004
 30
0.0
 10
1.7578200000000002
 20
-3.7496000000000005
 30
0.0
 10
1.7578200000000002
 20
-3.7496000000000005
 30
0.0
 10
1.7197200000000001
 20
-3.4879800000000003
 30
0.0
 10
1.6384400000000001
 20
-3.2365200000000001
 30
0.0
 10
1.5495400000000001
 20
-2.9952200000000002
 30
0.0
 10
1.5495400000000001
 20
-2.9952200000000002
 30
0.0
 10
1.4225400000000001
 20
-2.6955
 30
0.0
 10
1.3641200000000002
 20
-2.3246600000000002
 30
0.0
 10
1.1304400000000001
 20
-2.1341600000000001
 30
0.0
 10
1.1304400000000001
 20
-2.1341600000000001
 30
0.0
 10
1.0466200000000001
 20
-2.06304
 30
0.0
 10
0.93486
 20
-2.0427200000000001
 30
0.0
 10
0.82564
 20
-2.0274800000000002
 30
0.0
 10
0.82564
 20
-2.0274800000000002
 30
0.0
 10
0.8027800000000001
 20
-2.4694400000000001
 30
0.0
 10
1.1533
 20
-2.8021800000000003
 30
0.0
 10
1.2523600000000001
 20
-3.1654000000000004
 30
0.0
 10
1.2523600000000001
 20
-3.1654000000000004
 30
0.0
 10
0.95264
 20
-2.9317200000000003
 30
0.0
 10
0.7799200000000001
 20
-2.5329400000000004
 30
0.0
 10
0.41162
 20
-2.35514
 30
0.0
 10
0.41162
 20
-2.35514
 30
0.0
 10
0.33796
 20
-2.4745200000000001
 30
0.0
 10
0.4802
 20
-2.6853400000000001
 30
0.0
 10
0.4167
 20
-2.7818600000000004
 30
0.0
 10
0.4167
 20
-2.7818600000000004
 30
0.0
 10
0.1754
 20
-2.4186400000000003
 30
0.0
 10
0.22366
 20
-1.9462000000000002
 30
0.0
 10
0.0865
 20
-1.5728200000000001
 30
0.0
 10
0.0865
 20
-1.5728200000000001
 30
0.0
 10
-0.01255
 20
-1.7150600000000003
 30
0.0
 10
-0.21321
 20
-1.6185400000000001
 30
0.0
 10
-0.28941
 20
-1.5245600000000001
 30
0.0
 10
-0.28941
 20
-1.5245600000000001
 30
0.0
 10
-0.28941
 20
-1.5245600000000001
 30
0.0
 10
0.06364
 20
-2.2078200000000003
 30
0.0
 10
0.06364
 20
-2.2078200000000003
 30
0.0
 10
0.06364
 20
-2.2078200000000003
 30
0.0
 10
0.06364
 20
-2.2078200000000003
 30
0.0
 10
0.08142
 20
-2.3246600000000002
 30
0.0
 10
0.08142
 20
-2.3246600000000002
 30
0.0
 10
0.08142
 20
-2.3246600000000002
 30
0.0
 10
-0.08875
 20
-2.1087600000000002
 30
0.0
 10
-0.28687
 20
-1.5372600000000001
 30
0.0
 10
-0.63231
 20
-1.5169400000000002
 30
0.0
 10
-0.63231
 20
-1.5169400000000002
 30
0.0
 10
-0.6043700000000001
 20
-1.7861800000000001
 30
0.0
 10
-0.3021100000000001
 20
-1.9360400000000002
 30
0.0
 10
-0.21575
 20
-2.1849600000000002
 30
0.0
 10
-0.21575
 20
-2.1849600000000002
 30
0.0
 10
-0.5459500000000001
 20
-1.9639800000000001
 30
0.0
 10
-0.76439
 20
-1.4636
 30
0.0
 10
-1.0564900000000002
 20
-1.2807200000000001
 30
0.0
 10
-1.0564900000000002
 20
-1.2807200000000001
 30
0.0
 10
-1.0564900000000002
 20
-1.2807200000000001
 30
0.0
 10
-1.0920500000000002
 20
-1.1537200000000001
 30
0.0
 10
-1.0920500000000002
 20
-1.1537200000000001
 30
0.0
 10
-1.0920500000000002
 20
-1.1537200000000001
 30
0.0
 10
-1.2393700000000001
 20
-1.4001000000000001
 30
0.0
 10
-0.9193300000000001
 20
-1.6617200000000001
 30
0.0
 10
-0.8939300000000001
 20
-1.9208000000000001
 30
0.0
 10
-0.8939300000000001
 20
-1.9208000000000001
 30
0.0
 10
-0.9040900000000001
 20
-1.9106400000000001
 30
0.0
 10
-1.2266700000000001
 20
-1.4915400000000001
 30
0.0
 10
-1.3841500000000002
 20
-1.1384800000000002
 30
0.0
 10
-1.3841500000000002
 20
-1.1384800000000002
 30
0.0
 10
-1.4933700000000001
 20
-0.8971800000000001
 30
0.0
 10
-1.7626100000000002
 20
-0.7930400000000001
 30
0.0
 10
-1.7753100000000002
 20
-0.7498600000000001
 30
0.0
 10
-1.7753100000000002
 20
-0.7498600000000001
 30
0.0
 10
-1.7753100000000002
 20
-0.7498600000000001
 30
0.0
 10
-1.8438900000000003
 20
-0.71684
 30
0.0
 10
-1.8438900000000003
 20
-0.71684
 30
0.0
 10
-1.8438900000000003
 20
-0.71684
 30
0.0
 10
-1.8642100000000001
 20
-0.9657600000000001
 30
0.0
 10
-1.6965700000000001
 20
-1.1207
 30
0.0
 10
-1.6584700000000001
 20
-1.3594600000000001
 30
0.0
 10
-1.6584700000000001
 20
-1.3594600000000001
 30
0.0
 10
-1.6381500000000002
 20
-1.3670800000000001
 30
0.0
 10
-1.9200900000000001
 20
-1.1791200000000002
 30
0.0
 10
-1.9505700000000001
 20
-0.8387600000000001
 30
0.0
 10
-1.9505700000000001
 20
-0.8387600000000001
 30
0.0
 10
-1.9886700000000002
 20
-0.39934
 30
0.0
 10
-1.7956300000000001
 20
0.24835
 30
0.0
 10
-1.9505700000000001
 20
0.6445900000000001
 30
0.0
 10
-1.9505700000000001
 20
0.6445900000000001
 30
0.0
 10
-2.0521700000000003
 20
0.70555
 30
0.0
 10
-2.1766300000000003
 20
0.70555
 30
0.0
 10
-2.2858500000000004
 20
0.7157100000000001
 30
0.0
 10
-2.2858500000000004
 20
0.7157100000000001
 30
0.0
 10
-2.2604500000000001
 20
0.4540900000000001
 30
0.0
 10
-2.1156700000000002
 20
0.22803
 30
0.0
 10
-2.1207500000000001
 20
-0.04374
 30
0.0
 10
-2.1207500000000001
 20
-0.04374
 30
0.0
 10
-2.11313
 20
-0.27742
 30
0.0
 10
-2.0902700000000003
 20
-0.41966
 30
0.0
 10
-2.05979
 20
-0.6228600000000001
 30
0.0
 10
-2.05979
 20
-0.6228600000000001
 30
0.0
 10
-2.1817100000000003
 20
-1.0216400000000001
 30
0.0
 10
-2.6160500000000004
 20
-0.4272800000000001
 30
0.0
 10
-2.7582900000000001
 20
-0.22408
 30
0.0
 10
-2.7582900000000001
 20
-0.22408
 30
0.0
 10
-2.7582900000000001
 20
-0.22408
 30
0.0
 10
-2.4839700000000002
 20
-0.3942600000000001
 30
0.0
 10
-2.4839700000000002
 20
-0.3942600000000001
 30
0.0
 10
-2.4839700000000002
 20
-0.3942600000000001
 30
0.0
 10
-2.39507
 20
-0.45268
 30
0.0
 10
-2.3442700000000003
 20
-0.5796800000000001
 30
0.0
 10
-2.22235
 20
-0.56698
 30
0.0
 10
-2.22235
 20
-0.56698
 30
0.0
 10
-2.2604500000000001
 20
-0.13264
 30
0.0
 10
-2.2579100000000003
 20
0.9265300000000001
 30
0.0
 10
-2.8979900000000001
 20
0.7588900000000001
 30
0.0
 10
-2.8979900000000001
 20
0.7588900000000001
 30
0.0
 10
-2.8979900000000001
 20
0.7588900000000001
 30
0.0
 10
-2.8979900000000001
 20
0.5633100000000001
 30
0.0
 10
-2.8979900000000001
 20
0.5633100000000001
 30
0.0
 10
-2.8979900000000001
 20
0.5633100000000001
 30
0.0
 10
-2.86497
 20
0.45663
 30
0.0
 10
-2.5754100000000002
 20
0.00451
 30
0.0
 10
-2.7582900000000001
 20
0.17469
 30
0.0
 10
-2.7582900000000001
 20
0.17469
 30
0.0
 10
-2.9538700000000002
 20
0.32455
 30
0.0
 10
-3.1799300000000001
 20
0.5861700000000001
 30
0.0
 10
-3.4263100000000004
 20
0.47187
 30
0.0
 10
-3.4263100000000004
 20
0.47187
 30
0.0
 10
-2.8014700000000001
 20
-0.73716
 30
0.0
 10
-1.8464300000000002
 20
-1.8674600000000001
 30
0.0
 10
-1.0996700000000001
 20
-2.9774400000000001
 30
0.0
 10
-1.0996700000000001
 20
-2.9774400000000001
 30
0.0
 10
-1.3028700000000002
 20
-2.85806
 30
0.0
 10
-1.46289
 20
-2.6269200000000001
 30
0.0
 10
-1.6051300000000002
 20
-2.4237200000000003
 30
0.0
 10
-1.6051300000000002
 20
-2.4237200000000003
 30
0.0
 10
-1.7067300000000001
 20
-2.2662400000000003
 30
0.0
 10
-1.8083300000000002
 20
-2.2154400000000001
 30
0.0
 10
-1.6813300000000002
 20
-2.4237200000000003
 30
0.0
 10
-1.6813300000000002
 20
-2.4237200000000003
 30
0.0
 10
-1.6813300000000002
 20
-2.4237200000000003
 30
0.0
 10
-1.6025900000000002
 20
-2.6269200000000001
 30
0.0
 10
-1.6025900000000002
 20
-2.6269200000000001
 30
0.0
 10
-1.6025900000000002
 20
-2.6269200000000001
 30
0.0
 10
-1.6025900000000002
 20
-2.6269200000000001
 30
0.0
 10
-1.54417
 20
-2.8047200000000001
 30
0.0
 10
-1.54417
 20
-2.8047200000000001
 30
0.0
 10
-1.54417
 20
-2.8047200000000001
 30
0.0
 10
-1.54417
 20
-2.8047200000000001
 30
0.0
 10
-1.4882900000000001
 20
-2.9596600000000004
 30
0.0
 10
-1.4882900000000001
 20
-2.9596600000000004
 30
0.0
 10
-1.4882900000000001
 20
-2.9596600000000004
 30
0.0
 10
-1.3130300000000001
 20
-3.1857200000000003
 30
0.0
 10
-1.1758700000000002
 20
-3.4676600000000004
 30
0.0
 10
-0.88631
 20
-3.5464000000000002
 30
0.0
 10
-0.88631
 20
-3.5464000000000002
 30
0.0
 10
-0.5865900000000001
 20
-3.5794200000000003
 30
0.0
 10
-0.28941
 20
-3.3914600000000004
 30
0.0
 10
0.0992
 20
-3.4219400000000002
 30
0.0
 10
0.0992
 20
-3.4219400000000002
 30
0.0
 10
-0.10399
 20
-3.2949400000000004
 30
0.0
 10
-0.3224300000000001
 20
-3.1857200000000003
 30
0.0
 10
-0.54849
 20
-3.1247600000000002
 30
0.0
  0
SPLINE
  5
32
100
AcDbEntity
  8
Ebene 1
 62
     7
100
AcDbSpline
210
0.0
220
0.0
230
1.0
 70
     1
 71
     3
 72
    20
 73
    16
 74
     0
 42
0.0000000001
 43
0.0000000001
 40
0.0
 40
0.0
 40
0.0
 40
0.0
 40
0.25
 40
0.25
 40
0.25
 40
0.25
 40
0.5
 40
0.5
 40
0.5
 40
0.5
 40
0.75
 40
0.75
 40
0.75
 40
0.75
 40
1.0
 40
1.0
 40
1.0
 40
1.0
 10
-0.9625100000000001
 20
0.95701
 30
0.0
 10
-0.99299
 20
0.9519300000000001
 30
0.0
 10
-0.97267
 20
0.9239900000000001
 30
0.0
 10
-0.9701300000000001
 20
0.9087500000000001
 30
0.0
 10
-0.9701300000000001
 20
0.9087500000000001
 30
0.0
 10
-0.8380500000000001
 20
0.7614300000000001
 30
0.0
 10
-0.7466100000000001
 20
0.57855
 30
0.0
 10
-0.7466100000000001
 20
0.37789
 30
0.0
 10
-0.7466100000000001
 20
0.37789
 30
0.0
 10
-0.7466100000000001
 20
0.37789
 30
0.0
 10
-0.5408700000000001
 20
0.36265
 30
0.0
 10
-0.5408700000000001
 20
0.36265
 30
0.0
 10
-0.5408700000000001
 20
0.36265
 30
0.0
 10
-0.48753
 20
0.6039500000000001
 30
0.0
 10
-0.7313700000000001
 20
0.87065
 30
0.0
 10
-0.9625100000000001
 20
0.95701
 30
0.0
  0
SPLINE
  5
33
100
AcDbEntity
  8
Ebene 1
 62
     7
100
AcDbSpline
210
0.0
220
0.0
230
1.0
 70
     1
 71
     3
 72
    16
 73
    12
 74
     0
 42
0.0000000001
 43
0.0000000001
 40
0.0
 40
0.0
 40
0.0
 40
0.0
 40
0.3333333333333333
 40
0.3333333333333333
 40
0.3333333333333333
 40
0.3333333333333333
 40
0.6666666666666666
 40
0.6666666666666666
 40
0.6666666666666666
 40
0.6666666666666666
 40
1.0
 40
1.0
 40
1.0
 40
1.0
 10
-0.9040900000000001
 20
0.39313
 30
0.0
 10
-0.9777500000000001
 20
0.56077
 30
0.0
 10
-1.08951
 20
0.7919100000000001
 30
0.0
 10
-1.2825500000000001
 20
0.82747
 30
0.0
 10
-1.2825500000000001
 20
0.82747
 30
0.0
 10
-1.1987300000000001
 20
0.6928500000000001
 30
0.0
 10
-1.1809500000000002
 20
0.39313
 30
0.0
 10
-0.9574300000000001
 20
0.4439300000000001
 30
0.0
 10
-0.9574300000000001
 20
0.4439300000000001
 30
0.0
 10
-0.9574300000000001
 20
0.4439300000000001
 30
0.0
 10
-0.9040900000000001
 20
0.39313
 30
0.0
 10
-0.9040900000000001
 20
0.39313
 30
0.0
  0
SPLINE
  5
34
100
AcDbEntity
  8
Ebene 1
100
AcDbSpline
210
0.0
220
0.0
230
1.0
 70
     1
 71
     3
 72
    16
 73
    12
 74
     0
 42
0.0000000001
 43
0.0000000001
 40
0.0
 40
0.0
 40
0.0
 40
0.0
 40
0.3333333333333333
 40
0.3333333333333333
 40
0.3333333333333333
 40
0.3333333333333333
 40
0.6666666666666666
 40
0.6666666666666666
 40
0.6666666666666666
 40
0.6666666666666666
 40
1.0
 40
1.0
 40
1.0
 40
1.0
 10
1.1279000000000001
 20
0.9493900000000001
 30
0.0
 10
0.7392800000000001
 20
0.42615
 30
0.0
 10
1.1660000000000001
 20
-0.11994
 30
0.0
 10
1.3488800000000001
 20
-0.6838200000000001
 30
0.0
 10
1.3488800000000001
 20
-0.6838200000000001
 30
0.0
 10
1.39714
 20
-0.8387600000000001
 30
0.0
 10
1.5368400000000002
 20
-1.0216400000000001
 30
0.0
 10
1.5876400000000002
 20
-1.00132
 30
0.0
 10
1.5876400000000002
 20
-1.00132
 30
0.0
 10
1.3920600000000001
 20
-0.3739400000000001
 30
0.0
 10
0.9602600000000001
 20
0.2737500000000001
 30
0.0
 10
1.1279000000000001
 20
0.9493900000000001
 30
0.0
  0
SPLINE
  5
35
100
AcDbEntity
  8
Ebene 1
 62
     7
100
AcDbSpline
210
0.0
220
0.0
230
1.0
 70
     1
 71
     3
 72
    20
 73
    16
 74
     0
 42
0.0000000001
 43
0.0000000001
 40
0.0
 40
0.0
 40
0.0
 40
0.0
 40
0.25
 40
0.25
 40
0.25
 40
0.25
 40
0.5
 40
0.5
 40
0.5
 40
0.5
 40
0.75
 40
0.75
 40
0.75
 40
0.75
 40
1.0
 40
1.0
 40
1.0
 40
1.0
 10
-1.2723900000000001
 20
0.4744100000000001
 30
0.0
 10
-1.2723900000000001
 20
0.4744100000000001
 30
0.0
 10
-1.3181100000000001
 20
0.4642500000000001
 30
0.0
 10
-1.3181100000000001
 20
0.4642500000000001
 30
0.0
 10
-1.3181100000000001
 20
0.4642500000000001
 30
0.0
 10
-1.3181100000000001
 20
0.4642500000000001
 30
0.0
 10
-1.3079500000000002
 20
0.39821
 30
0.0
 10
-1.3079500000000002
 20
0.39821
 30
0.0
 10
-1.3079500000000002
 20
0.39821
 30
0.0
 10
-1.42225
 20
0.24835
 30
0.0
 10
-1.3511300000000002
 20
-0.01072
 30
0.0
 10
-1.2800100000000001
 20
-0.1682
 30
0.0
 10
-1.2800100000000001
 20
-0.1682
 30
0.0
 10
-1.2647700000000002
 20
0.02737
 30
0.0
 10
-1.00569
 20
0.34995
 30
0.0
 10
-1.2723900000000001
 20
0.4744100000000001
 30
0.0
  0
SPLINE
  5
36
100
AcDbEntity
  8
Ebene 1
 62
     7
100
AcDbSpline
210
0.0
220
0.0
230
1.0
 70
     1
 71
     3
 72
    12
 73
     8
 74
     0
 42
0.0000000001
 43
0.0000000001
 40
0.0
 40
0.0
 40
0.0
 40
0.0
 40
0.5
 40
0.5
 40
0.5
 40
0.5
 40
1.0
 40
1.0
 40
1.0
 40
1.0
 10
-0.9777500000000001
 20
0.38297
 30
0.0
 10
-1.13015
 20
0.35249
 30
0.0
 10
-1.0514100000000002
 20
0.15437
 30
0.0
 10
-1.03617
 20
0.05277
 30
0.0
 10
-1.03617
 20
0.05277
 30
0.0
 10
-1.0234700000000001
 20
0.16707
 30
0.0
 10
-0.8405900000000001
 20
0.28391
 30
0.0
 10
-0.9777500000000001
 20
0.38297
 30
0.0
  0
SPLINE
  5
37
100
AcDbEntity
  8
Ebene 1
100
AcDbSpline
210
0.0
220
0.0
230
1.0
 70
     1
 71
     3
 72
    32
 73
    28
 74
     0
 42
0.0000000001
 43
0.0000000001
 40
0.0
 40
0.0
 40
0.0
 40
0.0
 40
0.1428571428571429
 40
0.1428571428571429
 40
0.1428571428571429
 40
0.1428571428571429
 40
0.2857142857142857
 40
0.2857142857142857
 40
0.2857142857142857
 40
0.2857142857142857
 40
0.4285714285714286
 40
0.4285714285714286
 40
0.4285714285714286
 40
0.4285714285714286
 40
0.5714285714285714
 40
0.5714285714285714
 40
0.5714285714285714
 40
0.5714285714285714
 40
0.7142857142857142
 40
0.7142857142857142
 40
0.7142857142857142
 40
0.7142857142857142
 40
0.857142857142857
 40
0.857142857142857
 40
0.857142857142857
 40
0.857142857142857
 40
1.0
 40
1.0
 40
1.0
 40
1.0
 10
2.9744800000000002
 20
0.9443100000000001
 30
0.0
 10
2.6646000000000001
 20
0.18485
 30
0.0
 10
3.4418400000000005
 20
-0.52634
 30
0.0
 10
3.9396800000000005
 20
-0.9454400000000001
 30
0.0
 10
3.9396800000000005
 20
-0.9454400000000001
 30
0.0
 10
3.9600000000000004
 20
-0.8616200000000001
 30
0.0
 10
3.9752400000000003
 20
-0.75748
 30
0.0
 10
3.9701600000000004
 20
-0.6609600000000001
 30
0.0
 10
3.9701600000000004
 20
-0.6609600000000001
 30
0.0
 10
3.9854000000000003
 20
-0.5593600000000001
 30
0.0
 10
4.0412800000000004
 20
-0.6889000000000001
 30
0.0
 10
4.0819200000000002
 20
-0.7092200000000001
 30
0.0
 10
4.0819200000000002
 20
-0.7092200000000001
 30
0.0
 10
4.1352600000000006
 20
-0.7447800000000001
 30
0.0
 10
4.1378000000000004
 20
-0.88702
 30
0.0
 10
4.20892
 20
-0.82098
 30
0.0
 10
4.20892
 20
-0.82098
 30
0.0
 10
4.2241600000000004
 20
-0.16058
 30
0.0
 10
4.0108000000000006
 20
0.43885
 30
0.0
 10
3.6755200000000001
 20
0.9747900000000001
 30
0.0
 10
3.6755200000000001
 20
0.9747900000000001
 30
0.0
 10
3.5307400000000002
 20
0.9011300000000001
 30
0.0
 10
3.7466400000000002
 20
0.64205
 30
0.0
 10
3.6907600000000005
 20
0.48965
 30
0.0
 10
3.6907600000000005
 20
0.48965
 30
0.0
 10
3.4545400000000002
 20
0.6318900000000001
 30
0.0
 10
3.1599000000000004
 20
0.7538100000000001
 30
0.0
 10
2.9744800000000002
 20
0.9443100000000001
 30
0.0
  0
SPLINE
  5
38
100
AcDbEntity
  8
Ebene 1
 62
     7
100
AcDbSpline
210
0.0
220
0.0
230
1.0
 70
     1
 71
     3
 72
    16
 73
    12
 74
     0
 42
0.0000000001
 43
0.0000000001
 40
0.0
 40
0.0
 40
0.0
 40
0.0
 40
0.3333333333333333
 40
0.3333333333333333
 40
0.3333333333333333
 40
0.3333333333333333
 40
0.6666666666666666
 40
0.6666666666666666
 40
0.6666666666666666
 40
0.6666666666666666
 40
1.0
 40
1.0
 40
1.0
 40
1.0
 10
-0.6424700000000001
 20
0.31185
 30
0.0
 10
-0.6424700000000001
 20
0.31185
 30
0.0
 10
-0.7034300000000001
 20
0.29915
 30
0.0
 10
-0.7034300000000001
 20
0.29915
 30
0.0
 10
-0.7034300000000001
 20
0.29915
 30
0.0
 10
-0.7466100000000001
 20
0.07817
 30
0.0
 10
-0.9066300000000001
 20
-0.17074
 30
0.0
 10
-0.7491500000000001
 20
-0.37902
 30
0.0
 10
-0.7491500000000001
 20
-0.37902
 30
0.0
 10
-0.66025
 20
-0.1682
 30
0.0
 10
-0.3224300000000001
 20
0.14675
 30
0.0
 10
-0.6424700000000001
 20
0.31185
 30
0.0
  0
SPLINE
  5
39
100
AcDbEntity
  8
Ebene 1
 62
     7
100
AcDbSpline
210
0.0
220
0.0
230
1.0
 70
     1
 71
     3
 72
    12
 73
     8
 74
     0
 42
0.0000000001
 43
0.0000000001
 40
0.0
 40
0.0
 40
0.0
 40
0.0
 40
0.5
 40
0.5
 40
0.5
 40
0.5
 40
1.0
 40
1.0
 40
1.0
 40
1.0
 10
-0.90917
 20
0.12897
 30
0.0
 10
-0.9777500000000001
 20
0.08325
 30
0.0
 10
-0.9472700000000001
 20
-0.01326
 30
0.0
 10
-0.9066300000000001
 20
-0.06406
 30
0.0
 10
-0.9066300000000001
 20
-0.06406
 30
0.0
 10
-0.9066300000000001
 20
-0.06406
 30
0.0
 10
-0.90917
 20
0.12897
 30
0.0
 10
-0.90917
 20
0.12897
 30
0.0
  0
SPLINE
  5
3A
100
AcDbEntity
  8
Ebene 1
 62
     7
100
AcDbSpline
210
0.0
220
0.0
230
1.0
 70
     1
 71
     3
 72
    16
 73
    12
 74
     0
 42
0.0000000001
 43
0.0000000001
 40
0.0
 40
0.0
 40
0.0
 40
0.0
 40
0.3333333333333333
 40
0.3333333333333333
 40
0.3333333333333333
 40
0.3333333333333333
 40
0.6666666666666666
 40
0.6666666666666666
 40
0.6666666666666666
 40
0.6666666666666666
 40
1.0
 40
1.0
 40
1.0
 40
1.0
 10
-0.28941
 20
0.13405
 30
0.0
 10
-0.36053
 20
0.09595
 30
0.0
 10
-0.3960900000000001
 20
-0.06914
 30
0.0
 10
-0.32751
 20
-0.11232
 30
0.0
 10
-0.32751
 20
-0.11232
 30
0.0
 10
-0.40371
 20
-0.22154
 30
0.0
 10
-0.28179
 20
-0.3942600000000001
 30
0.0
 10
-0.20559
 20
-0.49586
 30
0.0
 10
-0.20559
 20
-0.49586
 30
0.0
 10
-0.14717
 20
-0.2825
 30
0.0
 10
-0.10653
 20
-0.03612
 30
0.0
 10
-0.28941
 20
0.13405
 30
0.0
  0
SPLINE
  5
3B
100
AcDbEntity
  8
Ebene 1
 62
     7
100
AcDbSpline
210
0.0
220
0.0
230
1.0
 70
     1
 71
     3
 72
    16
 73
    12
 74
     0
 42
0.0000000001
 43
0.0000000001
 40
0.0
 40
0.0
 40
0.0
 40
0.0
 40
0.3333333333333333
 40
0.3333333333333333
 40
0.3333333333333333
 40
0.3333333333333333
 40
0.6666666666666666
 40
0.6666666666666666
 40
0.6666666666666666
 40
0.6666666666666666
 40
1.0
 40
1.0
 40
1.0
 40
1.0
 10
-1.4425700000000001
 20
-0.3079
 30
0.0
 10
-1.5162300000000002
 20
-0.5238
 30
0.0
 10
-1.41971
 20
-0.84638
 30
0.0
 10
-1.3511300000000002
 20
-1.08006
 30
0.0
 10
-1.3511300000000002
 20
-1.08006
 30
0.0
 10
-1.29271
 20
-1.0597400000000001
 30
0.0
 10
-1.2190500000000002
 20
-1.0445
 30
0.0
 10
-1.16317
 20
-1.00386
 30
0.0
 10
-1.16317
 20
-1.00386
 30
0.0
 10
-1.2165100000000002
 20
-0.7524000000000001
 30
0.0
 10
-1.3460500000000002
 20
-0.53142
 30
0.0
 10
-1.4425700000000001
 20
-0.3079
 30
0.0
  0
SPLINE
  5
3C
100
AcDbEntity
  8
Ebene 1
 62
     7
100
AcDbSpline
210
0.0
220
0.0
230
1.0
 70
     1
 71
     3
 72
    20
 73
    16
 74
     0
 42
0.0000000001
 43
0.0000000001
 40
0.0
 40
0.0
 40
0.0
 40
0.0
 40
0.25
 40
0.25
 40
0.25
 40
0.25
 40
0.5
 40
0.5
 40
0.5
 40
0.5
 40
0.75
 40
0.75
 40
0.75
 40
0.75
 40
1.0
 40
1.0
 40
1.0
 40
1.0
 10
-1.00569
 20
-0.3333
 30
0.0
 10
-1.04125
 20
-0.6025400000000001
 30
0.0
 10
-1.0996700000000001
 20
-0.9149600000000001
 30
0.0
 10
-1.0082300000000002
 20
-1.1943600000000001
 30
0.0
 10
-1.0082300000000002
 20
-1.1943600000000001
 30
0.0
 10
-1.0082300000000002
 20
-1.1943600000000001
 30
0.0
 10
-0.7872500000000001
 20
-1.2223000000000002
 30
0.0
 10
-0.7872500000000001
 20
-1.2223000000000002
 30
0.0
 10
-0.7872500000000001
 20
-1.2223000000000002
 30
0.0
 10
-0.7872500000000001
 20
-1.2223000000000002
 30
0.0
 10
-0.76439
 20
-1.1765800000000002
 30
0.0
 10
-0.76439
 20
-1.1765800000000002
 30
0.0
 10
-0.76439
 20
-1.1765800000000002
 30
0.0
 10
-0.91171
 20
-0.9200400000000001
 30
0.0
 10
-0.9472700000000001
 20
-0.6000000000000001
 30
0.0
 10
-1.00569
 20
-0.3333
 30
0.0
  0
SPLINE
  5
3D
100
AcDbEntity
  8
Ebene 1
 62
     7
100
AcDbSpline
210
0.0
220
0.0
230
1.0
 70
     1
 71
     3
 72
    16
 73
    12
 74
     0
 42
0.0000000001
 43
0.0000000001
 40
0.0
 40
0.0
 40
0.0
 40
0.0
 40
0.3333333333333333
 40
0.3333333333333333
 40
0.3333333333333333
 40
0.3333333333333333
 40
0.6666666666666666
 40
0.6666666666666666
 40
0.6666666666666666
 40
0.6666666666666666
 40
1.0
 40
1.0
 40
1.0
 40
1.0
 10
-0.5815100000000001
 20
-0.76002
 30
0.0
 10
-0.6424700000000001
 20
-0.9556000000000001
 30
0.0
 10
-0.6221500000000001
 20
-1.1842000000000001
 30
0.0
 10
-0.6221500000000001
 20
-1.3823200000000002
 30
0.0
 10
-0.6221500000000001
 20
-1.3823200000000002
 30
0.0
 10
-0.55357
 20
-1.4229600000000002
 30
0.0
 10
-0.48499
 20
-1.4737600000000002
 30
0.0
 10
-0.40117
 20
-1.4102600000000001
 30
0.0
 10
-0.40117
 20
-1.4102600000000001
 30
0.0
 10
-0.4367300000000001
 20
-1.1842000000000001
 30
0.0
 10
-0.5027700000000001
 20
-0.9657600000000001
 30
0.0
 10
-0.5815100000000001
 20
-0.76002
 30
0.0
  0
SPLINE
  5
3E
100
AcDbEntity
  8
Ebene 1
 62
     7
100
AcDbSpline
210
0.0
220
0.0
230
1.0
 70
     1
 71
     3
 72
    16
 73
    12
 74
     0
 42
0.0000000001
 43
0.0000000001
 40
0.0
 40
0.0
 40
0.0
 40
0.0
 40
0.3333333333333333
 40
0.3333333333333333
 40
0.3333333333333333
 40
0.3333333333333333
 40
0.6666666666666666
 40
0.6666666666666666
 40
0.6666666666666666
 40
0.6666666666666666
 40
1.0
 40
1.0
 40
1.0
 40
1.0
 10
-0.19543
 20
-0.94798
 30
0.0
 10
-0.26147
 20
-1.0241800000000001
 30
0.0
 10
-0.23607
 20
-1.1791200000000002
 30
0.0
 10
-0.21829
 20
-1.29342
 30
0.0
 10
-0.21829
 20
-1.29342
 30
0.0
 10
-0.27417
 20
-1.4255000000000002
 30
0.0
 10
-0.21067
 20
-1.6414000000000002
 30
0.0
 10
-0.02017
 20
-1.5677400000000001
 30
0.0
 10
-0.02017
 20
-1.5677400000000001
 30
0.0
 10
-0.02017
 20
-1.5677400000000001
 30
0.0
 10
-0.19543
 20
-0.94798
 30
0.0
 10
-0.19543
 20
-0.94798
 30
0.0
  0
SPLINE
  5
3F
100
AcDbEntity
  8
Ebene 1
 62
     7
100
AcDbSpline
210
0.0
220
0.0
230
1.0
 70
     1
 71
     3
 72
    96
 73
    92
 74
     0
 42
0.0000000001
 43
0.0000000001
 40
0.0
 40
0.0
 40
0.0
 40
0.0
 40
0.0434782608695652
 40
0.0434782608695652
 40
0.0434782608695652
 40
0.0434782608695652
 40
0.0869565217391304
 40
0.0869565217391304
 40
0.0869565217391304
 40
0.0869565217391304
 40
0.1304347826086957
 40
0.1304347826086957
 40
0.1304347826086957
 40
0.1304347826086957
 40
0.1739130434782609
 40
0.1739130434782609
 40
0.1739130434782609
 40
0.1739130434782609
 40
0.2173913043478261
 40
0.2173913043478261
 40
0.2173913043478261
 40
0.2173913043478261
 40
0.2608695652173913
 40
0.2608695652173913
 40
0.2608695652173913
 40
0.2608695652173913
 40
0.3043478260869565
 40
0.3043478260869565
 40
0.3043478260869565
 40
0.3043478260869565
 40
0.3478260869565217
 40
0.3478260869565217
 40
0.3478260869565217
 40
0.3478260869565217
 40
0.3913043478260869
 40
0.3913043478260869
 40
0.3913043478260869
 40
0.3913043478260869
 40
0.4347826086956521
 40
0.4347826086956521
 40
0.4347826086956521
 40
0.4347826086956521
 40
0.4782608695652173
 40
0.4782608695652173
 40
0.4782608695652173
 40
0.4782608695652173
 40
0.5217391304347825
 40
0.5217391304347825
 40
0.5217391304347825
 40
0.5217391304347825
 40
0.5652173913043477
 40
0.5652173913043477
 40
0.5652173913043477
 40
0.5652173913043477
 40
0.6086956521739129
 40
0.6086956521739129
 40
0.6086956521739129
 40
0.6086956521739129
 40
0.6521739130434781
 40
0.6521739130434781
 40
0.6521739130434781
 40
0.6521739130434781
 40
0.6956521739130432
 40
0.6956521739130432
 40
0.6956521739130432
 40
0.6956521739130432
 40
0.7391304347826084
 40
0.7391304347826084
 40
0.7391304347826084
 40
0.7391304347826084
 40
0.7826086956521736
 40
0.7826086956521736
 40
0.7826086956521736
 40
0.7826086956521736
 40
0.8260869565217388
 40
0.8260869565217388
 40
0.8260869565217388
 40
0.8260869565217388
 40
0.869565217391304
 40
0.869565217391304
 40
0.869565217391304
 40
0.869565217391304
 40
0.9130434782608692
 40
0.9130434782608692
 40
0.9130434782608692
 40
0.9130434782608692
 40
0.9565217391304344
 40
0.9565217391304344
 40
0.9565217391304344
 40
0.9565217391304344
 40
1.0
 40
1.0
 40
1.0
 40
1.0
 10
1.48858
 20
-1.3162800000000001
 30
0.0
 10
1.2244200000000001
 20
-1.5652000000000001
 30
0.0
 10
1.6384400000000001
 20
-2.0274800000000002
 30
0.0
 10
1.6333600000000001
 20
-2.3475200000000003
 30
0.0
 10
1.6333600000000001
 20
-2.3475200000000003
 30
0.0
 10
1.7070200000000002
 20
-2.5456400000000001
 30
0.0
 10
1.5393800000000002
 20
-2.3576800000000002
 30
0.0
 10
1.5317600000000002
 20
-2.2586200000000001
 30
0.0
 10
1.5317600000000002
 20
-2.2586200000000001
 30
0.0
 10
1.5317600000000002
 20
-2.2586200000000001
 30
0.0
 10
1.2930000000000001
 20
-1.6769600000000002
 30
0.0
 10
1.2930000000000001
 20
-1.6769600000000002
 30
0.0
 10
1.2930000000000001
 20
-1.6769600000000002
 30
0.0
 10
1.2930000000000001
 20
-1.6769600000000002
 30
0.0
 10
1.1355200000000001
 20
-1.4331200000000002
 30
0.0
 10
1.1355200000000001
 20
-1.4331200000000002
 30
0.0
 10
1.1355200000000001
 20
-1.4331200000000002
 30
0.0
 10
1.4174600000000002
 20
-2.2332200000000002
 30
0.0
 10
1.6867000000000001
 20
-3.0942800000000004
 30
0.0
 10
1.8924400000000001
 20
-3.9553400000000005
 30
0.0
 10
1.8924400000000001
 20
-3.9553400000000005
 30
0.0
 10
1.9127600000000002
 20
-4.0442400000000003
 30
0.0
 10
1.9051400000000001
 20
-4.1458400000000006
 30
0.0
 10
1.9965800000000002
 20
-4.2372800000000002
 30
0.0
 10
1.9965800000000002
 20
-4.2372800000000002
 30
0.0
 10
1.9965800000000002
 20
-4.2372800000000002
 30
0.0
 10
1.9686400000000002
 20
-3.7826200000000001
 30
0.0
 10
1.9686400000000002
 20
-3.7826200000000001
 30
0.0
 10
1.9686400000000002
 20
-3.7826200000000001
 30
0.0
 10
1.9254600000000002
 20
-3.5337000000000005
 30
0.0
 10
1.8949800000000001
 20
-3.2949400000000004
 30
0.0
 10
1.8873600000000001
 20
-3.0511000000000004
 30
0.0
 10
1.8873600000000001
 20
-3.0511000000000004
 30
0.0
 10
1.8949800000000001
 20
-2.9495000000000005
 30
0.0
 10
1.7705200000000001
 20
-2.7717000000000001
 30
0.0
 10
1.9051400000000001
 20
-2.7259800000000003
 30
0.0
 10
1.9051400000000001
 20
-2.7259800000000003
 30
0.0
 10
1.9610200000000002
 20
-3.0511000000000004
 30
0.0
 10
1.9915000000000003
 20
-3.4168600000000002
 30
0.0
 10
2.0067400000000002
 20
-3.7546800000000005
 30
0.0
 10
2.0067400000000002
 20
-3.7546800000000005
 30
0.0
 10
2.08548
 20
-4.0899600000000005
 30
0.0
 10
2.0423
 20
-4.4430200000000006
 30
0.0
 10
2.12866
 20
-4.7935400000000001
 30
0.0
 10
2.12866
 20
-4.7935400000000001
 30
0.0
 10
2.12866
 20
-4.7935400000000001
 30
0.0
 10
2.2886800000000003
 20
-5.6774600000000008
 30
0.0
 10
2.2886800000000003
 20
-5.6774600000000008
 30
0.0
 10
2.2886800000000003
 20
-5.6774600000000008
 30
0.0
 10
2.8703400000000001
 20
-4.4150800000000006
 30
0.0
 10
2.6976200000000001
 20
-2.9393400000000001
 30
0.0
 10
2.2404200000000003
 20
-1.6490200000000002
 30
0.0
 10
2.2404200000000003
 20
-1.6490200000000002
 30
0.0
 10
2.2836000000000003
 20
-1.8928600000000002
 30
0.0
 10
2.3217000000000003
 20
-2.1290800000000001
 30
0.0
 10
2.38266
 20
-2.3678400000000002
 30
0.0
 10
2.38266
 20
-2.3678400000000002
 30
0.0
 10
2.38266
 20
-2.3678400000000002
 30
0.0
 10
2.4436200000000001
 20
-2.7869400000000004
 30
0.0
 10
2.4436200000000001
 20
-2.7869400000000004
 30
0.0
 10
2.4436200000000001
 20
-2.7869400000000004
 30
0.0
 10
2.4436200000000001
 20
-2.7869400000000004
 30
0.0
 10
2.3598000000000003
 20
-2.6751800000000001
 30
0.0
 10
2.3598000000000003
 20
-2.6751800000000001
 30
0.0
 10
2.3598000000000003
 20
-2.6751800000000001
 30
0.0
 10
2.3598000000000003
 20
-2.6751800000000001
 30
0.0
 10
2.1032600000000001
 20
-1.5169400000000002
 30
0.0
 10
2.1032600000000001
 20
-1.5169400000000002
 30
0.0
 10
2.1032600000000001
 20
-1.5169400000000002
 30
0.0
 10
2.0702400000000001
 20
-1.5093200000000002
 30
0.0
 10
2.03722
 20
-1.49916
 30
0.0
 10
2.0016600000000002
 20
-1.5169400000000002
 30
0.0
 10
2.0016600000000002
 20
-1.5169400000000002
 30
0.0
 10
2.0067400000000002
 20
-1.5626600000000002
 30
0.0
 10
2.0042
 20
-1.6134600000000001
 30
0.0
 10
2.0346800000000003
 20
-1.6490200000000002
 30
0.0
 10
2.0346800000000003
 20
-1.6490200000000002
 30
0.0
 10
2.0346800000000003
 20
-1.6490200000000002
 30
0.0
 10
2.1464400000000001
 20
-1.9563600000000001
 30
0.0
 10
2.1464400000000001
 20
-1.9563600000000001
 30
0.0
 10
2.1464400000000001
 20
-1.9563600000000001
 30
0.0
 10
2.1464400000000001
 20
-1.9563600000000001
 30
0.0
 10
2.2201
 20
-2.3322800000000004
 30
0.0
 10
2.2201
 20
-2.3322800000000004
 30
0.0
 10
2.2201
 20
-2.3322800000000004
 30
0.0
 10
2.2201
 20
-2.3322800000000004
 30
0.0
 10
2.1870800000000004
 20
-2.39324
 30
0.0
 10
2.1870800000000004
 20
-2.39324
 30
0.0
 10
2.1870800000000004
 20
-2.39324
 30
0.0
 10
2.04738
 20
-2.0224000000000002
 30
0.0
 10
1.9889600000000001
 20
-1.3416800000000002
 30
0.0
 10
1.48858
 20
-1.3162800000000001
 30
0.0
  0
SPLINE
  5
40
100
AcDbEntity
  8
Ebene 1
 62
     7
100
AcDbSpline
210
0.0
220
0.0
230
1.0
 70
     1
 71
     3
 72
    20
 73
    16
 74
     0
 42
0.0000000001
 43
0.0000000001
 40
0.0
 40
0.0
 40
0.0
 40
0.0
 40
0.25
 40
0.25
 40
0.25
 40
0.25
 40
0.5
 40
0.5
 40
0.5
 40
0.5
 40
0.75
 40
0.75
 40
0.75
 40
0.75
 40
1.0
 40
1.0
 40
1.0
 40
1.0
 10
4.4934000000000003
 20
-0.9200400000000001
 30
0.0
 10
4.4654600000000002
 20
-0.9403600000000001
 30
0.0
 10
4.4400600000000008
 20
-0.9759200000000001
 30
0.0
 10
4.4273600000000002
 20
-1.0064000000000002
 30
0.0
 10
4.4273600000000002
 20
-1.0064000000000002
 30
0.0
 10
4.6331000000000007
 20
-1.4051800000000001
 30
0.0
 10
4.7220000000000004
 20
-1.83952
 30
0.0
 10
4.7880400000000005
 20
-2.2992600000000003
 30
0.0
 10
4.7880400000000005
 20
-2.2992600000000003
 30
0.0
 10
4.63056
 20
-2.7869400000000004
 30
0.0
 10
4.76518
 20
-3.3000200000000004
 30
0.0
 10
4.9023400000000006
 20
-3.7927800000000005
 30
0.0
 10
4.9023400000000006
 20
-3.7927800000000005
 30
0.0
 10
5.13856
 20
-2.8656800000000002
 30
0.0
 10
5.1817400000000005
 20
-1.6591800000000001
 30
0.0
 10
4.4934000000000003
 20
-0.9200400000000001
 30
0.0
  0
SPLINE
  5
41
100
AcDbEntity
  8
Ebene 1
 62
     7
100
AcDbSpline
210
0.0
220
0.0
230
1.0
 70
     1
 71
     3
 72
    16
 73
    12
 74
     0
 42
0.0000000001
 43
0.0000000001
 40
0.0
 40
0.0
 40
0.0
 40
0.0
 40
0.3333333333333333
 40
0.3333333333333333
 40
0.3333333333333333
 40
0.3333333333333333
 40
0.6666666666666666
 40
0.6666666666666666
 40
0.6666666666666666
 40
0.6666666666666666
 40
1.0
 40
1.0
 40
1.0
 40
1.0
 10
4.5264200000000008
 20
-1.4382000000000001
 30
0.0
 10
4.4807000000000006
 20
-1.4305800000000002
 30
0.0
 10
4.4883200000000008
 20
-1.4737600000000002
 30
0.0
 10
4.4629200000000004
 20
-1.49916
 30
0.0
 10
4.4629200000000004
 20
-1.49916
 30
0.0
 10
4.4756200000000002
 20
-1.8369800000000001
 30
0.0
 10
4.6178600000000003
 20
-2.1214600000000003
 30
0.0
 10
4.7016800000000005
 20
-2.43642
 30
0.0
 10
4.7016800000000005
 20
-2.43642
 30
0.0
 10
4.76518
 20
-2.0986000000000002
 30
0.0
 10
4.6331000000000007
 20
-1.7684000000000002
 30
0.0
 10
4.5264200000000008
 20
-1.4382000000000001
 30
0.0
  0
SPLINE
  5
42
100
AcDbEntity
  8
Ebene 1
 62
     7
100
AcDbSpline
210
0.0
220
0.0
230
1.0
 70
     1
 71
     3
 72
    20
 73
    16
 74
     0
 42
0.0000000001
 43
0.0000000001
 40
0.0
 40
0.0
 40
0.0
 40
0.0
 40
0.25
 40
0.25
 40
0.25
 40
0.25
 40
0.5
 40
0.5
 40
0.5
 40
0.5
 40
0.75
 40
0.75
 40
0.75
 40
0.75
 40
1.0
 40
1.0
 40
1.0
 40
1.0
 10
3.9193600000000002
 20
-1.6972800000000001
 30
0.0
 10
3.8838000000000004
 20
-1.6947400000000001
 30
0.0
 10
3.8609400000000003
 20
-1.7099800000000001
 30
0.0
 10
3.8330000000000002
 20
-1.7277600000000002
 30
0.0
 10
3.8330000000000002
 20
-1.7277600000000002
 30
0.0
 10
3.7034600000000002
 20
-1.9944600000000001
 30
0.0
 10
3.8177600000000003
 20
-2.2637
 30
0.0
 10
3.9473000000000003
 20
-2.5024600000000001
 30
0.0
 10
3.9473000000000003
 20
-2.5024600000000001
 30
0.0
 10
3.9193600000000002
 20
-2.2179800000000003
 30
0.0
 10
3.8863400000000001
 20
-1.9919200000000001
 30
0.0
 10
3.9803200000000003
 20
-1.7353800000000001
 30
0.0
 10
3.9803200000000003
 20
-1.7353800000000001
 30
0.0
 10
3.9803200000000003
 20
-1.7353800000000001
 30
0.0
 10
3.9193600000000002
 20
-1.6972800000000001
 30
0.0
 10
3.9193600000000002
 20
-1.6972800000000001
 30
0.0
  0
SPLINE
  5
43
100
AcDbEntity
  8
Ebene 1
 62
     7
100
AcDbSpline
210
0.0
220
0.0
230
1.0
 70
     1
 71
     3
 72
    20
 73
    16
 74
     0
 42
0.0000000001
 43
0.0000000001
 40
0.0
 40
0.0
 40
0.0
 40
0.0
 40
0.25
 40
0.25
 40
0.25
 40
0.25
 40
0.5
 40
0.5
 40
0.5
 40
0.5
 40
0.75
 40
0.75
 40
0.75
 40
0.75
 40
1.0
 40
1.0
 40
1.0
 40
1.0
 10
4.3130600000000001
 20
-1.6515600000000001
 30
0.0
 10
4.2673399999999999
 20
-1.6668000000000001
 30
0.0
 10
4.2140000000000004
 20
-1.67188
 30
0.0
 10
4.1886000000000001
 20
-1.7201400000000002
 30
0.0
 10
4.1886000000000001
 20
-1.7201400000000002
 30
0.0
 10
4.1784400000000002
 20
-1.7430000000000001
 30
0.0
 10
4.19876
 20
-1.7582400000000002
 30
0.0
 10
4.20892
 20
-1.7760200000000002
 30
0.0
 10
4.20892
 20
-1.7760200000000002
 30
0.0
 10
4.12256
 20
-2.0452600000000003
 30
0.0
 10
4.2521000000000004
 20
-2.3145000000000002
 30
0.0
 10
4.3664000000000005
 20
-2.56088
 30
0.0
 10
4.3664000000000005
 20
-2.56088
 30
0.0
 10
4.468
 20
-2.2764000000000002
 30
0.0
 10
4.4019600000000008
 20
-1.9614400000000001
 30
0.0
 10
4.3130600000000001
 20
-1.6515600000000001
 30
0.0
  0
SPLINE
  5
44
100
AcDbEntity
  8
Ebene 1
 62
     7
100
AcDbSpline
210
0.0
220
0.0
230
1.0
 70
     1
 71
     3
 72
    12
 73
     8
 74
     0
 42
0.0000000001
 43
0.0000000001
 40
0.0
 40
0.0
 40
0.0
 40
0.0
 40
0.5
 40
0.5
 40
0.5
 40
0.5
 40
1.0
 40
1.0
 40
1.0
 40
1.0
 10
3.2564200000000003
 20
-1.8268200000000001
 30
0.0
 10
3.0252800000000004
 20
-2.0554200000000002
 30
0.0
 10
3.1218000000000004
 20
-2.48468
 30
0.0
 10
3.2843600000000004
 20
-2.7640800000000003
 30
0.0
 10
3.2843600000000004
 20
-2.7640800000000003
 30
0.0
 10
3.2843600000000004
 20
-2.4618200000000003
 30
0.0
 10
3.4393000000000002
 20
-2.1214600000000003
 30
0.0
 10
3.2564200000000003
 20
-1.8268200000000001
 30
0.0
  0
SPLINE
  5
45
100
AcDbEntity
  8
Ebene 1
 62
     7
100
AcDbSpline
210
0.0
220
0.0
230
1.0
 70
     1
 71
     3
 72
    16
 73
    12
 74
     0
 42
0.0000000001
 43
0.0000000001
 40
0.0
 40
0.0
 40
0.0
 40
0.0
 40
0.3333333333333333
 40
0.3333333333333333
 40
0.3333333333333333
 40
0.3333333333333333
 40
0.6666666666666666
 40
0.6666666666666666
 40
0.6666666666666666
 40
0.6666666666666666
 40
1.0
 40
1.0
 40
1.0
 40
1.0
 10
3.6348800000000003
 20
-1.8750800000000001
 30
0.0
 10
3.5282000000000004
 20
-1.9665200000000003
 30
0.0
 10
3.5840800000000002
 20
-2.1748000000000003
 30
0.0
 10
3.6272600000000002
 20
-2.2916400000000001
 30
0.0
 10
3.6272600000000002
 20
-2.2916400000000001
 30
0.0
 10
3.6272600000000002
 20
-2.2916400000000001
 30
0.0
 10
3.6729800000000004
 20
-1.9157200000000001
 30
0.0
 10
3.6729800000000004
 20
-1.9157200000000001
 30
0.0
 10
3.6729800000000004
 20
-1.9157200000000001
 30
0.0
 10
3.6729800000000004
 20
-1.9157200000000001
 30
0.0
 10
3.6348800000000003
 20
-1.8750800000000001
 30
0.0
 10
3.6348800000000003
 20
-1.8750800000000001
 30
0.0
  0
SPLINE
  5
46
100
AcDbEntity
  8
Ebene 1
 62
     7
100
AcDbSpline
210
0.0
220
0.0
230
1.0
 70
     1
 71
     3
 72
    20
 73
    16
 74
     0
 42
0.0000000001
 43
0.0000000001
 40
0.0
 40
0.0
 40
0.0
 40
0.0
 40
0.25
 40
0.25
 40
0.25
 40
0.25
 40
0.5
 40
0.5
 40
0.5
 40
0.5
 40
0.75
 40
0.75
 40
0.75
 40
0.75
 40
1.0
 40
1.0
 40
1.0
 40
1.0
 10
4.5848400000000007
 20
-2.1900400000000002
 30
0.0
 10
4.41974
 20
-2.3221200000000004
 30
0.0
 10
4.4400600000000008
 20
-2.5837400000000001
 30
0.0
 10
4.38164
 20
-2.7640800000000003
 30
0.0
 10
4.38164
 20
-2.7640800000000003
 30
0.0
 10
4.38164
 20
-2.7640800000000003
 30
0.0
 10
4.3384600000000004
 20
-2.6193000000000004
 30
0.0
 10
4.3384600000000004
 20
-2.6193000000000004
 30
0.0
 10
4.3384600000000004
 20
-2.6193000000000004
 30
0.0
 10
4.3029000000000002
 20
-2.7310600000000003
 30
0.0
 10
4.2444800000000003
 20
-2.9342600000000001
 30
0.0
 10
4.38164
 20
-2.9926800000000005
 30
0.0
 10
4.38164
 20
-2.9926800000000005
 30
0.0
 10
4.4426000000000005
 20
-2.7259800000000003
 30
0.0
 10
4.6127800000000008
 20
-2.4745200000000001
 30
0.0
 10
4.5848400000000007
 20
-2.1900400000000002
 30
0.0
  0
SPLINE
  5
47
100
AcDbEntity
  8
Ebene 1
 62
     7
100
AcDbSpline
210
0.0
220
0.0
230
1.0
 70
     1
 71
     3
 72
    16
 73
    12
 74
     0
 42
0.0000000001
 43
0.0000000001
 40
0.0
 40
0.0
 40
0.0
 40
0.0
 40
0.3333333333333333
 40
0.3333333333333333
 40
0.3333333333333333
 40
0.3333333333333333
 40
0.6666666666666666
 40
0.6666666666666666
 40
0.6666666666666666
 40
0.6666666666666666
 40
1.0
 40
1.0
 40
1.0
 40
1.0
 10
4.1784400000000002
 20
-2.2713200000000002
 30
0.0
 10
4.0819200000000002
 20
-2.3780000000000001
 30
0.0
 10
4.0489000000000006
 20
-2.5761200000000004
 30
0.0
 10
4.0895400000000004
 20
-2.7132800000000001
 30
0.0
 10
4.0895400000000004
 20
-2.7132800000000001
 30
0.0
 10
3.9473000000000003
 20
-2.7844000000000002
 30
0.0
 10
4.0108000000000006
 20
-3.0384000000000002
 30
0.0
 10
4.08446
 20
-3.1527000000000003
 30
0.0
 10
4.08446
 20
-3.1527000000000003
 30
0.0
 10
4.2800400000000005
 20
-2.9164800000000004
 30
0.0
 10
4.2114600000000006
 20
-2.5685000000000002
 30
0.0
 10
4.1784400000000002
 20
-2.2713200000000002
 30
0.0
  0
SPLINE
  5
48
100
AcDbEntity
  8
Ebene 1
 62
     7
100
AcDbSpline
210
0.0
220
0.0
230
1.0
 70
     1
 71
     3
 72
    12
 73
     8
 74
     0
 42
0.0000000001
 43
0.0000000001
 40
0.0
 40
0.0
 40
0.0
 40
0.0
 40
0.5
 40
0.5
 40
0.5
 40
0.5
 40
1.0
 40
1.0
 40
1.0
 40
1.0
 10
3.7136200000000001
 20
-2.4669000000000003
 30
0.0
 10
3.6221800000000002
 20
-2.6370800000000001
 30
0.0
 10
3.6323400000000001
 20
-2.9469600000000002
 30
0.0
 10
3.7695000000000003
 20
-3.1095200000000003
 30
0.0
 10
3.7695000000000003
 20
-3.1095200000000003
 30
0.0
 10
4.0514400000000004
 20
-2.9901400000000002
 30
0.0
 10
3.8406200000000004
 20
-2.6421600000000001
 30
0.0
 10
3.7136200000000001
 20
-2.4669000000000003
 30
0.0
  0
SPLINE
  5
49
100
AcDbEntity
  8
Ebene 1
 62
     7
100
AcDbSpline
210
0.0
220
0.0
230
1.0
 70
     1
 71
     3
 72
    12
 73
     8
 74
     0
 42
0.0000000001
 43
0.0000000001
 40
0.0
 40
0.0
 40
0.0
 40
0.0
 40
0.5
 40
0.5
 40
0.5
 40
0.5
 40
1.0
 40
1.0
 40
1.0
 40
1.0
 10
3.4723200000000003
 20
-2.7082000000000002
 30
0.0
 10
3.3732600000000001
 20
-2.7996400000000001
 30
0.0
 10
3.3783400000000001
 20
-3.0155400000000001
 30
0.0
 10
3.4901000000000004
 20
-3.1069800000000001
 30
0.0
 10
3.4901000000000004
 20
-3.1069800000000001
 30
0.0
 10
3.6018600000000003
 20
-2.9825200000000001
 30
0.0
 10
3.5104200000000003
 20
-2.8428200000000001
 30
0.0
 10
3.4723200000000003
 20
-2.7082000000000002
 30
0.0
  0
SPLINE
  5
4A
100
AcDbEntity
  8
Ebene 1
 62
     7
100
AcDbSpline
210
0.0
220
0.0
230
1.0
 70
     1
 71
     3
 72
    84
 73
    80
 74
     0
 42
0.0000000001
 43
0.0000000001
 40
0.0
 40
0.0
 40
0.0
 40
0.0
 40
0.05
 40
0.05
 40
0.05
 40
0.05
 40
0.1
 40
0.1
 40
0.1
 40
0.1
 40
0.15
 40
0.15
 40
0.15
 40
0.15
 40
0.2
 40
0.2
 40
0.2
 40
0.2
 40
0.25
 40
0.25
 40
0.25
 40
0.25
 40
0.3
 40
0.3
 40
0.3
 40
0.3
 40
0.35
 40
0.35
 40
0.35
 40
0.35
 40
0.4
 40
0.4
 40
0.4
 40
0.4
 40
0.45
 40
0.45
 40
0.45
 40
0.45
 40
0.4999999999999999
 40
0.4999999999999999
 40
0.4999999999999999
 40
0.4999999999999999
 40
0.5499999999999999
 40
0.5499999999999999
 40
0.5499999999999999
 40
0.5499999999999999
 40
0.6
 40
0.6
 40
0.6
 40
0.6
 40
0.65
 40
0.65
 40
0.65
 40
0.65
 40
0.7000000000000001
 40
0.7000000000000001
 40
0.7000000000000001
 40
0.7000000000000001
 40
0.7500000000000001
 40
0.7500000000000001
 40
0.7500000000000001
 40
0.7500000000000001
 40
0.8000000000000002
 40
0.8000000000000002
 40
0.8000000000000002
 40
0.8000000000000002
 40
0.8500000000000002
 40
0.8500000000000002
 40
0.8500000000000002
 40
0.8500000000000002
 40
0.9000000000000002
 40
0.9000000000000002
 40
0.9000000000000002
 40
0.9000000000000002
 40
0.9500000000000003
 40
0.9500000000000003
 40
0.9500000000000003
 40
0.9500000000000003
 40
1.0
 40
1.0
 40
1.0
 40
1.0
 10
2.7255600000000002
 20
-2.9799800000000003
 30
0.0
 10
2.7255600000000002
 20
-2.9799800000000003
 30
0.0
 10
2.7331800000000004
 20
-3.8893000000000004
 30
0.0
 10
2.7331800000000004
 20
-3.8893000000000004
 30
0.0
 10
2.7331800000000004
 20
-3.8893000000000004
 30
0.0
 10
3.1218000000000004
 20
-4.2779199999999999
 30
0.0
 10
3.3961200000000002
 20
-3.5540200000000004
 30
0.0
 10
4.0006400000000006
 20
-3.6861000000000002
 30
0.0
 10
4.0006400000000006
 20
-3.6861000000000002
 30
0.0
 10
4.0006400000000006
 20
-3.6861000000000002
 30
0.0
 10
3.8406200000000004
 20
-3.8054800000000002
 30
0.0
 10
3.8406200000000004
 20
-3.8054800000000002
 30
0.0
 10
3.8406200000000004
 20
-3.8054800000000002
 30
0.0
 10
3.8584000000000005
 20
-3.8486600000000002
 30
0.0
 10
4.0336600000000002
 20
-3.7318200000000004
 30
0.0
 10
4.0692200000000005
 20
-3.8029400000000004
 30
0.0
 10
4.0692200000000005
 20
-3.8029400000000004
 30
0.0
 10
4.0692200000000005
 20
-3.8029400000000004
 30
0.0
 10
4.1835200000000006
 20
-3.7851600000000003
 30
0.0
 10
4.1835200000000006
 20
-3.7851600000000003
 30
0.0
 10
4.1835200000000006
 20
-3.7851600000000003
 30
0.0
 10
4.1860600000000003
 20
-3.6911800000000001
 30
0.0
 10
4.2292400000000008
 20
-3.3432000000000004
 30
0.0
 10
4.0793800000000005
 20
-3.5362400000000003
 30
0.0
 10
4.0793800000000005
 20
-3.5362400000000003
 30
0.0
 10
4.0793800000000005
 20
-3.5362400000000003
 30
0.0
 10
4.0489000000000006
 20
-3.5870400000000005
 30
0.0
 10
4.0489000000000006
 20
-3.5870400000000005
 30
0.0
 10
4.0489000000000006
 20
-3.5870400000000005
 30
0.0
 10
4.0438200000000002
 20
-3.4041600000000001
 30
0.0
 10
4.4807000000000006
 20
-3.2162000000000002
 30
0.0
 10
4.2419400000000005
 20
-2.9901400000000002
 30
0.0
 10
4.2419400000000005
 20
-2.9901400000000002
 30
0.0
 10
4.2343200000000003
 20
-3.1628600000000002
 30
0.0
 10
4.0616000000000003
 20
-3.3508200000000001
 30
0.0
 10
3.9803200000000003
 20
-3.0942800000000004
 30
0.0
 10
3.9803200000000003
 20
-3.0942800000000004
 30
0.0
 10
3.8533200000000005
 20
-3.1679400000000002
 30
0.0
 10
3.8304600000000004
 20
-3.3355800000000002
 30
0.0
 10
3.7745800000000003
 20
-3.4600400000000002
 30
0.0
 10
3.7745800000000003
 20
-3.4600400000000002
 30
0.0
 10
3.7466400000000002
 20
-3.4905200000000001
 30
0.0
 10
3.7263200000000003
 20
-3.5337000000000005
 30
0.0
 10
3.7187000000000001
 20
-3.5616400000000001
 30
0.0
 10
3.7187000000000001
 20
-3.5616400000000001
 30
0.0
 10
3.6907600000000005
 20
-3.3940000000000001
 30
0.0
 10
3.8380800000000002
 20
-3.15524
 30
0.0
 10
3.6120200000000002
 20
-3.0282400000000003
 30
0.0
 10
3.6120200000000002
 20
-3.0282400000000003
 30
0.0
 10
3.4875600000000002
 20
-3.1577800000000003
 30
0.0
 10
3.5205800000000003
 20
-3.5540200000000004
 30
0.0
 10
3.4520000000000004
 20
-3.5616400000000001
 30
0.0
 10
3.4520000000000004
 20
-3.5616400000000001
 30
0.0
 10
3.4520000000000004
 20
-3.5616400000000001
 30
0.0
 10
3.4189800000000004
 20
-3.2771600000000003
 30
0.0
 10
3.4189800000000004
 20
-3.2771600000000003
 30
0.0
 10
3.4189800000000004
 20
-3.2771600000000003
 30
0.0
 10
3.4189800000000004
 20
-3.2771600000000003
 30
0.0
 10
3.3834200000000001
 20
-3.1044400000000003
 30
0.0
 10
3.3834200000000001
 20
-3.1044400000000003
 30
0.0
 10
3.3834200000000001
 20
-3.1044400000000003
 30
0.0
 10
3.3834200000000001
 20
-3.1044400000000003
 30
0.0
 10
3.3199200000000002
 20
-2.9520400000000002
 30
0.0
 10
3.3199200000000002
 20
-2.9520400000000002
 30
0.0
 10
3.3199200000000002
 20
-2.9520400000000002
 30
0.0
 10
3.1980000000000004
 20
-3.1171400000000005
 30
0.0
 10
3.1091000000000002
 20
-3.3559000000000001
 30
0.0
 10
3.1548200000000004
 20
-3.5743400000000003
 30
0.0
 10
3.1548200000000004
 20
-3.5743400000000003
 30
0.0
 10
3.1091000000000002
 20
-3.5540200000000004
 30
0.0
 10
3.1014800000000005
 20
-3.4829000000000003
 30
0.0
 10
3.0913200000000001
 20
-3.4346400000000004
 30
0.0
 10
3.0913200000000001
 20
-3.4346400000000004
 30
0.0
 10
3.0913200000000001
 20
-3.4346400000000004
 30
0.0
 10
3.1014800000000005
 20
-3.2263600000000001
 30
0.0
 10
3.1014800000000005
 20
-3.2263600000000001
 30
0.0
 10
3.1014800000000005
 20
-3.2263600000000001
 30
0.0
 10
3.1446600000000005
 20
-3.0333200000000002
 30
0.0
 10
2.8347800000000003
 20
-3.0130000000000003
 30
0.0
 10
2.7255600000000002
 20
-2.9799800000000003
 30
0.0
  0
ENDSEC
  0
SECTION
  2
OBJECTS
  0
DICTIONARY
  5
19
100
AcDbDictionary
280
     0
281
     1
  3
ACAD_GROUP
350
1A
  3
ACAD_MLINESTYLE
350
1B
  3
ACAD_LAYOUT
350
1E
  3
ACAD_PLOTSETTINGS
350
22
  3
ACAD_PLOTSTYLENAME
350
1F
  3
ACAD_WIPEOUT_VARS
350
23
  0
DICTIONARY
  5
1A
102
{ACAD_REACTORS
330
19
102
}
100
AcDbDictionary
280
     0
281
     1
  0
DICTIONARY
  5
1B
102
{ACAD_REACTORS
330
19
102
}
100
AcDbDictionary
280
     0
281
     1
  3
Standard
350
1C
  0
MLINESTYLE
  5
1C
102
{ACAD_REACTORS
330
1B
102
}
100
AcDbMlineStyle
  2
Standard
 70
     0
  3

 62
     0
 51
90.0
 52
90.0
 71
     2
 49
0.5
 62
   256
  6
BYLAYER
 49
-0.5
 62
   256
  6
BYLAYER
  0
ACDBDICTIONARYWDFLT
  5
1F
102
{ACAD_REACTORS
330
19
102
}
100
AcDbDictionary
281
     1
  3
Normal
350
1D
100
AcDbDictionaryWithDefault
340
1D
  0
ACDBPLACEHOLDER
  5
1D
102
{ACAD_REACTORS
330
1F
102
}
  0
LAYOUT
  5
20
102
{ACAD_REACTORS
330
1E
102
}
100
AcDbPlotSettings
  1

  2

  4

  6

 40
0.0
 41
0.0
 42
0.0
 43
0.0
 44
0.0
 45
0.0
 46
0.0
 47
0.0
 48
0.0
 49
0.0
140
0.0
141
0.0
142
1.0
143
1.0
 70
  1024
 72
     0
 73
     0
 74
     0
  7

 75
     0
147
1.0
148
0.0
149
0.0
100
AcDbLayout
  1
Model
 70
     0
 71
     0
 10
0.0
 20
0.0
 11
0.0
 21
0.0
 12
0.0
 22
0.0
 32
0.0
 14
0.0
 24
0.0
 34
0.0
 15
0.0
 25
0.0
 35
0.0
146
0.0
 13
0.0
 23
0.0
 33
0.0
 16
0.0
 26
0.0
 36
0.0
 17
0.0
 27
0.0
 37
0.0
 76
     0
330
A
331
0
345
0
346
0
  0
LAYOUT
  5
21
102
{ACAD_REACTORS
330
1E
102
}
100
AcDbPlotSettings
  1

  2

  4

  6

 40
0.0
 41
0.0
 42
0.0
 43
0.0
 44
0.0
 45
0.0
 46
0.0
 47
0.0
 48
0.0
 49
0.0
140
0.0
141
0.0
142
1.0
143
1.0
 70
     0
 72
     0
 73
     0
 74
     0
  7

 75
     0
147
1.0
148
0.0
149
0.0
100
AcDbLayout
  1
Layout1
 70
     0
 71
     0
 10
0.0
 20
0.0
 11
0.0
 21
0.0
 12
0.0
 22
0.0
 32
0.0
 14
0.0
 24
0.0
 34
0.0
 15
0.0
 25
0.0
 35
0.0
146
0.0
 13
0.0
 23
0.0
 33
0.0
 16
0.0
 26
0.0
 36
0.0
 17
0.0
 27
0.0
 37
0.0
 76
     0
330
B
331
0
345
0
346
0
  0
DICTIONARY
  5
1E
102
{ACAD_REACTORS
330
19
102
}
100
AcDbDictionary
280
     0
281
     1
  3
Layout1
350
21
  3
Model
350
20
  0
DICTIONARY
  5
22
102
{ACAD_REACTORS
330
19
102
}
100
AcDbDictionary
280
     0
281
     1
  0
WIPEOUTVARIABLES
  5
23
100
AcDbWipeoutVariables
 70
     1
  0
ENDSEC
  0
EOF
