  0
SECTION
  2
HEADER
  9
$ACADVER
  1
AC1015
  9
$ACADMAINTVER
 70
     6
  9
$DWGCODEPAGE
  3
DOS850
  9
$INSBASE
 10
0.0
 20
0.0
 30
0.0
  9
$EXTMIN
 10
-5.55695
 20
-4.71988
 30
1.000000E+20
  9
$EXTMAX
 10
5.56274
 20
4.71367
 30
-1.000000E+20
  9
$LIMMIN
 10
0.0
 20
0.0
  9
$LIMMAX
 10
0.0
 20
0.0
  9
$ORTHOMODE
 70
     0
  9
$REGENMODE
 70
     1
  9
$FILLMODE
 70
     1
  9
$QTEXTMODE
 70
     0
  9
$MIRRTEXT
 70
     1
  9
$LTSCALE
 40
1.0
  9
$ATTMODE
 70
     1
  9
$TEXTSIZE
 40
0.2
  9
$TRACEWID
 40
0.05
  9
$TEXTSTYLE
  7
Standard
  9
$CLAYER
  8
0
  9
$CELTYPE
  6
Continuous
  9
$CECOLOR
 62
   256
  9
$CELTSCALE
 40
1.0
  9
$DISPSILH
 70
     0
  9
$DIMSCALE
 40
1.0
  9
$DIMASZ
 40
0.18
  9
$DIMEXO
 40
0.0625
  9
$DIMDLI
 40
0.38
  9
$DIMRND
 40
0.0
  9
$DIMDLE
 40
0.0
  9
$DIMEXE
 40
0.18
  9
$DIMTP
 40
0.0
  9
$DIMTM
 40
0.0
  9
$DIMTXT
 40
0.18
  9
$DIMCEN
 40
0.09
  9
$DIMTSZ
 40
0.0
  9
$DIMTOL
 70
     0
  9
$DIMLIM
 70
     0
  9
$DIMTIH
 70
     1
  9
$DIMTOH
 70
     1
  9
$DIMSE1
 70
     0
  9
$DIMSE2
 70
     0
  9
$DIMTAD
 70
     0
  9
$DIMZIN
 70
     0
  9
$DIMBLK
  1

  9
$DIMASO
 70
     1
  9
$DIMSHO
 70
     1
  9
$DIMPOST
  1

  9
$DIMAPOST
  1

  9
$DIMALT
 70
     0
  9
$DIMALTD
 70
     2
  9
$DIMALTF
 40
25.4
  9
$DIMLFAC
 40
1.0
  9
$DIMTOFL
 70
     0
  9
$DIMTVP
 40
0.0
  9
$DIMTIX
 70
     0
  9
$DIMSOXD
 70
     0
  9
$DIMSAH
 70
     0
  9
$DIMBLK1
  1

  9
$DIMBLK2
  1

  9
$DIMSTYLE
  2
Standard
  9
$DIMCLRD
 70
     0
  9
$DIMCLRE
 70
     0
  9
$DIMCLRT
 70
     0
  9
$DIMTFAC
 40
1.0
  9
$DIMGAP
 40
0.09
  9
$DIMJUST
 70
     0
  9
$DIMSD1
 70
     0
  9
$DIMSD2
 70
     0
  9
$DIMTOLJ
 70
     1
  9
$DIMTZIN
 70
     0
  9
$DIMALTZ
 70
     0
  9
$DIMALTTZ
 70
     0
  9
$DIMUPT
 70
     0
  9
$DIMDEC
 70
     4
  9
$DIMTDEC
 70
     4
  9
$DIMALTU
 70
     2
  9
$DIMALTTD
 70
     2
  9
$DIMTXSTY
  7
Standard
  9
$DIMAUNIT
 70
     0
  9
$DIMADEC
 70
     0
  9
$DIMALTRND
 40
0.0
  9
$DIMAZIN
 70
     0
  9
$DIMDSEP
 70
     0
  9
$DIMATFIT
 70
     3
  9
$DIMFRAC
 70
     0
  9
$DIMLDRBLK
  1

  9
$DIMLUNIT
 70
     2
  9
$DIMLWD
 70
     0
  9
$DIMLWE
 70
     0
  9
$DIMTMOVE
 70
     0
  9
$LUNITS
 70
     2
  9
$LUPREC
 70
     4
  9
$SKETCHINC
 40
0.1
  9
$FILLETRAD
 40
0.0
  9
$AUNITS
 70
     0
  9
$AUPREC
 70
     0
  9
$MENU
  1
acad
  9
$ELEVATION
 40
0.0
  9
$PELEVATION
 40
0.0
  9
$THICKNESS
 40
0.0
  9
$LIMCHECK
 70
     0
  9
$CHAMFERA
 40
0.0
  9
$CHAMFERB
 40
0.0
  9
$CHAMFERC
 40
0.0
  9
$CHAMFERD
 40
0.0
  9
$SKPOLY
 70
     0
  9
$TDCREATE
 40
0.000000000
  9
$TDUCREATE
 40
0.000000000
  9
$TDUPDATE
 40
0.000000000
  9
$TDUUPDATE
 40
0.000000000
  9
$TDINDWG
 40
0.0000000000
  9
$TDUSRTIMER
 40
0.0000000000
  9
$USRTIMER
 70
     1
  9
$ANGBASE
 50
0.0
  9
$ANGDIR
 70
     0
  9
$PDMODE
 70
     0
  9
$PDSIZE
 40
0.0
  9
$PLINEWID
 40
0.0
  9
$SPLFRAME
 70
     0
  9
$SPLINETYPE
 70
     6
  9
$SPLINESEGS
 70
     8
  9
$HANDSEED
  5
30
  9
$SURFTAB1
 70
     6
  9
$SURFTAB2
 70
     6
  9
$SURFTYPE
 70
     6
  9
$SURFU
 70
     6
  9
$SURFV
 70
     6
  9
$UCSBASE
  2

  9
$UCSNAME
  2

  9
$UCSORG
 10
0.0
 20
0.0
 30
0.0
  9
$UCSXDIR
 10
1.0
 20
0.0
 30
0.0
  9
$UCSYDIR
 10
0.0
 20
1.0
 30
0.0
  9
$UCSORTHOREF
  2

  9
$UCSORTHOVIEW
 70
     0
  9
$UCSORGTOP
 10
0.0
 20
0.0
 30
0.0
  9
$UCSORGBOTTOM
 10
0.0
 20
0.0
 30
0.0
  9
$UCSORGLEFT
 10
0.0
 20
0.0
 30
0.0
  9
$UCSORGRIGHT
 10
0.0
 20
0.0
 30
0.0
  9
$UCSORGFRONT
 10
0.0
 20
0.0
 30
0.0
  9
$UCSORGBACK
 10
0.0
 20
0.0
 30
0.0
  9
$PUCSBASE
  2

  9
$PUCSNAME
  2

  9
$PUCSORG
 10
0.0
 20
0.0
 30
0.0
  9
$PUCSXDIR
 10
1.0
 20
0.0
 30
0.0
  9
$PUCSYDIR
 10
0.0
 20
1.0
 30
0.0
  9
$PUCSORTHOREF
  2

  9
$PUCSORTHOVIEW
 70
     0
  9
$PUCSORGTOP
 10
0.0
 20
0.0
 30
0.0
  9
$PUCSORGBOTTOM
 10
0.0
 20
0.0
 30
0.0
  9
$PUCSORGLEFT
 10
0.0
 20
0.0
 30
0.0
  9
$PUCSORGRIGHT
 10
0.0
 20
0.0
 30
0.0
  9
$PUCSORGFRONT
 10
0.0
 20
0.0
 30
0.0
  9
$PUCSORGBACK
 10
0.0
 20
0.0
 30
0.0
  9
$USERI1
 70
     0
  9
$USERI2
 70
     0
  9
$USERI3
 70
     0
  9
$USERI4
 70
     0
  9
$USERI5
 70
     0
  9
$USERR1
 40
0.0
  9
$USERR2
 40
0.0
  9
$USERR3
 40
0.0
  9
$USERR4
 40
0.0
  9
$USERR5
 40
0.0
  9
$WORLDVIEW
 70
     1
  9
$SHADEDGE
 70
     3
  9
$SHADEDIF
 70
    70
  9
$TILEMODE
 70
     1
  9
$MAXACTVP
 70
    16
  9
$PINSBASE
 10
0.0
 20
0.0
 30
0.0
  9
$PLIMCHECK
 70
     0
  9
$PEXTMIN
 10
1.000000E+20
 20
1.000000E+20
 30
1.000000E+20
  9
$PEXTMAX
 10
-1.000000E+20
 20
-1.000000E+20
 30
-1.000000E+20
  9
$PLIMMIN
 10
0.0
 20
0.0
  9
$PLIMMAX
 10
12.0
 20
9.0
  9
$UNITMODE
 70
     0
  9
$VISRETAIN
 70
     0
  9
$PLINEGEN
 70
     1
  9
$PSLTSCALE
 70
     0
  9
$TREEDEPTH
 70
  3020
  9
$CMLSTYLE
  2
Standard
  9
$CMLJUST
 70
     0
  9
$CMLSCALE
 40
1.0
  9
$PROXYGRAPHICS
 70
     0
  9
$MEASUREMENT
 70
     0
  9
$CELWEIGHT
370
     0
  9
$ENDCAPS
280
     0
  9
$JOINSTYLE
280
     0
  9
$LWDISPLAY
290
     0
  9
$INSUNITS
 70
     5
  9
$HYPERLINKBASE
  1

  9
$XEDIT
290
     1
  9
$CEPSNTYPE
380
     0
  9
$PSTYLEMODE
290
     1
  9
$FINGERPRINTGUID
  2

  9
$VERSIONGUID
  2

  9
$EXTNAMES
290
     1
  9
$PSVPSCALE
 40
0.0
  0
ENDSEC
  0
SECTION
  2
CLASSES
  0
CLASS
  1
LWPOLYLINE
  2
AcDbPolyline
  3
AutoCAD 2000
 90
    32768
280
     0
281
     1
  0
CLASS
  1
IMAGE
  2
AcDbRasterImage
  3
ISM
 90
    32895
280
     0
281
     1
  0
CLASS
  1
OLE2FRAME
  2
AcDbOle2Frame
  3
AutoCAD 2000
 90
    32768
280
     0
281
     1
  0
CLASS
  1
HATCH
  2
AcDbHatch
  3
AutoCAD 2000
 90
    32768
280
     0
281
     1
  0
CLASS
  1
DICTIONARYVAR
  2
AcDbDictionaryVar
  3
AutoCAD 2000
 90
    32768
280
     0
281
     0
  0
CLASS
  1
RASTERVARIABLES
  2
AcDbRasterVariables
  3
ISM
 90
    32768
280
     0
281
     0
  0
CLASS
  1
IMAGEDEF
  2
AcDbRasterImageDef
  3
ISM
 90
    32768
280
     0
281
     0
  0
CLASS
  1
IMAGEDEF_REACTOR
  2
AcDbRasterImageDefReactor
  3
ISM
 90
    32769
280
     0
281
     0
  0
CLASS
  1
IDBUFFER
  2
AcDbIdBuffer
  3
AutoCAD 2000
 90
    32768
280
     0
281
     0
  0
CLASS
  1
SPATIAL_FILTER
  2
AcDbSpatialFilter
  3
AutoCAD 2000
 90
    32768
280
     0
281
     0
  0
CLASS
  1
XRECORD
  2
AcDbXrecord
  3
AutoCAD 2000
 90
    32768
280
     0
281
     0
  0
CLASS
  1
SORTENTSTABLE
  2
AcDbSortentsTable
  3
AutoCAD 2000
 90
    32768
280
     0
281
     0
  0
CLASS
  1
LAYER_INDEX
  2
AcDbLayerIndex
  3
AutoCAD 2000
 90
    32768
280
     0
281
     0
  0
CLASS
  1
SPATIAL_INDEX
  2
AcDbSpatialIndex
  3
AutoCAD 2000
 90
    32768
280
     0
281
     0
  0
CLASS
  1
OBJECT_PTR
  2
CAseDLPNTableRecord
  3
"ASE-LPNTableRecord"
 90
    32769
280
     0
281
     0
  0
CLASS
  1
LAYOUT
  2
AcDbLayout
  3
AutoCAD 2000
 90
        0
280
     0
281
     0
  0
CLASS
  1
PLOTSETTINGS
  2
AcDbPlotSettings
  3
AutoCAD 2000
 90
    32768
280
     0
281
     0
  0
CLASS
  1
ACDBDICTIONARYWDFLT
  2
AcDbDictionaryWithDefault
  3
AutoCAD 2000
 90
        0
280
     0
281
     0
  0
CLASS
  1
ACDBPLACEHOLDER
  2
AcDbPlaceHolder
  3
AutoCAD 2000
 90
        0
280
     0
281
     0
  0
CLASS
  1
VBA_PROJECT
  2
AcDbVbaProject
  3
acadvba
 90
    32768
280
     0
281
     0
  0
CLASS
  1
WIPEOUT
  2
AcDbWipeout
  3
WipeOut|AutoCAD Express Tool|expresstools@autodesk.com
 90
    32895
280
     0
281
     1
  0
CLASS
  1
WIPEOUTVARIABLES
  2
AcDbWipeoutVariables
  3
WipeOut|AutoCAD Express Tool|expresstools@autodesk.com
 90
        0
280
     0
281
     0
  0
CLASS
  1
RTEXT
  2
RText
  3
RText|AutoCAD Express Tool|expresstools@autodesk.com
 90
    32768
280
     0
281
     1
  0
CLASS
  1
ARCALIGNEDTEXT
  2
AcDbArcAlignedText
  3
ATEXT|AutoCAD Express Tool|expresstools@autodesk.com
 90
    32768
280
     0
281
     1
  0
ENDSEC
  0
SECTION
  2
TABLES
  0
TABLE
  2
VPORT
  5
7
100
AcDbSymbolTable
 70
     1
  0
VPORT
  5
15
100
AcDbSymbolTableRecord
100
AcDbViewportTableRecord
  2
*ACTIVE
 70
     0
 10
0.0
 20
0.0
 11
1.0
 21
1.0
 12
6.591288
 22
4.579184
 13
0.0
 23
0.0
 14
1.0
 24
1.0
 15
0.0
 25
0.0
 16
0.0
 26
0.0
 36
1.0
 17
0.0
 27
0.0
 37
0.0
 40
9.158369
 41
0.688564
 42
50.0
 43
0.0
 44
0.0
 50
0.0
 51
0.0
 71
     0
 72
   100
 73
     1
 74
     1
 75
     0
 76
     0
 77
     0
 78
     0
281
     0
 65
     0
110
0.0
120
0.0
130
0.0
111
1.0
121
0.0
131
0.0
112
0.0
122
1.0
132
0.0
345
0
346
0
 79
     0
146
0.0
  0
ENDTAB
  0
TABLE
  2
LTYPE
  5
4
100
AcDbSymbolTable
 70
     3
  0
LTYPE
  5
11
100
AcDbSymbolTableRecord
100
AcDbLinetypeTableRecord
  2
ByBlock
 70
    64
  3

 72
    65
 73
     0
 40
0.0
  0
LTYPE
  5
12
100
AcDbSymbolTableRecord
100
AcDbLinetypeTableRecord
  2
ByLayer
 70
    64
  3

 72
    65
 73
     0
 40
0.0
  0
LTYPE
  5
13
100
AcDbSymbolTableRecord
100
AcDbLinetypeTableRecord
  2
Continuous
 70
    64
  3
Solid line
 72
    65
 73
     0
 40
0.0
  0
ENDTAB
  0
TABLE
  2
LAYER
  5
2
100
AcDbSymbolTable
 70
     2
  0
LAYER
  5
14
100
AcDbSymbolTableRecord
100
AcDbLayerTableRecord
  2
0
 70
     0
 62
     7
  6
Continuous
290
     1
370
    -3
390
1D
  0
LAYER
  5
24
100
AcDbSymbolTableRecord
100
AcDbLayerTableRecord
  2
Ebene 1
 70
     0
 62
     7
  6
Continuous
290
     1
370
    -3
390
1F
  0
ENDTAB
  0
TABLE
  2
STYLE
  5
3
100
AcDbSymbolTable
 70
     1
  0
STYLE
  5
17
100
AcDbSymbolTableRecord
100
AcDbTextStyleTableRecord
  2
Standard
 70
     0
 40
0.0
 41
1.0
 50
0.0
 71
     0
 42
0.0
  3
txt
  4

  0
ENDTAB
  0
TABLE
  2
VIEW
  5
5
100
AcDbSymbolTable
 70
     0
  0
ENDTAB
  0
TABLE
  2
UCS
  5
6
100
AcDbSymbolTable
 70
     0
  0
ENDTAB
  0
TABLE
  2
APPID
  5
8
100
AcDbSymbolTable
 70
     1
  0
APPID
  5
16
100
AcDbSymbolTableRecord
100
AcDbRegAppTableRecord
  2
ACAD
 70
     0
  0
ENDTAB
  0
TABLE
  2
DIMSTYLE
  5
9
100
AcDbSymbolTable
 70
     1
100
AcDbDimStyleTable
 71
     0
  0
DIMSTYLE
105
18
100
AcDbSymbolTableRecord
100
AcDbDimStyleTableRecord
  2
Standard
 70
     0
  3

  4

 40
1.0
 41
0.18
 42
0.0625
 43
0.38
 44
0.18
 45
0.0
 46
0.0
 47
0.0
 48
0.0
 71
     0
 72
     0
 73
     1
 74
     1
 75
     0
 76
     0
 77
     0
 78
     0
 79
     0
140
0.18
141
0.09
142
0.0
143
25.4
144
1.0
145
0.0
146
1.0
147
0.09
148
0.0
170
     0
171
     2
172
     0
173
     0
174
     0
175
     0
176
     0
177
     0
178
     0
179
     0
271
     4
272
     4
273
     2
274
     2
275
     0
276
     0
277
     2
278
    46
279
     0
280
     0
281
     0
282
     0
283
     1
284
     0
285
     0
286
     0
288
     0
340
17
341
0
342
0
343
0
344
0
371
    -2
372
    -2
  0
ENDTAB
  0
TABLE
  2
BLOCK_RECORD
  5
1
100
AcDbSymbolTable
 70
     0
  0
BLOCK_RECORD
  5
A
100
AcDbSymbolTableRecord
100
AcDbBlockTableRecord
  2
*MODEL_SPACE
340
20
  0
BLOCK_RECORD
  5
B
100
AcDbSymbolTableRecord
100
AcDbBlockTableRecord
  2
*PAPER_SPACE
340
21
  0
ENDTAB
  0
ENDSEC
  0
SECTION
  2
BLOCKS
  0
BLOCK
  5
D
100
AcDbEntity
  8
0
100
AcDbBlockBegin
  2
*MODEL_SPACE
 70
     0
 10
0.0
 20
0.0
 30
0.0
  3
*MODEL_SPACE
  1

  0
ENDBLK
  5
E
100
AcDbEntity
  8
0
100
AcDbBlockEnd
  0
BLOCK
  5
F
100
AcDbEntity
 67
     1
  8
0
100
AcDbBlockBegin
  2
*PAPER_SPACE
 70
     0
 10
0.0
 20
0.0
 30
0.0
  3
*PAPER_SPACE
  1

  0
ENDBLK
  5
10
100
AcDbEntity
 67
     1
  8
0
100
AcDbBlockEnd
  0
ENDSEC
  0
SECTION
  2
ENTITIES
  0
SPLINE
  5
25
100
AcDbEntity
  8
Ebene 1
100
AcDbSpline
210
0.0
220
0.0
230
1.0
 70
     1
 71
     3
 72
    80
 73
    76
 74
     0
 42
0.0000000001
 43
0.0000000001
 40
0.0
 40
0.0
 40
0.0
 40
0.0
 40
0.0526315789473684
 40
0.0526315789473684
 40
0.0526315789473684
 40
0.0526315789473684
 40
0.1052631578947368
 40
0.1052631578947368
 40
0.1052631578947368
 40
0.1052631578947368
 40
0.1578947368421053
 40
0.1578947368421053
 40
0.1578947368421053
 40
0.1578947368421053
 40
0.2105263157894737
 40
0.2105263157894737
 40
0.2105263157894737
 40
0.2105263157894737
 40
0.2631578947368421
 40
0.2631578947368421
 40
0.2631578947368421
 40
0.2631578947368421
 40
0.3157894736842105
 40
0.3157894736842105
 40
0.3157894736842105
 40
0.3157894736842105
 40
0.3684210526315789
 40
0.3684210526315789
 40
0.3684210526315789
 40
0.3684210526315789
 40
0.4210526315789474
 40
0.4210526315789474
 40
0.4210526315789474
 40
0.4210526315789474
 40
0.4736842105263158
 40
0.4736842105263158
 40
0.4736842105263158
 40
0.4736842105263158
 40
0.5263157894736842
 40
0.5263157894736842
 40
0.5263157894736842
 40
0.5263157894736842
 40
0.5789473684210527
 40
0.5789473684210527
 40
0.5789473684210527
 40
0.5789473684210527
 40
0.631578947368421
 40
0.631578947368421
 40
0.631578947368421
 40
0.631578947368421
 40
0.6842105263157894
 40
0.6842105263157894
 40
0.6842105263157894
 40
0.6842105263157894
 40
0.7368421052631577
 40
0.7368421052631577
 40
0.7368421052631577
 40
0.7368421052631577
 40
0.7894736842105261
 40
0.7894736842105261
 40
0.7894736842105261
 40
0.7894736842105261
 40
0.8421052631578945
 40
0.8421052631578945
 40
0.8421052631578945
 40
0.8421052631578945
 40
0.8947368421052628
 40
0.8947368421052628
 40
0.8947368421052628
 40
0.8947368421052628
 40
0.9473684210526312
 40
0.9473684210526312
 40
0.9473684210526312
 40
0.9473684210526312
 40
1.0
 40
1.0
 40
1.0
 40
1.0
 10
4.1657400000000004
 20
4.7136700000000005
 30
0.0
 10
4.5416600000000003
 20
4.6984300000000001
 30
0.0
 10
4.9988600000000005
 20
4.6958900000000003
 30
0.0
 10
5.2325400000000002
 20
4.3783900000000004
 30
0.0
 10
5.2325400000000002
 20
4.3783900000000004
 30
0.0
 10
3.2056200000000001
 20
3.4919300000000004
 30
0.0
 10
2.6290400000000003
 20
0.8985900000000001
 30
0.0
 10
0.6859400000000001
 20
-0.07676
 30
0.0
 10
0.6859400000000001
 20
-0.07676
 30
0.0
 10
0.51576
 20
-0.219
 30
0.0
 10
0.36082
 20
-0.346
 30
0.0
 10
0.22112
 20
-0.5187200000000001
 30
0.0
 10
0.22112
 20
-0.5187200000000001
 30
0.0
 10
0.63768
 20
-2.5507200000000001
 30
0.0
 10
2.7484200000000003
 20
-3.5565600000000002
 30
0.0
 10
4.4984800000000007
 20
-4.1610800000000001
 30
0.0
 10
4.4984800000000007
 20
-4.1610800000000001
 30
0.0
 10
4.8667800000000003
 20
-4.2245800000000004
 30
0.0
 10
5.2731800000000009
 20
-4.0163000000000002
 30
0.0
 10
5.5627400000000007
 20
-4.0442400000000003
 30
0.0
 10
5.5627400000000007
 20
-4.0442400000000003
 30
0.0
 10
5.3087400000000002
 20
-4.3287200000000006
 30
0.0
 10
4.9328200000000004
 20
-4.4735000000000005
 30
0.0
 10
4.5950000000000006
 20
-4.6233600000000008
 30
0.0
 10
4.5950000000000006
 20
-4.6233600000000008
 30
0.0
 10
4.2825800000000003
 20
-4.6894
 30
0.0
 10
3.9549200000000004
 20
-4.7148000000000003
 30
0.0
 10
3.6247200000000004
 20
-4.7198800000000007
 30
0.0
 10
3.6247200000000004
 20
-4.7198800000000007
 30
0.0
 10
1.9254600000000002
 20
-4.0874200000000007
 30
0.0
 10
-0.5586500000000001
 20
-5.1618400000000007
 30
0.0
 10
-1.67371
 20
-3.3076400000000001
 30
0.0
 10
-1.67371
 20
-3.3076400000000001
 30
0.0
 10
-1.8108700000000002
 20
-3.1908000000000003
 30
0.0
 10
-1.9607300000000001
 20
-3.0892000000000004
 30
0.0
 10
-2.1309100000000001
 20
-3.0485600000000002
 30
0.0
 10
-2.1309100000000001
 20
-3.0485600000000002
 30
0.0
 10
-2.56779
 20
-4.2245800000000004
 30
0.0
 10
-4.4956500000000004
 20
-3.7623000000000002
 30
0.0
 10
-5.4202100000000009
 20
-3.3457400000000002
 30
0.0
 10
-5.4202100000000009
 20
-3.3457400000000002
 30
0.0
 10
-5.9739300000000002
 20
-2.2586200000000001
 30
0.0
 10
-4.70139
 20
-1.5804400000000001
 30
0.0
 10
-4.3153100000000002
 20
-0.7041400000000001
 30
0.0
 10
-4.3153100000000002
 20
-0.7041400000000001
 30
0.0
 10
-4.0790900000000008
 20
0.2635900000000001
 30
0.0
 10
-5.1890700000000001
 20
-0.2698
 30
0.0
 10
-5.3617900000000001
 20
0.38551
 30
0.0
 10
-5.3617900000000001
 20
0.38551
 30
0.0
 10
-5.3694100000000002
 20
0.8985900000000001
 30
0.0
 10
-5.1408100000000001
 20
1.36341
 30
0.0
 10
-4.7852100000000002
 20
1.7342500000000001
 30
0.0
 10
-4.7852100000000002
 20
1.7342500000000001
 30
0.0
 10
-4.3686500000000006
 20
2.2397100000000001
 30
0.0
 10
-3.7209500000000002
 20
1.9120500000000002
 30
0.0
 10
-3.2764500000000001
 20
2.2778100000000001
 30
0.0
 10
-3.2764500000000001
 20
2.2778100000000001
 30
0.0
 10
-2.6439900000000001
 20
2.01111
 30
0.0
 10
-2.0801100000000003
 20
2.1482700000000001
 30
0.0
 10
-1.4959100000000001
 20
2.4860900000000004
 30
0.0
 10
-1.4959100000000001
 20
2.4860900000000004
 30
0.0
 10
-1.1834900000000002
 20
2.3540100000000002
 30
0.0
 10
-1.0488700000000002
 20
2.5978500000000002
 30
0.0
 10
-0.7466100000000001
 20
2.6613500000000001
 30
0.0
 10
-0.7466100000000001
 20
2.6613500000000001
 30
0.0
 10
-0.5992900000000001
 20
2.6689700000000003
 30
0.0
 10
-0.45451
 20
2.6486500000000004
 30
0.0
 10
-0.33513
 20
2.5648300000000002
 30
0.0
 10
-0.33513
 20
2.5648300000000002
 30
0.0
 10
-0.15479
 20
2.71469
 30
0.0
 10
0.05094
 20
2.8239100000000001
 30
0.0
 10
0.25668
 20
2.9280500000000003
 30
0.0
 10
0.25668
 20
2.9280500000000003
 30
0.0
 10
1.7375
 20
3.0906100000000003
 30
0.0
 10
2.6138000000000003
 20
4.7619300000000004
 30
0.0
 10
4.1657400000000004
 20
4.7136700000000005
 30
0.0
  0
SPLINE
  5
26
100
AcDbEntity
  8
Ebene 1
100
AcDbSpline
210
0.0
220
0.0
230
1.0
 70
     1
 71
     3
 72
    16
 73
    12
 74
     0
 42
0.0000000001
 43
0.0000000001
 40
0.0
 40
0.0
 40
0.0
 40
0.0
 40
0.3333333333333333
 40
0.3333333333333333
 40
0.3333333333333333
 40
0.3333333333333333
 40
0.6666666666666666
 40
0.6666666666666666
 40
0.6666666666666666
 40
0.6666666666666666
 40
1.0
 40
1.0
 40
1.0
 40
1.0
 10
-0.44435
 20
-1.0902200000000002
 30
0.0
 10
-0.34783
 20
-1.4280400000000002
 30
0.0
 10
-0.25639
 20
-1.7785600000000001
 30
0.0
 10
-0.03541
 20
-2.05796
 30
0.0
 10
-0.03541
 20
-2.05796
 30
0.0
 10
0.01284
 20
-1.6998200000000001
 30
0.0
 10
-0.22845
 20
-1.4001000000000001
 30
0.0
 10
-0.40117
 20
-1.0953000000000002
 30
0.0
 10
-0.40117
 20
-1.0953000000000002
 30
0.0
 10
-0.40117
 20
-1.0953000000000002
 30
0.0
 10
-0.44435
 20
-1.0902200000000002
 30
0.0
 10
-0.44435
 20
-1.0902200000000002
 30
0.0
  0
SPLINE
  5
27
100
AcDbEntity
  8
Ebene 1
100
AcDbSpline
210
0.0
220
0.0
230
1.0
 70
     1
 71
     3
 72
    20
 73
    16
 74
     0
 42
0.0000000001
 43
0.0000000001
 40
0.0
 40
0.0
 40
0.0
 40
0.0
 40
0.25
 40
0.25
 40
0.25
 40
0.25
 40
0.5
 40
0.5
 40
0.5
 40
0.5
 40
0.75
 40
0.75
 40
0.75
 40
0.75
 40
1.0
 40
1.0
 40
1.0
 40
1.0
 10
-1.6076700000000002
 20
-1.9512800000000001
 30
0.0
 10
-1.6076700000000002
 20
-1.9512800000000001
 30
0.0
 10
-1.6660900000000001
 20
-2.02494
 30
0.0
 10
-1.6660900000000001
 20
-2.02494
 30
0.0
 10
-1.6660900000000001
 20
-2.02494
 30
0.0
 10
-1.3485900000000002
 20
-2.2891000000000004
 30
0.0
 10
-1.2419100000000001
 20
-2.7183600000000001
 30
0.0
 10
-0.9218700000000001
 20
-2.9850600000000003
 30
0.0
 10
-0.9218700000000001
 20
-2.9850600000000003
 30
0.0
 10
-0.9218700000000001
 20
-2.9850600000000003
 30
0.0
 10
-0.7669300000000001
 20
-2.9317200000000003
 30
0.0
 10
-0.7669300000000001
 20
-2.9317200000000003
 30
0.0
 10
-0.7669300000000001
 20
-2.9317200000000003
 30
0.0
 10
-0.8990100000000001
 20
-2.5354800000000002
 30
0.0
 10
-1.2292100000000001
 20
-2.1544800000000004
 30
0.0
 10
-1.6076700000000002
 20
-1.9512800000000001
 30
0.0
  0
SPLINE
  5
28
100
AcDbEntity
  8
Ebene 1
 62
     7
100
AcDbSpline
210
0.0
220
0.0
230
1.0
 70
     1
 71
     3
 72
   260
 73
   256
 74
     0
 42
0.0000000001
 43
0.0000000001
 40
0.0
 40
0.0
 40
0.0
 40
0.0
 40
0.015625
 40
0.015625
 40
0.015625
 40
0.015625
 40
0.03125
 40
0.03125
 40
0.03125
 40
0.03125
 40
0.046875
 40
0.046875
 40
0.046875
 40
0.046875
 40
0.0625
 40
0.0625
 40
0.0625
 40
0.0625
 40
0.078125
 40
0.078125
 40
0.078125
 40
0.078125
 40
0.09375
 40
0.09375
 40
0.09375
 40
0.09375
 40
0.109375
 40
0.109375
 40
0.109375
 40
0.109375
 40
0.125
 40
0.125
 40
0.125
 40
0.125
 40
0.140625
 40
0.140625
 40
0.140625
 40
0.140625
 40
0.15625
 40
0.15625
 40
0.15625
 40
0.15625
 40
0.171875
 40
0.171875
 40
0.171875
 40
0.171875
 40
0.1875
 40
0.1875
 40
0.1875
 40
0.1875
 40
0.203125
 40
0.203125
 40
0.203125
 40
0.203125
 40
0.21875
 40
0.21875
 40
0.21875
 40
0.21875
 40
0.234375
 40
0.234375
 40
0.234375
 40
0.234375
 40
0.25
 40
0.25
 40
0.25
 40
0.25
 40
0.265625
 40
0.265625
 40
0.265625
 40
0.265625
 40
0.28125
 40
0.28125
 40
0.28125
 40
0.28125
 40
0.296875
 40
0.296875
 40
0.296875
 40
0.296875
 40
0.3125
 40
0.3125
 40
0.3125
 40
0.3125
 40
0.328125
 40
0.328125
 40
0.328125
 40
0.328125
 40
0.34375
 40
0.34375
 40
0.34375
 40
0.34375
 40
0.359375
 40
0.359375
 40
0.359375
 40
0.359375
 40
0.375
 40
0.375
 40
0.375
 40
0.375
 40
0.390625
 40
0.390625
 40
0.390625
 40
0.390625
 40
0.40625
 40
0.40625
 40
0.40625
 40
0.40625
 40
0.421875
 40
0.421875
 40
0.421875
 40
0.421875
 40
0.4375
 40
0.4375
 40
0.4375
 40
0.4375
 40
0.453125
 40
0.453125
 40
0.453125
 40
0.453125
 40
0.46875
 40
0.46875
 40
0.46875
 40
0.46875
 40
0.484375
 40
0.484375
 40
0.484375
 40
0.484375
 40
0.5
 40
0.5
 40
0.5
 40
0.5
 40
0.515625
 40
0.515625
 40
0.515625
 40
0.515625
 40
0.53125
 40
0.53125
 40
0.53125
 40
0.53125
 40
0.546875
 40
0.546875
 40
0.546875
 40
0.546875
 40
0.5625
 40
0.5625
 40
0.5625
 40
0.5625
 40
0.578125
 40
0.578125
 40
0.578125
 40
0.578125
 40
0.59375
 40
0.59375
 40
0.59375
 40
0.59375
 40
0.609375
 40
0.609375
 40
0.609375
 40
0.609375
 40
0.625
 40
0.625
 40
0.625
 40
0.625
 40
0.640625
 40
0.640625
 40
0.640625
 40
0.640625
 40
0.65625
 40
0.65625
 40
0.65625
 40
0.65625
 40
0.671875
 40
0.671875
 40
0.671875
 40
0.671875
 40
0.6875
 40
0.6875
 40
0.6875
 40
0.6875
 40
0.703125
 40
0.703125
 40
0.703125
 40
0.703125
 40
0.71875
 40
0.71875
 40
0.71875
 40
0.71875
 40
0.734375
 40
0.734375
 40
0.734375
 40
0.734375
 40
0.75
 40
0.75
 40
0.75
 40
0.75
 40
0.765625
 40
0.765625
 40
0.765625
 40
0.765625
 40
0.78125
 40
0.78125
 40
0.78125
 40
0.78125
 40
0.796875
 40
0.796875
 40
0.796875
 40
0.796875
 40
0.8125
 40
0.8125
 40
0.8125
 40
0.8125
 40
0.828125
 40
0.828125
 40
0.828125
 40
0.828125
 40
0.84375
 40
0.84375
 40
0.84375
 40
0.84375
 40
0.859375
 40
0.859375
 40
0.859375
 40
0.859375
 40
0.875
 40
0.875
 40
0.875
 40
0.875
 40
0.890625
 40
0.890625
 40
0.890625
 40
0.890625
 40
0.90625
 40
0.90625
 40
0.90625
 40
0.90625
 40
0.921875
 40
0.921875
 40
0.921875
 40
0.921875
 40
0.9375
 40
0.9375
 40
0.9375
 40
0.9375
 40
0.953125
 40
0.953125
 40
0.953125
 40
0.953125
 40
0.96875
 40
0.96875
 40
0.96875
 40
0.96875
 40
0.984375
 40
0.984375
 40
0.984375
 40
0.984375
 40
1.0
 40
1.0
 40
1.0
 40
1.0
 10
2.2404200000000003
 20
3.4081100000000002
 30
0.0
 10
2.2404200000000003
 20
3.4081100000000002
 30
0.0
 10
2.2251800000000004
 20
3.3928700000000003
 30
0.0
 10
2.2251800000000004
 20
3.3928700000000003
 30
0.0
 10
2.2251800000000004
 20
3.3928700000000003
 30
0.0
 10
2.2251800000000004
 20
3.3928700000000003
 30
0.0
 10
2.2074000000000003
 20
3.3776300000000004
 30
0.0
 10
2.2074000000000003
 20
3.3776300000000004
 30
0.0
 10
2.2074000000000003
 20
3.3776300000000004
 30
0.0
 10
2.1794600000000002
 20
3.3776300000000004
 30
0.0
 10
2.20994
 20
3.3471500000000001
 30
0.0
 10
2.2074000000000003
 20
3.3776300000000004
 30
0.0
 10
2.2074000000000003
 20
3.3776300000000004
 30
0.0
 10
2.2074000000000003
 20
3.3776300000000004
 30
0.0
 10
2.2251800000000004
 20
3.3928700000000003
 30
0.0
 10
2.2251800000000004
 20
3.3928700000000003
 30
0.0
 10
2.2251800000000004
 20
3.3928700000000003
 30
0.0
 10
2.2251800000000004
 20
3.3928700000000003
 30
0.0
 10
2.2404200000000003
 20
3.4081100000000002
 30
0.0
 10
2.2404200000000003
 20
3.4081100000000002
 30
0.0
 10
2.2404200000000003
 20
3.4081100000000002
 30
0.0
 10
2.79922
 20
3.7662500000000003
 30
0.0
 10
3.4316800000000001
 20
4.0710500000000005
 30
0.0
 10
4.1454200000000005
 20
4.0583499999999999
 30
0.0
 10
4.1454200000000005
 20
4.0583499999999999
 30
0.0
 10
3.9168200000000004
 20
3.8653100000000005
 30
0.0
 10
3.7415600000000002
 20
3.5249500000000005
 30
0.0
 10
3.4139000000000004
 20
3.5097100000000001
 30
0.0
 10
3.4139000000000004
 20
3.5097100000000001
 30
0.0
 10
3.2081600000000003
 20
3.4462100000000002
 30
0.0
 10
2.9617800000000001
 20
3.3801700000000001
 30
0.0
 10
2.8144600000000004
 20
3.2328500000000004
 30
0.0
 10
2.8144600000000004
 20
3.2328500000000004
 30
0.0
 10
2.8144600000000004
 20
3.2328500000000004
 30
0.0
 10
3.1649800000000003
 20
3.3115900000000003
 30
0.0
 10
3.1649800000000003
 20
3.3115900000000003
 30
0.0
 10
3.1649800000000003
 20
3.3115900000000003
 30
0.0
 10
3.2767400000000002
 20
3.3242900000000004
 30
0.0
 10
3.4062800000000002
 20
3.3928700000000003
 30
0.0
 10
3.5129600000000001
 20
3.3446100000000003
 30
0.0
 10
3.5129600000000001
 20
3.3446100000000003
 30
0.0
 10
2.5706200000000003
 20
2.21685
 30
0.0
 10
2.0702400000000001
 20
0.47695
 30
0.0
 10
0.51068
 20
0.06547
 30
0.0
 10
0.51068
 20
0.06547
 30
0.0
 10
0.32018
 20
-0.0158
 30
0.0
 10
0.14746
 20
-0.14534
 30
0.0
 10
-0.01001
 20
-0.25964
 30
0.0
 10
-0.01001
 20
-0.25964
 30
0.0
 10
0.11952
 20
0.29915
 30
0.0
 10
0.5386200000000001
 20
0.68015
 30
0.0
 10
1.01614
 20
0.9265300000000001
 30
0.0
 10
1.01614
 20
0.9265300000000001
 30
0.0
 10
1.0263
 20
0.9265300000000001
 30
0.0
 10
1.0517000000000001
 20
0.9239900000000001
 30
0.0
 10
1.0466200000000001
 20
0.9417700000000001
 30
0.0
 10
1.0466200000000001
 20
0.9417700000000001
 30
0.0
 10
1.0974200000000001
 20
0.9316100000000001
 30
0.0
 10
1.05932
 20
0.9824100000000001
 30
0.0
 10
1.0466200000000001
 20
0.9417700000000001
 30
0.0
 10
1.0466200000000001
 20
0.9417700000000001
 30
0.0
 10
1.0364600000000002
 20
0.9417700000000001
 30
0.0
 10
1.0136000000000001
 20
0.9443100000000001
 30
0.0
 10
1.01614
 20
0.9265300000000001
 30
0.0
 10
1.01614
 20
0.9265300000000001
 30
0.0
 10
0.5665600000000001
 20
0.6776100000000001
 30
0.0
 10
0.01538
 20
0.60141
 30
0.0
 10
-0.3656100000000001
 20
0.25851
 30
0.0
 10
-0.3656100000000001
 20
0.25851
 30
0.0
 10
-0.20305
 20
0.30169
 30
0.0
 10
-0.01255
 20
0.45663
 30
0.0
 10
0.18556
 20
0.4617100000000001
 30
0.0
 10
0.18556
 20
0.4617100000000001
 30
0.0
 10
-0.06589
 20
-0.16566
 30
0.0
 10
-0.55103
 20
-0.6660400000000001
 30
0.0
 10
-0.84567
 20
-1.2781800000000001
 30
0.0
 10
-0.84567
 20
-1.2781800000000001
 30
0.0
 10
-0.9066300000000001
 20
-1.1943600000000001
 30
0.0
 10
-0.8558300000000001
 20
-0.9835400000000001
 30
0.0
 10
-0.9650500000000001
 20
-0.95052
 30
0.0
 10
-0.9650500000000001
 20
-0.95052
 30
0.0
 10
-0.63485
 20
-2.06304
 30
0.0
 10
-1.8845300000000003
 20
-1.3391400000000002
 30
0.0
 10
-2.27061
 20
-1.8903200000000002
 30
0.0
 10
-2.27061
 20
-1.8903200000000002
 30
0.0
 10
-2.2934700000000001
 20
-2.36022
 30
0.0
 10
-2.22743
 20
-2.9139400000000002
 30
0.0
 10
-2.4534900000000004
 20
-3.3609800000000001
 30
0.0
 10
-2.4534900000000004
 20
-3.3609800000000001
 30
0.0
 10
-2.7684500000000001
 20
-3.7902400000000003
 30
0.0
 10
-3.3932900000000004
 20
-3.6378400000000002
 30
0.0
 10
-3.8123900000000002
 20
-3.5133800000000002
 30
0.0
 10
-3.8123900000000002
 20
-3.5133800000000002
 30
0.0
 10
-3.8123900000000002
 20
-3.5133800000000002
 30
0.0
 10
-3.4847300000000003
 20
-3.4930600000000003
 30
0.0
 10
-3.4847300000000003
 20
-3.4930600000000003
 30
0.0
 10
-3.4847300000000003
 20
-3.4930600000000003
 30
0.0
 10
-3.4059900000000001
 20
-3.4625800000000004
 30
0.0
 10
-3.2104100000000004
 20
-3.4981400000000002
 30
0.0
 10
-3.3094700000000001
 20
-3.3813000000000004
 30
0.0
 10
-3.3094700000000001
 20
-3.3813000000000004
 30
0.0
 10
-3.8352500000000003
 20
-3.4422600000000001
 30
0.0
 10
-4.3991300000000004
 20
-3.5362400000000003
 30
0.0
 10
-4.91221
 20
-3.4092400000000005
 30
0.0
 10
-4.91221
 20
-3.4092400000000005
 30
0.0
 10
-5.2195500000000008
 20
-3.1679400000000002
 30
0.0
 10
-5.2703500000000005
 20
-2.8326600000000002
 30
0.0
 10
-5.2347900000000003
 20
-2.4592800000000001
 30
0.0
 10
-5.2347900000000003
 20
-2.4592800000000001
 30
0.0
 10
-5.0239700000000003
 20
-1.9131800000000001
 30
0.0
 10
-4.6251900000000008
 20
-1.4382000000000001
 30
0.0
 10
-4.1476700000000006
 20
-1.0953000000000002
 30
0.0
 10
-4.1476700000000006
 20
-1.0953000000000002
 30
0.0
 10
-4.0054300000000005
 20
-1.4305800000000002
 30
0.0
 10
-4.0714700000000006
 20
-2.3830800000000001
 30
0.0
 10
-3.2916900000000004
 20
-2.1417800000000002
 30
0.0
 10
-3.2916900000000004
 20
-2.1417800000000002
 30
0.0
 10
-3.0630900000000003
 20
-2.09606
 30
0.0
 10
-2.7024100000000004
 20
-2.0274800000000002
 30
0.0
 10
-3.1494500000000003
 20
-2.0300200000000004
 30
0.0
 10
-3.1494500000000003
 20
-2.0300200000000004
 30
0.0
 10
-4.4880300000000002
 20
-2.2332200000000002
 30
0.0
 10
-3.5837900000000005
 20
-0.3968
 30
0.0
 10
-4.4651700000000005
 20
0.10357
 30
0.0
 10
-4.4651700000000005
 20
0.10357
 30
0.0
 10
-4.5642300000000002
 20
0.16707
 30
0.0
 10
-4.4245300000000007
 20
0.21787
 30
0.0
 10
-4.4550100000000006
 20
0.25851
 30
0.0
 10
-4.4550100000000006
 20
0.25851
 30
0.0
 10
-4.9249100000000006
 20
0.02229
 30
0.0
 10
-5.2297100000000007
 20
0.09849
 30
0.0
 10
-5.2195500000000008
 20
0.68269
 30
0.0
 10
-5.2195500000000008
 20
0.68269
 30
0.0
 10
-5.1636700000000006
 20
1.5970900000000001
 30
0.0
 10
-3.7539700000000003
 20
2.5394300000000003
 30
0.0
 10
-3.2789900000000003
 20
1.3380100000000001
 30
0.0
 10
-3.2789900000000003
 20
1.3380100000000001
 30
0.0
 10
-2.8979900000000001
 20
1.2186300000000001
 30
0.0
 10
-2.9691100000000001
 20
1.2465700000000002
 30
0.0
 10
-3.2256500000000004
 20
1.4396100000000001
 30
0.0
 10
-3.2256500000000004
 20
1.4396100000000001
 30
0.0
 10
-3.4720300000000002
 20
1.7799700000000001
 30
0.0
 10
-3.2485100000000005
 20
1.6275700000000002
 30
0.0
 10
-2.9767300000000003
 20
1.7063100000000002
 30
0.0
 10
-2.9767300000000003
 20
1.7063100000000002
 30
0.0
 10
-2.8446500000000001
 20
1.7240900000000001
 30
0.0
 10
-2.7176500000000003
 20
1.7571100000000002
 30
0.0
 10
-2.5931900000000003
 20
1.8028300000000002
 30
0.0
 10
-2.5931900000000003
 20
1.8028300000000002
 30
0.0
 10
-2.1309100000000001
 20
2.0161900000000004
 30
0.0
 10
-2.9970500000000002
 20
1.3380100000000001
 30
0.0
 10
-2.6135100000000002
 20
1.5361300000000002
 30
0.0
 10
-2.6135100000000002
 20
1.5361300000000002
 30
0.0
 10
-2.6135100000000002
 20
1.5361300000000002
 30
0.0
 10
-2.5093700000000001
 20
1.6224900000000002
 30
0.0
 10
-2.5093700000000001
 20
1.6224900000000002
 30
0.0
 10
-2.5093700000000001
 20
1.6224900000000002
 30
0.0
 10
-2.1207500000000001
 20
2.1660500000000003
 30
0.0
 10
-1.2012700000000001
 20
2.7908900000000001
 30
0.0
 10
-0.82789
 20
1.9603100000000002
 30
0.0
 10
-0.82789
 20
1.9603100000000002
 30
0.0
 10
-1.08697
 20
1.15259
 30
0.0
 10
-1.9099300000000001
 20
0.8376300000000001
 30
0.0
 10
-2.6998700000000002
 20
1.02559
 30
0.0
 10
-2.6998700000000002
 20
1.02559
 30
0.0
 10
-3.0834100000000002
 20
1.1170300000000002
 30
0.0
 10
-3.4593300000000005
 20
0.9646300000000001
 30
0.0
 10
-3.7895300000000005
 20
0.78937
 30
0.0
 10
-3.7895300000000005
 20
0.78937
 30
0.0
 10
-4.10703
 20
0.6064900000000001
 30
0.0
 10
-4.5108900000000007
 20
0.27629
 30
0.0
 10
-4.0765500000000001
 20
-0.02088
 30
0.0
 10
-4.0765500000000001
 20
-0.02088
 30
0.0
 10
-4.3508700000000005
 20
0.5709300000000001
 30
0.0
 10
-3.4136100000000003
 20
0.9468500000000001
 30
0.0
 10
-2.8979900000000001
 20
0.8757300000000001
 30
0.0
 10
-2.8979900000000001
 20
0.8757300000000001
 30
0.0
 10
-3.0046700000000004
 20
0.6674500000000001
 30
0.0
 10
-3.3577300000000001
 20
0.19247
 30
0.0
 10
-3.2612100000000002
 20
0.11373
 30
0.0
 10
-3.2612100000000002
 20
0.11373
 30
0.0
 10
-3.2713700000000001
 20
0.08071
 30
0.0
 10
-3.2358100000000003
 20
0.08071
 30
0.0
 10
-3.2459700000000002
 20
0.11373
 30
0.0
 10
-3.2459700000000002
 20
0.11373
 30
0.0
 10
-3.0707100000000001
 20
0.3804300000000001
 30
0.0
 10
-2.9157700000000002
 20
0.91129
 30
0.0
 10
-2.5017500000000004
 20
0.82747
 30
0.0
 10
-2.5017500000000004
 20
0.82747
 30
0.0
 10
-2.8751300000000004
 20
0.47695
 30
0.0
 10
-3.1951700000000001
 20
-0.1936
 30
0.0
 10
-2.8471900000000003
 20
-0.63048
 30
0.0
 10
-2.8471900000000003
 20
-0.63048
 30
0.0
 10
-2.7989300000000004
 20
-0.6025400000000001
 30
0.0
 10
-2.8421100000000004
 20
-0.53142
 30
0.0
 10
-2.7582900000000001
 20
-0.5136400000000001
 30
0.0
 10
-2.7582900000000001
 20
-0.5136400000000001
 30
0.0
 10
-2.05471
 20
-0.33584
 30
0.0
 10
-1.4755900000000002
 20
0.24327
 30
0.0
 10
-1.3638300000000001
 20
0.9874900000000001
 30
0.0
 10
-1.3638300000000001
 20
0.9874900000000001
 30
0.0
 10
-1.3104900000000002
 20
1.0433700000000001
 30
0.0
 10
-1.3130300000000001
 20
0.9290700000000001
 30
0.0
 10
-1.3054100000000002
 20
0.89351
 30
0.0
 10
-1.3054100000000002
 20
0.89351
 30
0.0
 10
-1.2393700000000001
 20
0.5201300000000001
 30
0.0
 10
-1.3409700000000002
 20
0.12389
 30
0.0
 10
-1.4908300000000001
 20
-0.21138
 30
0.0
 10
-1.4908300000000001
 20
-0.21138
 30
0.0
 10
-1.1936500000000001
 20
0.11119
 30
0.0
 10
-1.13015
 20
0.65729
 30
0.0
 10
-1.1606300000000001
 20
1.1322700000000001
 30
0.0
 10
-1.1606300000000001
 20
1.1322700000000001
 30
0.0
 10
-1.03363
 20
1.44723
 30
0.0
 10
-0.7034300000000001
 20
1.6758300000000002
 30
0.0
 10
-0.74407
 20
2.0517500000000002
 30
0.0
 10
-0.74407
 20
2.0517500000000002
 30
0.0
 10
-0.69835
 20
2.1025500000000004
 30
0.0
 10
-0.6475500000000001
 20
2.1406500000000004
 30
0.0
 10
-0.58913
 20
2.16859
 30
0.0
 10
-0.58913
 20
2.16859
 30
0.0
 10
-0.6856500000000001
 20
1.6682100000000002
 30
0.0
 10
-0.9853700000000001
 20
1.1856100000000001
 30
0.0
 10
-0.8431300000000001
 20
0.7182500000000001
 30
0.0
 10
-0.8431300000000001
 20
0.7182500000000001
 30
0.0
 10
-0.6881900000000001
 20
1.0586100000000001
 30
0.0
 10
-0.8558300000000001
 20
1.52851
 30
0.0
 10
-0.43165
 20
1.7596500000000002
 30
0.0
 10
-0.43165
 20
1.7596500000000002
 30
0.0
 10
-0.43165
 20
1.8612500000000001
 30
0.0
 10
-0.56881
 20
1.7418700000000003
 30
0.0
 10
-0.61707
 20
1.7418700000000003
 30
0.0
 10
-0.61707
 20
1.7418700000000003
 30
0.0
 10
-0.53325
 20
2.3540100000000002
 30
0.0
 10
-0.09129
 20
2.6969100000000004
 30
0.0
 10
0.44464
 20
2.8696300000000003
 30
0.0
 10
0.44464
 20
2.8696300000000003
 30
0.0
 10
0.95264
 20
3.0296500000000002
 30
0.0
 10
1.5470000000000002
 20
3.0474300000000003
 30
0.0
 10
2.0143600000000004
 20
2.88741
 30
0.0
 10
2.0143600000000004
 20
2.88741
 30
0.0
 10
2.0118200000000002
 20
3.0779100000000001
 30
0.0
 10
1.6486000000000001
 20
3.0245700000000002
 30
0.0
 10
1.4962000000000002
 20
3.1261700000000001
 30
0.0
 10
1.4962000000000002
 20
3.1261700000000001
 30
0.0
 10
2.2785200000000003
 20
3.9389700000000003
 30
0.0
 10
3.3656400000000004
 20
4.76701
 30
0.0
 10
4.5594400000000004
 20
4.3758500000000007
 30
0.0
 10
4.5594400000000004
 20
4.3758500000000007
 30
0.0
 10
4.5315000000000003
 20
4.3275900000000007
 30
0.0
 10
4.4857800000000001
 20
4.3174300000000008
 30
0.0
 10
4.4375200000000001
 20
4.2996500000000006
 30
0.0
 10
4.4375200000000001
 20
4.2996500000000006
 30
0.0
 10
3.6145600000000004
 20
4.3504500000000004
 30
0.0
 10
2.7941400000000001
 20
4.0100899999999999
 30
0.0
 10
2.2404200000000003
 20
3.4081100000000002
 30
0.0
  0
SPLINE
  5
29
100
AcDbEntity
  8
Ebene 1
100
AcDbSpline
210
0.0
220
0.0
230
1.0
 70
     1
 71
     3
 72
    24
 73
    20
 74
     0
 42
0.0000000001
 43
0.0000000001
 40
0.0
 40
0.0
 40
0.0
 40
0.0
 40
0.2
 40
0.2
 40
0.2
 40
0.2
 40
0.4
 40
0.4
 40
0.4
 40
0.4
 40
0.6000000000000001
 40
0.6000000000000001
 40
0.6000000000000001
 40
0.6000000000000001
 40
0.8
 40
0.8
 40
0.8
 40
0.8
 40
1.0
 40
1.0
 40
1.0
 40
1.0
 10
1.3336400000000002
 20
2.67659
 30
0.0
 10
1.3336400000000002
 20
2.67659
 30
0.0
 10
1.3946000000000001
 20
2.6740500000000003
 30
0.0
 10
1.3946000000000001
 20
2.6740500000000003
 30
0.0
 10
1.3946000000000001
 20
2.6740500000000003
 30
0.0
 10
1.44286
 20
2.3717900000000003
 30
0.0
 10
1.44286
 20
2.09239
 30
0.0
 10
1.3463400000000001
 20
1.8053700000000001
 30
0.0
 10
1.3463400000000001
 20
1.8053700000000001
 30
0.0
 10
1.1685400000000001
 20
1.57423
 30
0.0
 10
0.8662800000000001
 20
1.48533
 30
0.0
 10
0.63768
 20
1.3456300000000001
 30
0.0
 10
0.63768
 20
1.3456300000000001
 30
0.0
 10
0.63768
 20
1.3456300000000001
 30
0.0
 10
0.6529200000000001
 20
1.4167500000000002
 30
0.0
 10
0.6529200000000001
 20
1.4167500000000002
 30
0.0
 10
0.6529200000000001
 20
1.4167500000000002
 30
0.0
 10
1.0745600000000002
 20
1.69615
 30
0.0
 10
1.4479400000000002
 20
2.1584300000000001
 30
0.0
 10
1.3336400000000002
 20
2.67659
 30
0.0
  0
SPLINE
  5
2A
100
AcDbEntity
  8
Ebene 1
100
AcDbSpline
210
0.0
220
0.0
230
1.0
 70
     1
 71
     3
 72
    36
 73
    32
 74
     0
 42
0.0000000001
 43
0.0000000001
 40
0.0
 40
0.0
 40
0.0
 40
0.0
 40
0.125
 40
0.125
 40
0.125
 40
0.125
 40
0.25
 40
0.25
 40
0.25
 40
0.25
 40
0.375
 40
0.375
 40
0.375
 40
0.375
 40
0.5
 40
0.5
 40
0.5
 40
0.5
 40
0.625
 40
0.625
 40
0.625
 40
0.625
 40
0.75
 40
0.75
 40
0.75
 40
0.75
 40
0.875
 40
0.875
 40
0.875
 40
0.875
 40
1.0
 40
1.0
 40
1.0
 40
1.0
 10
0.5233800000000001
 20
2.5648300000000002
 30
0.0
 10
0.7596000000000001
 20
2.6105500000000004
 30
0.0
 10
0.9653400000000001
 20
2.4530700000000003
 30
0.0
 10
1.0466200000000001
 20
2.2625700000000002
 30
0.0
 10
1.0466200000000001
 20
2.2625700000000002
 30
0.0
 10
1.01614
 20
2.0568300000000002
 30
0.0
 10
0.8535800000000001
 20
1.8790300000000002
 30
0.0
 10
0.6707000000000001
 20
1.8053700000000001
 30
0.0
 10
0.6707000000000001
 20
1.8053700000000001
 30
0.0
 10
0.63514
 20
1.9196700000000002
 30
0.0
 10
0.8739000000000001
 20
1.9679300000000002
 30
0.0
 10
0.8535800000000001
 20
2.1000100000000002
 30
0.0
 10
0.8535800000000001
 20
2.1000100000000002
 30
0.0
 10
0.6072000000000001
 20
1.9450700000000001
 30
0.0
 10
0.26938
 20
1.8815700000000002
 30
0.0
 10
-0.01001
 20
1.9730100000000002
 30
0.0
 10
-0.01001
 20
1.9730100000000002
 30
0.0
 10
-0.00747
 20
1.7164700000000002
 30
0.0
 10
0.27954
 20
1.9018900000000001
 30
0.0
 10
0.39638
 20
1.7698100000000001
 30
0.0
 10
0.39638
 20
1.7698100000000001
 30
0.0
 10
0.3989200000000001
 20
1.7063100000000002
 30
0.0
 10
0.3278
 20
1.7571100000000002
 30
0.0
 10
0.29986
 20
1.7698100000000001
 30
0.0
 10
0.29986
 20
1.7698100000000001
 30
0.0
 10
0.10936
 20
1.6605900000000002
 30
0.0
 10
-0.21575
 20
1.7494900000000002
 30
0.0
 10
-0.19035
 20
2.0085700000000002
 30
0.0
 10
-0.19035
 20
2.0085700000000002
 30
0.0
 10
-0.07351
 20
2.29813
 30
0.0
 10
0.23636
 20
2.4987900000000001
 30
0.0
 10
0.5233800000000001
 20
2.5648300000000002
 30
0.0
  0
SPLINE
  5
2B
100
AcDbEntity
  8
Ebene 1
100
AcDbSpline
210
0.0
220
0.0
230
1.0
 70
     1
 71
     3
 72
    40
 73
    36
 74
     0
 42
0.0000000001
 43
0.0000000001
 40
0.0
 40
0.0
 40
0.0
 40
0.0
 40
0.1111111111111111
 40
0.1111111111111111
 40
0.1111111111111111
 40
0.1111111111111111
 40
0.2222222222222222
 40
0.2222222222222222
 40
0.2222222222222222
 40
0.2222222222222222
 40
0.3333333333333333
 40
0.3333333333333333
 40
0.3333333333333333
 40
0.3333333333333333
 40
0.4444444444444444
 40
0.4444444444444444
 40
0.4444444444444444
 40
0.4444444444444444
 40
0.5555555555555556
 40
0.5555555555555556
 40
0.5555555555555556
 40
0.5555555555555556
 40
0.6666666666666667
 40
0.6666666666666667
 40
0.6666666666666667
 40
0.6666666666666667
 40
0.7777777777777779
 40
0.7777777777777779
 40
0.7777777777777779
 40
0.7777777777777779
 40
0.8888888888888891
 40
0.8888888888888891
 40
0.8888888888888891
 40
0.8888888888888891
 40
1.0
 40
1.0
 40
1.0
 40
1.0
 10
0.5386200000000001
 20
1.5793100000000002
 30
0.0
 10
0.57164
 20
1.5818500000000002
 30
0.0
 10
0.59958
 20
1.53105
 30
0.0
 10
0.59958
 20
1.5031100000000002
 30
0.0
 10
0.59958
 20
1.5031100000000002
 30
0.0
 10
0.43702
 20
1.4573900000000002
 30
0.0
 10
0.28208
 20
1.3938900000000001
 30
0.0
 10
0.12968
 20
1.32023
 30
0.0
 10
0.12968
 20
1.32023
 30
0.0
 10
0.01538
 20
1.06877
 30
0.0
 10
-0.3960900000000001
 20
1.02559
 30
0.0
 10
-0.51039
 20
1.2922900000000002
 30
0.0
 10
-0.51039
 20
1.2922900000000002
 30
0.0
 10
-0.50785
 20
1.3456300000000001
 30
0.0
 10
-0.5180100000000001
 20
1.40151
 30
0.0
 10
-0.48753
 20
1.44723
 30
0.0
 10
-0.48753
 20
1.44723
 30
0.0
 10
-0.48753
 20
1.44723
 30
0.0
 10
-0.40117
 20
1.4319900000000001
 30
0.0
 10
-0.40117
 20
1.4319900000000001
 30
0.0
 10
-0.40117
 20
1.4319900000000001
 30
0.0
 10
-0.34529
 20
1.18815
 30
0.0
 10
-0.03287
 20
1.32023
 30
0.0
 10
0.10428
 20
1.4319900000000001
 30
0.0
 10
0.10428
 20
1.4319900000000001
 30
0.0
 10
0.10428
 20
1.4319900000000001
 30
0.0
 10
0.02808
 20
1.4192900000000002
 30
0.0
 10
0.02808
 20
1.4192900000000002
 30
0.0
 10
0.02808
 20
1.4192900000000002
 30
0.0
 10
0.00268
 20
1.4269100000000001
 30
0.0
 10
-0.06843
 20
1.44215
 30
0.0
 10
-0.05827
 20
1.4802500000000001
 30
0.0
 10
-0.05827
 20
1.4802500000000001
 30
0.0
 10
0.13984
 20
1.5005700000000002
 30
0.0
 10
0.36336
 20
1.48787
 30
0.0
 10
0.5386200000000001
 20
1.5793100000000002
 30
0.0
  0
SPLINE
  5
2C
100
AcDbEntity
  8
Ebene 1
 62
     7
100
AcDbSpline
210
0.0
220
0.0
230
1.0
 70
     1
 71
     3
 72
    12
 73
     8
 74
     0
 42
0.0000000001
 43
0.0000000001
 40
0.0
 40
0.0
 40
0.0
 40
0.0
 40
0.5
 40
0.5
 40
0.5
 40
0.5
 40
1.0
 40
1.0
 40
1.0
 40
1.0
 10
-2.5931900000000003
 20
0.13151
 30
0.0
 10
-2.4788900000000003
 20
0.5226700000000001
 30
0.0
 10
-2.1004300000000002
 20
0.76397
 30
0.0
 10
-1.7372100000000001
 20
0.8757300000000001
 30
0.0
 10
-1.7372100000000001
 20
0.8757300000000001
 30
0.0
 10
-1.9302500000000002
 20
0.5429900000000001
 30
0.0
 10
-2.2807700000000004
 20
0.3270900000000001
 30
0.0
 10
-2.5931900000000003
 20
0.13151
 30
0.0
  0
SPLINE
  5
2D
100
AcDbEntity
  8
Ebene 1
100
AcDbSpline
210
0.0
220
0.0
230
1.0
 70
     1
 71
     3
 72
    28
 73
    24
 74
     0
 42
0.0000000001
 43
0.0000000001
 40
0.0
 40
0.0
 40
0.0
 40
0.0
 40
0.1666666666666667
 40
0.1666666666666667
 40
0.1666666666666667
 40
0.1666666666666667
 40
0.3333333333333333
 40
0.3333333333333333
 40
0.3333333333333333
 40
0.3333333333333333
 40
0.5
 40
0.5
 40
0.5
 40
0.5
 40
0.6666666666666666
 40
0.6666666666666666
 40
0.6666666666666666
 40
0.6666666666666666
 40
0.8333333333333333
 40
0.8333333333333333
 40
0.8333333333333333
 40
0.8333333333333333
 40
1.0
 40
1.0
 40
1.0
 40
1.0
 10
-3.4364700000000004
 20
-0.5187200000000001
 30
0.0
 10
-3.3374100000000002
 20
-0.8032
 30
0.0
 10
-3.5583900000000002
 20
-1.28834
 30
0.0
 10
-3.2408900000000003
 20
-1.49916
 30
0.0
 10
-3.2408900000000003
 20
-1.49916
 30
0.0
 10
-2.9157700000000002
 20
-1.54234
 30
0.0
 10
-2.5906500000000001
 20
-1.4712200000000002
 30
0.0
 10
-2.2934700000000001
 20
-1.3112000000000001
 30
0.0
 10
-2.2934700000000001
 20
-1.3112000000000001
 30
0.0
 10
-2.2934700000000001
 20
-1.3112000000000001
 30
0.0
 10
-1.4019300000000001
 20
-0.82352
 30
0.0
 10
-1.4019300000000001
 20
-0.82352
 30
0.0
 10
-1.4019300000000001
 20
-0.82352
 30
0.0
 10
-1.3841500000000002
 20
-0.8717800000000001
 30
0.0
 10
-1.4451100000000001
 20
-0.8946400000000001
 30
0.0
 10
-1.4679700000000002
 20
-0.92766
 30
0.0
 10
-1.4679700000000002
 20
-0.92766
 30
0.0
 10
-2.1207500000000001
 20
-1.2832600000000001
 30
0.0
 10
-2.69733
 20
-2.0732000000000004
 30
0.0
 10
-3.5279100000000003
 20
-1.8014200000000002
 30
0.0
 10
-3.5279100000000003
 20
-1.8014200000000002
 30
0.0
 10
-3.8225500000000001
 20
-1.4077200000000001
 30
0.0
 10
-3.4999700000000002
 20
-0.9251200000000001
 30
0.0
 10
-3.4364700000000004
 20
-0.5187200000000001
 30
0.0
  0
SPLINE
  5
2E
100
AcDbEntity
  8
Ebene 1
 62
     7
100
AcDbSpline
210
0.0
220
0.0
230
1.0
 70
     1
 71
     3
 72
    16
 73
    12
 74
     0
 42
0.0000000001
 43
0.0000000001
 40
0.0
 40
0.0
 40
0.0
 40
0.0
 40
0.3333333333333333
 40
0.3333333333333333
 40
0.3333333333333333
 40
0.3333333333333333
 40
0.6666666666666666
 40
0.6666666666666666
 40
0.6666666666666666
 40
0.6666666666666666
 40
1.0
 40
1.0
 40
1.0
 40
1.0
 10
0.6757800000000001
 20
-1.83952
 30
0.0
 10
0.22874
 20
-1.5601200000000002
 30
0.0
 10
0.10428
 20
-1.1054600000000001
 30
0.0
 10
0.07126
 20
-0.6457200000000001
 30
0.0
 10
0.07126
 20
-0.6457200000000001
 30
0.0
 10
0.07126
 20
-0.6457200000000001
 30
0.0
 10
0.1246
 20
-0.5847600000000001
 30
0.0
 10
0.1246
 20
-0.5847600000000001
 30
0.0
 10
0.1246
 20
-0.5847600000000001
 30
0.0
 10
0.23636
 20
-1.0114800000000002
 30
0.0
 10
0.4090800000000001
 20
-1.4661400000000002
 30
0.0
 10
0.6757800000000001
 20
-1.83952
 30
0.0
  0
SPLINE
  5
2F
100
AcDbEntity
  8
Ebene 1
 62
     7
100
AcDbSpline
210
0.0
220
0.0
230
1.0
 70
     1
 71
     3
 72
    68
 73
    64
 74
     0
 42
0.0000000001
 43
0.0000000001
 40
0.0
 40
0.0
 40
0.0
 40
0.0
 40
0.0625
 40
0.0625
 40
0.0625
 40
0.0625
 40
0.125
 40
0.125
 40
0.125
 40
0.125
 40
0.1875
 40
0.1875
 40
0.1875
 40
0.1875
 40
0.25
 40
0.25
 40
0.25
 40
0.25
 40
0.3125
 40
0.3125
 40
0.3125
 40
0.3125
 40
0.375
 40
0.375
 40
0.375
 40
0.375
 40
0.4375
 40
0.4375
 40
0.4375
 40
0.4375
 40
0.5
 40
0.5
 40
0.5
 40
0.5
 40
0.5625
 40
0.5625
 40
0.5625
 40
0.5625
 40
0.625
 40
0.625
 40
0.625
 40
0.625
 40
0.6875
 40
0.6875
 40
0.6875
 40
0.6875
 40
0.75
 40
0.75
 40
0.75
 40
0.75
 40
0.8125
 40
0.8125
 40
0.8125
 40
0.8125
 40
0.875
 40
0.875
 40
0.875
 40
0.875
 40
0.9375
 40
0.9375
 40
0.9375
 40
0.9375
 40
1.0
 40
1.0
 40
1.0
 40
1.0
 10
-0.58913
 20
-1.0114800000000002
 30
0.0
 10
-0.23607
 20
-2.5354800000000002
 30
0.0
 10
0.5843400000000001
 20
-2.9393400000000001
 30
0.0
 10
1.9432400000000001
 20
-3.2974800000000002
 30
0.0
 10
1.9432400000000001
 20
-3.2974800000000002
 30
0.0
 10
2.8779600000000003
 20
-3.7673800000000002
 30
0.0
 10
3.8660200000000002
 20
-4.1966400000000004
 30
0.0
 10
4.87948
 20
-4.31602
 30
0.0
 10
4.87948
 20
-4.31602
 30
0.0
 10
3.8533200000000005
 20
-4.8976800000000003
 30
0.0
 10
2.6061800000000002
 20
-4.3007800000000005
 30
0.0
 10
1.4962000000000002
 20
-4.3338000000000001
 30
0.0
 10
1.4962000000000002
 20
-4.3338000000000001
 30
0.0
 10
1.6790800000000001
 20
-4.2423600000000006
 30
0.0
 10
2.1464400000000001
 20
-4.2982400000000007
 30
0.0
 10
2.17692
 20
-4.1458400000000006
 30
0.0
 10
2.17692
 20
-4.1458400000000006
 30
0.0
 10
1.2498200000000002
 20
-4.1560000000000006
 30
0.0
 10
0.29224
 20
-4.4201600000000001
 30
0.0
 10
-0.5992900000000001
 20
-4.1585400000000003
 30
0.0
 10
-0.5992900000000001
 20
-4.1585400000000003
 30
0.0
 10
-0.8710700000000001
 20
-4.00868
 30
0.0
 10
-1.07681
 20
-3.7292800000000002
 30
0.0
 10
-1.25207
 20
-3.4956000000000005
 30
0.0
 10
-1.25207
 20
-3.4956000000000005
 30
0.0
 10
-1.25207
 20
-3.4956000000000005
 30
0.0
 10
-0.7923300000000001
 20
-3.6480000000000001
 30
0.0
 10
-0.7923300000000001
 20
-3.6480000000000001
 30
0.0
 10
-0.7923300000000001
 20
-3.6480000000000001
 30
0.0
 10
-0.4799100000000001
 20
-3.8207200000000001
 30
0.0
 10
-0.6653300000000001
 20
-3.5362400000000003
 30
0.0
 10
-0.9218700000000001
 20
-3.4930600000000003
 30
0.0
 10
-0.9218700000000001
 20
-3.4930600000000003
 30
0.0
 10
-1.4781300000000002
 20
-3.2136600000000004
 30
0.0
 10
-2.44333
 20
-2.8529800000000001
 30
0.0
 10
-1.9404100000000002
 20
-2.1087600000000002
 30
0.0
 10
-1.9404100000000002
 20
-2.1087600000000002
 30
0.0
 10
-1.3282700000000001
 20
-2.3272000000000004
 30
0.0
 10
-1.13015
 20
-3.3127200000000001
 30
0.0
 10
-0.37069
 20
-3.3152600000000003
 30
0.0
 10
-0.37069
 20
-3.3152600000000003
 30
0.0
 10
0.07888
 20
-3.0739600000000005
 30
0.0
 10
-0.51039
 20
-2.4491200000000002
 30
0.0
 10
-0.6627900000000001
 20
-2.14432
 30
0.0
 10
-0.6627900000000001
 20
-2.14432
 30
0.0
 10
-0.6297700000000001
 20
-2.48468
 30
0.0
 10
-0.30973
 20
-2.8174200000000003
 30
0.0
 10
-0.34529
 20
-3.1323800000000004
 30
0.0
 10
-0.34529
 20
-3.1323800000000004
 30
0.0
 10
-0.45451
 20
-3.3660600000000005
 30
0.0
 10
-0.7110500000000001
 20
-3.1654000000000004
 30
0.0
 10
-0.8532900000000001
 20
-3.0587200000000001
 30
0.0
 10
-0.8532900000000001
 20
-3.0587200000000001
 30
0.0
 10
-0.09637
 20
-2.8402800000000004
 30
0.0
 10
-1.4705100000000002
 20
-1.9639800000000001
 30
0.0
 10
-0.90917
 20
-1.6591800000000001
 30
0.0
 10
-0.90917
 20
-1.6591800000000001
 30
0.0
 10
-0.8634500000000001
 20
-1.6160000000000001
 30
0.0
 10
-0.8202700000000001
 20
-1.5550400000000002
 30
0.0
 10
-0.7948700000000001
 20
-1.4890000000000001
 30
0.0
 10
-0.7948700000000001
 20
-1.4890000000000001
 30
0.0
 10
-0.84567
 20
-1.28834
 30
0.0
 10
-0.66025
 20
-1.1715
 30
0.0
 10
-0.58913
 20
-1.0114800000000002
 30
0.0
  0
ENDSEC
  0
SECTION
  2
OBJECTS
  0
DICTIONARY
  5
19
100
AcDbDictionary
280
     0
281
     1
  3
ACAD_GROUP
350
1A
  3
ACAD_MLINESTYLE
350
1B
  3
ACAD_LAYOUT
350
1E
  3
ACAD_PLOTSETTINGS
350
22
  3
ACAD_PLOTSTYLENAME
350
1F
  3
ACAD_WIPEOUT_VARS
350
23
  0
DICTIONARY
  5
1A
102
{ACAD_REACTORS
330
19
102
}
100
AcDbDictionary
280
     0
281
     1
  0
DICTIONARY
  5
1B
102
{ACAD_REACTORS
330
19
102
}
100
AcDbDictionary
280
     0
281
     1
  3
Standard
350
1C
  0
MLINESTYLE
  5
1C
102
{ACAD_REACTORS
330
1B
102
}
100
AcDbMlineStyle
  2
Standard
 70
     0
  3

 62
     0
 51
90.0
 52
90.0
 71
     2
 49
0.5
 62
   256
  6
BYLAYER
 49
-0.5
 62
   256
  6
BYLAYER
  0
ACDBDICTIONARYWDFLT
  5
1F
102
{ACAD_REACTORS
330
19
102
}
100
AcDbDictionary
281
     1
  3
Normal
350
1D
100
AcDbDictionaryWithDefault
340
1D
  0
ACDBPLACEHOLDER
  5
1D
102
{ACAD_REACTORS
330
1F
102
}
  0
LAYOUT
  5
20
102
{ACAD_REACTORS
330
1E
102
}
100
AcDbPlotSettings
  1

  2

  4

  6

 40
0.0
 41
0.0
 42
0.0
 43
0.0
 44
0.0
 45
0.0
 46
0.0
 47
0.0
 48
0.0
 49
0.0
140
0.0
141
0.0
142
1.0
143
1.0
 70
  1024
 72
     0
 73
     0
 74
     0
  7

 75
     0
147
1.0
148
0.0
149
0.0
100
AcDbLayout
  1
Model
 70
     0
 71
     0
 10
0.0
 20
0.0
 11
0.0
 21
0.0
 12
0.0
 22
0.0
 32
0.0
 14
0.0
 24
0.0
 34
0.0
 15
0.0
 25
0.0
 35
0.0
146
0.0
 13
0.0
 23
0.0
 33
0.0
 16
0.0
 26
0.0
 36
0.0
 17
0.0
 27
0.0
 37
0.0
 76
     0
330
A
331
0
345
0
346
0
  0
LAYOUT
  5
21
102
{ACAD_REACTORS
330
1E
102
}
100
AcDbPlotSettings
  1

  2

  4

  6

 40
0.0
 41
0.0
 42
0.0
 43
0.0
 44
0.0
 45
0.0
 46
0.0
 47
0.0
 48
0.0
 49
0.0
140
0.0
141
0.0
142
1.0
143
1.0
 70
     0
 72
     0
 73
     0
 74
     0
  7

 75
     0
147
1.0
148
0.0
149
0.0
100
AcDbLayout
  1
Layout1
 70
     0
 71
     0
 10
0.0
 20
0.0
 11
0.0
 21
0.0
 12
0.0
 22
0.0
 32
0.0
 14
0.0
 24
0.0
 34
0.0
 15
0.0
 25
0.0
 35
0.0
146
0.0
 13
0.0
 23
0.0
 33
0.0
 16
0.0
 26
0.0
 36
0.0
 17
0.0
 27
0.0
 37
0.0
 76
     0
330
B
331
0
345
0
346
0
  0
DICTIONARY
  5
1E
102
{ACAD_REACTORS
330
19
102
}
100
AcDbDictionary
280
     0
281
     1
  3
Layout1
350
21
  3
Model
350
20
  0
DICTIONARY
  5
22
102
{ACAD_REACTORS
330
19
102
}
100
AcDbDictionary
280
     0
281
     1
  0
WIPEOUTVARIABLES
  5
23
100
AcDbWipeoutVariables
 70
     1
  0
ENDSEC
  0
EOF
