  0
SECTION
  2
HEADER
  9
$ACADVER
  1
AC1015
  9
$ACADMAINTVER
 70
     6
  9
$DWGCODEPAGE
  3
DOS850
  9
$INSBASE
 10
0.0
 20
0.0
 30
0.0
  9
$EXTMIN
 10
-4.57989
 20
-6.061
 30
1.000000E+20
  9
$EXTMAX
 10
4.58552
 20
6.05562
 30
-1.000000E+20
  9
$LIMMIN
 10
0.0
 20
0.0
  9
$LIMMAX
 10
0.0
 20
0.0
  9
$ORTHOMODE
 70
     0
  9
$REGENMODE
 70
     1
  9
$FILLMODE
 70
     1
  9
$QTEXTMODE
 70
     0
  9
$MIRRTEXT
 70
     1
  9
$LTSCALE
 40
1.0
  9
$ATTMODE
 70
     1
  9
$TEXTSIZE
 40
0.2
  9
$TRACEWID
 40
0.05
  9
$TEXTSTYLE
  7
Standard
  9
$CLAYER
  8
0
  9
$CELTYPE
  6
Continuous
  9
$CECOLOR
 62
   256
  9
$CELTSCALE
 40
1.0
  9
$DISPSILH
 70
     0
  9
$DIMSCALE
 40
1.0
  9
$DIMASZ
 40
0.18
  9
$DIMEXO
 40
0.0625
  9
$DIMDLI
 40
0.38
  9
$DIMRND
 40
0.0
  9
$DIMDLE
 40
0.0
  9
$DIMEXE
 40
0.18
  9
$DIMTP
 40
0.0
  9
$DIMTM
 40
0.0
  9
$DIMTXT
 40
0.18
  9
$DIMCEN
 40
0.09
  9
$DIMTSZ
 40
0.0
  9
$DIMTOL
 70
     0
  9
$DIMLIM
 70
     0
  9
$DIMTIH
 70
     1
  9
$DIMTOH
 70
     1
  9
$DIMSE1
 70
     0
  9
$DIMSE2
 70
     0
  9
$DIMTAD
 70
     0
  9
$DIMZIN
 70
     0
  9
$DIMBLK
  1

  9
$DIMASO
 70
     1
  9
$DIMSHO
 70
     1
  9
$DIMPOST
  1

  9
$DIMAPOST
  1

  9
$DIMALT
 70
     0
  9
$DIMALTD
 70
     2
  9
$DIMALTF
 40
25.4
  9
$DIMLFAC
 40
1.0
  9
$DIMTOFL
 70
     0
  9
$DIMTVP
 40
0.0
  9
$DIMTIX
 70
     0
  9
$DIMSOXD
 70
     0
  9
$DIMSAH
 70
     0
  9
$DIMBLK1
  1

  9
$DIMBLK2
  1

  9
$DIMSTYLE
  2
Standard
  9
$DIMCLRD
 70
     0
  9
$DIMCLRE
 70
     0
  9
$DIMCLRT
 70
     0
  9
$DIMTFAC
 40
1.0
  9
$DIMGAP
 40
0.09
  9
$DIMJUST
 70
     0
  9
$DIMSD1
 70
     0
  9
$DIMSD2
 70
     0
  9
$DIMTOLJ
 70
     1
  9
$DIMTZIN
 70
     0
  9
$DIMALTZ
 70
     0
  9
$DIMALTTZ
 70
     0
  9
$DIMUPT
 70
     0
  9
$DIMDEC
 70
     4
  9
$DIMTDEC
 70
     4
  9
$DIMALTU
 70
     2
  9
$DIMALTTD
 70
     2
  9
$DIMTXSTY
  7
Standard
  9
$DIMAUNIT
 70
     0
  9
$DIMADEC
 70
     0
  9
$DIMALTRND
 40
0.0
  9
$DIMAZIN
 70
     0
  9
$DIMDSEP
 70
     0
  9
$DIMATFIT
 70
     3
  9
$DIMFRAC
 70
     0
  9
$DIMLDRBLK
  1

  9
$DIMLUNIT
 70
     2
  9
$DIMLWD
 70
     0
  9
$DIMLWE
 70
     0
  9
$DIMTMOVE
 70
     0
  9
$LUNITS
 70
     2
  9
$LUPREC
 70
     4
  9
$SKETCHINC
 40
0.1
  9
$FILLETRAD
 40
0.0
  9
$AUNITS
 70
     0
  9
$AUPREC
 70
     0
  9
$MENU
  1
acad
  9
$ELEVATION
 40
0.0
  9
$PELEVATION
 40
0.0
  9
$THICKNESS
 40
0.0
  9
$LIMCHECK
 70
     0
  9
$CHAMFERA
 40
0.0
  9
$CHAMFERB
 40
0.0
  9
$CHAMFERC
 40
0.0
  9
$CHAMFERD
 40
0.0
  9
$SKPOLY
 70
     0
  9
$TDCREATE
 40
0.000000000
  9
$TDUCREATE
 40
0.000000000
  9
$TDUPDATE
 40
0.000000000
  9
$TDUUPDATE
 40
0.000000000
  9
$TDINDWG
 40
0.0000000000
  9
$TDUSRTIMER
 40
0.0000000000
  9
$USRTIMER
 70
     1
  9
$ANGBASE
 50
0.0
  9
$ANGDIR
 70
     0
  9
$PDMODE
 70
     0
  9
$PDSIZE
 40
0.0
  9
$PLINEWID
 40
0.0
  9
$SPLFRAME
 70
     0
  9
$SPLINETYPE
 70
     6
  9
$SPLINESEGS
 70
     8
  9
$HANDSEED
  5
2F
  9
$SURFTAB1
 70
     6
  9
$SURFTAB2
 70
     6
  9
$SURFTYPE
 70
     6
  9
$SURFU
 70
     6
  9
$SURFV
 70
     6
  9
$UCSBASE
  2

  9
$UCSNAME
  2

  9
$UCSORG
 10
0.0
 20
0.0
 30
0.0
  9
$UCSXDIR
 10
1.0
 20
0.0
 30
0.0
  9
$UCSYDIR
 10
0.0
 20
1.0
 30
0.0
  9
$UCSORTHOREF
  2

  9
$UCSORTHOVIEW
 70
     0
  9
$UCSORGTOP
 10
0.0
 20
0.0
 30
0.0
  9
$UCSORGBOTTOM
 10
0.0
 20
0.0
 30
0.0
  9
$UCSORGLEFT
 10
0.0
 20
0.0
 30
0.0
  9
$UCSORGRIGHT
 10
0.0
 20
0.0
 30
0.0
  9
$UCSORGFRONT
 10
0.0
 20
0.0
 30
0.0
  9
$UCSORGBACK
 10
0.0
 20
0.0
 30
0.0
  9
$PUCSBASE
  2

  9
$PUCSNAME
  2

  9
$PUCSORG
 10
0.0
 20
0.0
 30
0.0
  9
$PUCSXDIR
 10
1.0
 20
0.0
 30
0.0
  9
$PUCSYDIR
 10
0.0
 20
1.0
 30
0.0
  9
$PUCSORTHOREF
  2

  9
$PUCSORTHOVIEW
 70
     0
  9
$PUCSORGTOP
 10
0.0
 20
0.0
 30
0.0
  9
$PUCSORGBOTTOM
 10
0.0
 20
0.0
 30
0.0
  9
$PUCSORGLEFT
 10
0.0
 20
0.0
 30
0.0
  9
$PUCSORGRIGHT
 10
0.0
 20
0.0
 30
0.0
  9
$PUCSORGFRONT
 10
0.0
 20
0.0
 30
0.0
  9
$PUCSORGBACK
 10
0.0
 20
0.0
 30
0.0
  9
$USERI1
 70
     0
  9
$USERI2
 70
     0
  9
$USERI3
 70
     0
  9
$USERI4
 70
     0
  9
$USERI5
 70
     0
  9
$USERR1
 40
0.0
  9
$USERR2
 40
0.0
  9
$USERR3
 40
0.0
  9
$USERR4
 40
0.0
  9
$USERR5
 40
0.0
  9
$WORLDVIEW
 70
     1
  9
$SHADEDGE
 70
     3
  9
$SHADEDIF
 70
    70
  9
$TILEMODE
 70
     1
  9
$MAXACTVP
 70
    16
  9
$PINSBASE
 10
0.0
 20
0.0
 30
0.0
  9
$PLIMCHECK
 70
     0
  9
$PEXTMIN
 10
1.000000E+20
 20
1.000000E+20
 30
1.000000E+20
  9
$PEXTMAX
 10
-1.000000E+20
 20
-1.000000E+20
 30
-1.000000E+20
  9
$PLIMMIN
 10
0.0
 20
0.0
  9
$PLIMMAX
 10
12.0
 20
9.0
  9
$UNITMODE
 70
     0
  9
$VISRETAIN
 70
     0
  9
$PLINEGEN
 70
     1
  9
$PSLTSCALE
 70
     0
  9
$TREEDEPTH
 70
  3020
  9
$CMLSTYLE
  2
Standard
  9
$CMLJUST
 70
     0
  9
$CMLSCALE
 40
1.0
  9
$PROXYGRAPHICS
 70
     0
  9
$MEASUREMENT
 70
     0
  9
$CELWEIGHT
370
     0
  9
$ENDCAPS
280
     0
  9
$JOINSTYLE
280
     0
  9
$LWDISPLAY
290
     0
  9
$INSUNITS
 70
     5
  9
$HYPERLINKBASE
  1

  9
$XEDIT
290
     1
  9
$CEPSNTYPE
380
     0
  9
$PSTYLEMODE
290
     1
  9
$FINGERPRINTGUID
  2

  9
$VERSIONGUID
  2

  9
$EXTNAMES
290
     1
  9
$PSVPSCALE
 40
0.0
  0
ENDSEC
  0
SECTION
  2
CLASSES
  0
CLASS
  1
LWPOLYLINE
  2
AcDbPolyline
  3
AutoCAD 2000
 90
    32768
280
     0
281
     1
  0
CLASS
  1
IMAGE
  2
AcDbRasterImage
  3
ISM
 90
    32895
280
     0
281
     1
  0
CLASS
  1
OLE2FRAME
  2
AcDbOle2Frame
  3
AutoCAD 2000
 90
    32768
280
     0
281
     1
  0
CLASS
  1
HATCH
  2
AcDbHatch
  3
AutoCAD 2000
 90
    32768
280
     0
281
     1
  0
CLASS
  1
DICTIONARYVAR
  2
AcDbDictionaryVar
  3
AutoCAD 2000
 90
    32768
280
     0
281
     0
  0
CLASS
  1
RASTERVARIABLES
  2
AcDbRasterVariables
  3
ISM
 90
    32768
280
     0
281
     0
  0
CLASS
  1
IMAGEDEF
  2
AcDbRasterImageDef
  3
ISM
 90
    32768
280
     0
281
     0
  0
CLASS
  1
IMAGEDEF_REACTOR
  2
AcDbRasterImageDefReactor
  3
ISM
 90
    32769
280
     0
281
     0
  0
CLASS
  1
IDBUFFER
  2
AcDbIdBuffer
  3
AutoCAD 2000
 90
    32768
280
     0
281
     0
  0
CLASS
  1
SPATIAL_FILTER
  2
AcDbSpatialFilter
  3
AutoCAD 2000
 90
    32768
280
     0
281
     0
  0
CLASS
  1
XRECORD
  2
AcDbXrecord
  3
AutoCAD 2000
 90
    32768
280
     0
281
     0
  0
CLASS
  1
SORTENTSTABLE
  2
AcDbSortentsTable
  3
AutoCAD 2000
 90
    32768
280
     0
281
     0
  0
CLASS
  1
LAYER_INDEX
  2
AcDbLayerIndex
  3
AutoCAD 2000
 90
    32768
280
     0
281
     0
  0
CLASS
  1
SPATIAL_INDEX
  2
AcDbSpatialIndex
  3
AutoCAD 2000
 90
    32768
280
     0
281
     0
  0
CLASS
  1
OBJECT_PTR
  2
CAseDLPNTableRecord
  3
"ASE-LPNTableRecord"
 90
    32769
280
     0
281
     0
  0
CLASS
  1
LAYOUT
  2
AcDbLayout
  3
AutoCAD 2000
 90
        0
280
     0
281
     0
  0
CLASS
  1
PLOTSETTINGS
  2
AcDbPlotSettings
  3
AutoCAD 2000
 90
    32768
280
     0
281
     0
  0
CLASS
  1
ACDBDICTIONARYWDFLT
  2
AcDbDictionaryWithDefault
  3
AutoCAD 2000
 90
        0
280
     0
281
     0
  0
CLASS
  1
ACDBPLACEHOLDER
  2
AcDbPlaceHolder
  3
AutoCAD 2000
 90
        0
280
     0
281
     0
  0
CLASS
  1
VBA_PROJECT
  2
AcDbVbaProject
  3
acadvba
 90
    32768
280
     0
281
     0
  0
CLASS
  1
WIPEOUT
  2
AcDbWipeout
  3
WipeOut|AutoCAD Express Tool|expresstools@autodesk.com
 90
    32895
280
     0
281
     1
  0
CLASS
  1
WIPEOUTVARIABLES
  2
AcDbWipeoutVariables
  3
WipeOut|AutoCAD Express Tool|expresstools@autodesk.com
 90
        0
280
     0
281
     0
  0
CLASS
  1
RTEXT
  2
RText
  3
RText|AutoCAD Express Tool|expresstools@autodesk.com
 90
    32768
280
     0
281
     1
  0
CLASS
  1
ARCALIGNEDTEXT
  2
AcDbArcAlignedText
  3
ATEXT|AutoCAD Express Tool|expresstools@autodesk.com
 90
    32768
280
     0
281
     1
  0
ENDSEC
  0
SECTION
  2
TABLES
  0
TABLE
  2
VPORT
  5
7
100
AcDbSymbolTable
 70
     1
  0
VPORT
  5
15
100
AcDbSymbolTableRecord
100
AcDbViewportTableRecord
  2
*ACTIVE
 70
     0
 10
0.0
 20
0.0
 11
1.0
 21
1.0
 12
6.591288
 22
4.579184
 13
0.0
 23
0.0
 14
1.0
 24
1.0
 15
0.0
 25
0.0
 16
0.0
 26
0.0
 36
1.0
 17
0.0
 27
0.0
 37
0.0
 40
9.158369
 41
0.688564
 42
50.0
 43
0.0
 44
0.0
 50
0.0
 51
0.0
 71
     0
 72
   100
 73
     1
 74
     1
 75
     0
 76
     0
 77
     0
 78
     0
281
     0
 65
     0
110
0.0
120
0.0
130
0.0
111
1.0
121
0.0
131
0.0
112
0.0
122
1.0
132
0.0
345
0
346
0
 79
     0
146
0.0
  0
ENDTAB
  0
TABLE
  2
LTYPE
  5
4
100
AcDbSymbolTable
 70
     3
  0
LTYPE
  5
11
100
AcDbSymbolTableRecord
100
AcDbLinetypeTableRecord
  2
ByBlock
 70
    64
  3

 72
    65
 73
     0
 40
0.0
  0
LTYPE
  5
12
100
AcDbSymbolTableRecord
100
AcDbLinetypeTableRecord
  2
ByLayer
 70
    64
  3

 72
    65
 73
     0
 40
0.0
  0
LTYPE
  5
13
100
AcDbSymbolTableRecord
100
AcDbLinetypeTableRecord
  2
Continuous
 70
    64
  3
Solid line
 72
    65
 73
     0
 40
0.0
  0
ENDTAB
  0
TABLE
  2
LAYER
  5
2
100
AcDbSymbolTable
 70
     2
  0
LAYER
  5
14
100
AcDbSymbolTableRecord
100
AcDbLayerTableRecord
  2
0
 70
     0
 62
     7
  6
Continuous
290
     1
370
    -3
390
1D
  0
LAYER
  5
24
100
AcDbSymbolTableRecord
100
AcDbLayerTableRecord
  2
Ebene 1
 70
     0
 62
     7
  6
Continuous
290
     1
370
    -3
390
1F
  0
ENDTAB
  0
TABLE
  2
STYLE
  5
3
100
AcDbSymbolTable
 70
     1
  0
STYLE
  5
17
100
AcDbSymbolTableRecord
100
AcDbTextStyleTableRecord
  2
Standard
 70
     0
 40
0.0
 41
1.0
 50
0.0
 71
     0
 42
0.0
  3
txt
  4

  0
ENDTAB
  0
TABLE
  2
VIEW
  5
5
100
AcDbSymbolTable
 70
     0
  0
ENDTAB
  0
TABLE
  2
UCS
  5
6
100
AcDbSymbolTable
 70
     0
  0
ENDTAB
  0
TABLE
  2
APPID
  5
8
100
AcDbSymbolTable
 70
     1
  0
APPID
  5
16
100
AcDbSymbolTableRecord
100
AcDbRegAppTableRecord
  2
ACAD
 70
     0
  0
ENDTAB
  0
TABLE
  2
DIMSTYLE
  5
9
100
AcDbSymbolTable
 70
     1
100
AcDbDimStyleTable
 71
     0
  0
DIMSTYLE
105
18
100
AcDbSymbolTableRecord
100
AcDbDimStyleTableRecord
  2
Standard
 70
     0
  3

  4

 40
1.0
 41
0.18
 42
0.0625
 43
0.38
 44
0.18
 45
0.0
 46
0.0
 47
0.0
 48
0.0
 71
     0
 72
     0
 73
     1
 74
     1
 75
     0
 76
     0
 77
     0
 78
     0
 79
     0
140
0.18
141
0.09
142
0.0
143
25.4
144
1.0
145
0.0
146
1.0
147
0.09
148
0.0
170
     0
171
     2
172
     0
173
     0
174
     0
175
     0
176
     0
177
     0
178
     0
179
     0
271
     4
272
     4
273
     2
274
     2
275
     0
276
     0
277
     2
278
    46
279
     0
280
     0
281
     0
282
     0
283
     1
284
     0
285
     0
286
     0
288
     0
340
17
341
0
342
0
343
0
344
0
371
    -2
372
    -2
  0
ENDTAB
  0
TABLE
  2
BLOCK_RECORD
  5
1
100
AcDbSymbolTable
 70
     0
  0
BLOCK_RECORD
  5
A
100
AcDbSymbolTableRecord
100
AcDbBlockTableRecord
  2
*MODEL_SPACE
340
20
  0
BLOCK_RECORD
  5
B
100
AcDbSymbolTableRecord
100
AcDbBlockTableRecord
  2
*PAPER_SPACE
340
21
  0
ENDTAB
  0
ENDSEC
  0
SECTION
  2
BLOCKS
  0
BLOCK
  5
D
100
AcDbEntity
  8
0
100
AcDbBlockBegin
  2
*MODEL_SPACE
 70
     0
 10
0.0
 20
0.0
 30
0.0
  3
*MODEL_SPACE
  1

  0
ENDBLK
  5
E
100
AcDbEntity
  8
0
100
AcDbBlockEnd
  0
BLOCK
  5
F
100
AcDbEntity
 67
     1
  8
0
100
AcDbBlockBegin
  2
*PAPER_SPACE
 70
     0
 10
0.0
 20
0.0
 30
0.0
  3
*PAPER_SPACE
  1

  0
ENDBLK
  5
10
100
AcDbEntity
 67
     1
  8
0
100
AcDbBlockEnd
  0
ENDSEC
  0
SECTION
  2
ENTITIES
  0
SPLINE
  5
25
100
AcDbEntity
  8
Ebene 1
100
AcDbSpline
210
0.0
220
0.0
230
1.0
 70
     1
 71
     3
 72
    60
 73
    56
 74
     0
 42
0.0000000001
 43
0.0000000001
 40
0.0
 40
0.0
 40
0.0
 40
0.0
 40
0.0714285714285714
 40
0.0714285714285714
 40
0.0714285714285714
 40
0.0714285714285714
 40
0.1428571428571429
 40
0.1428571428571429
 40
0.1428571428571429
 40
0.1428571428571429
 40
0.2142857142857143
 40
0.2142857142857143
 40
0.2142857142857143
 40
0.2142857142857143
 40
0.2857142857142857
 40
0.2857142857142857
 40
0.2857142857142857
 40
0.2857142857142857
 40
0.3571428571428571
 40
0.3571428571428571
 40
0.3571428571428571
 40
0.3571428571428571
 40
0.4285714285714285
 40
0.4285714285714285
 40
0.4285714285714285
 40
0.4285714285714285
 40
0.4999999999999999
 40
0.4999999999999999
 40
0.4999999999999999
 40
0.4999999999999999
 40
0.5714285714285713
 40
0.5714285714285713
 40
0.5714285714285713
 40
0.5714285714285713
 40
0.6428571428571427
 40
0.6428571428571427
 40
0.6428571428571427
 40
0.6428571428571427
 40
0.7142857142857141
 40
0.7142857142857141
 40
0.7142857142857141
 40
0.7142857142857141
 40
0.7857142857142855
 40
0.7857142857142855
 40
0.7857142857142855
 40
0.7857142857142855
 40
0.8571428571428569
 40
0.8571428571428569
 40
0.8571428571428569
 40
0.8571428571428569
 40
0.9285714285714283
 40
0.9285714285714283
 40
0.9285714285714283
 40
0.9285714285714283
 40
1.0
 40
1.0
 40
1.0
 40
1.0
 10
-1.8032500000000002
 20
5.9074700000000009
 30
0.0
 10
-1.2215900000000002
 20
6.1716300000000004
 30
0.0
 10
-0.61707
 20
6.0293900000000002
 30
0.0
 10
-0.03795
 20
5.8896900000000008
 30
0.0
 10
-0.03795
 20
5.8896900000000008
 30
0.0
 10
1.69686
 20
6.0624100000000007
 30
0.0
 10
2.6671400000000003
 20
4.28695
 30
0.0
 10
3.4418400000000005
 20
3.0448900000000001
 30
0.0
 10
3.4418400000000005
 20
3.0448900000000001
 30
0.0
 10
3.4723200000000003
 20
2.6486500000000004
 30
0.0
 10
3.2818200000000002
 20
2.2524100000000002
 30
0.0
 10
3.3300800000000002
 20
1.8587100000000001
 30
0.0
 10
3.3300800000000002
 20
1.8587100000000001
 30
0.0
 10
3.5815400000000004
 20
1.4218300000000001
 30
0.0
 10
3.6069400000000003
 20
0.8655700000000001
 30
0.0
 10
3.9269800000000004
 20
0.48965
 30
0.0
 10
3.9269800000000004
 20
0.48965
 30
0.0
 10
4.20892
 20
-1.6541000000000001
 30
0.0
 10
5.1360200000000003
 20
-3.9985200000000005
 30
0.0
 10
4.1251000000000007
 20
-6.0610000000000008
 30
0.0
 10
4.1251000000000007
 20
-6.0610000000000008
 30
0.0
 10
3.9574600000000002
 20
-6.0660800000000004
 30
0.0
 10
3.9574600000000002
 20
-5.8070000000000004
 30
0.0
 10
3.8736400000000004
 20
-5.6901600000000006
 30
0.0
 10
3.8736400000000004
 20
-5.6901600000000006
 30
0.0
 10
3.7771200000000005
 20
-5.7181000000000006
 30
0.0
 10
3.8609400000000003
 20
-5.9009800000000006
 30
0.0
 10
3.7491800000000004
 20
-5.9111400000000005
 30
0.0
 10
3.7491800000000004
 20
-5.9111400000000005
 30
0.0
 10
2.3572600000000001
 20
-4.48874
 30
0.0
 10
0.8662800000000001
 20
-2.8809200000000001
 30
0.0
 10
-1.3003300000000002
 20
-2.8123400000000003
 30
0.0
 10
-1.3003300000000002
 20
-2.8123400000000003
 30
0.0
 10
-1.6406900000000002
 20
-1.9639800000000001
 30
0.0
 10
-2.6363700000000003
 20
-1.2807200000000001
 30
0.0
 10
-2.56271
 20
-0.3333
 30
0.0
 10
-2.56271
 20
-0.3333
 30
0.0
 10
-2.8090900000000003
 20
-0.08692
 30
0.0
 10
-3.1316700000000002
 20
0.12135
 30
0.0
 10
-3.2561300000000002
 20
0.4540900000000001
 30
0.0
 10
-3.2561300000000002
 20
0.4540900000000001
 30
0.0
 10
-3.1469100000000001
 20
0.82747
 30
0.0
 10
-2.6008100000000001
 20
0.8833500000000001
 30
0.0
 10
-2.56271
 20
1.2516500000000002
 30
0.0
 10
-2.56271
 20
1.2516500000000002
 30
0.0
 10
-3.7565100000000005
 20
0.20263
 30
0.0
 10
-5.7732700000000001
 20
2.9001100000000002
 30
0.0
 10
-3.6523700000000003
 20
2.9864700000000002
 30
0.0
 10
-3.6523700000000003
 20
2.9864700000000002
 30
0.0
 10
-3.5380700000000003
 20
3.0398100000000001
 30
0.0
 10
-3.4618700000000002
 20
3.1464900000000005
 30
0.0
 10
-3.3958300000000001
 20
3.2582500000000003
 30
0.0
 10
-3.3958300000000001
 20
3.2582500000000003
 30
0.0
 10
-4.3508700000000005
 20
4.1777300000000004
 30
0.0
 10
-2.7582900000000001
 20
5.6001300000000001
 30
0.0
 10
-1.8032500000000002
 20
5.9074700000000009
 30
0.0
  0
SPLINE
  5
26
100
AcDbEntity
  8
Ebene 1
100
AcDbSpline
210
0.0
220
0.0
230
1.0
 70
     1
 71
     3
 72
    20
 73
    16
 74
     0
 42
0.0000000001
 43
0.0000000001
 40
0.0
 40
0.0
 40
0.0
 40
0.0
 40
0.25
 40
0.25
 40
0.25
 40
0.25
 40
0.5
 40
0.5
 40
0.5
 40
0.5
 40
0.75
 40
0.75
 40
0.75
 40
0.75
 40
1.0
 40
1.0
 40
1.0
 40
1.0
 10
-1.58735
 20
-0.82606
 30
0.0
 10
-1.58735
 20
-0.82606
 30
0.0
 10
-1.6229100000000001
 20
-0.88448
 30
0.0
 10
-1.6229100000000001
 20
-0.88448
 30
0.0
 10
-1.6229100000000001
 20
-0.88448
 30
0.0
 10
-1.5238500000000001
 20
-1.0826
 30
0.0
 10
-1.4273300000000002
 20
-1.3061200000000002
 30
0.0
 10
-1.2673100000000002
 20
-1.4255000000000002
 30
0.0
 10
-1.2673100000000002
 20
-1.4255000000000002
 30
0.0
 10
-1.1961900000000001
 20
-1.24516
 30
0.0
 10
-1.1936500000000001
 20
-1.04196
 30
0.0
 10
-1.2876300000000001
 20
-0.8565400000000001
 30
0.0
 10
-1.2876300000000001
 20
-0.8565400000000001
 30
0.0
 10
-1.3841500000000002
 20
-0.8311400000000001
 30
0.0
 10
-1.4882900000000001
 20
-0.7879600000000001
 30
0.0
 10
-1.58735
 20
-0.82606
 30
0.0
  0
SPLINE
  5
27
100
AcDbEntity
  8
Ebene 1
 62
     7
100
AcDbSpline
210
0.0
220
0.0
230
1.0
 70
     1
 71
     3
 72
   120
 73
   116
 74
     0
 42
0.0000000001
 43
0.0000000001
 40
0.0
 40
0.0
 40
0.0
 40
0.0
 40
0.0344827586206897
 40
0.0344827586206897
 40
0.0344827586206897
 40
0.0344827586206897
 40
0.0689655172413793
 40
0.0689655172413793
 40
0.0689655172413793
 40
0.0689655172413793
 40
0.103448275862069
 40
0.103448275862069
 40
0.103448275862069
 40
0.103448275862069
 40
0.1379310344827586
 40
0.1379310344827586
 40
0.1379310344827586
 40
0.1379310344827586
 40
0.1724137931034483
 40
0.1724137931034483
 40
0.1724137931034483
 40
0.1724137931034483
 40
0.206896551724138
 40
0.206896551724138
 40
0.206896551724138
 40
0.206896551724138
 40
0.2413793103448276
 40
0.2413793103448276
 40
0.2413793103448276
 40
0.2413793103448276
 40
0.2758620689655173
 40
0.2758620689655173
 40
0.2758620689655173
 40
0.2758620689655173
 40
0.310344827586207
 40
0.310344827586207
 40
0.310344827586207
 40
0.310344827586207
 40
0.3448275862068966
 40
0.3448275862068966
 40
0.3448275862068966
 40
0.3448275862068966
 40
0.3793103448275863
 40
0.3793103448275863
 40
0.3793103448275863
 40
0.3793103448275863
 40
0.413793103448276
 40
0.413793103448276
 40
0.413793103448276
 40
0.413793103448276
 40
0.4482758620689656
 40
0.4482758620689656
 40
0.4482758620689656
 40
0.4482758620689656
 40
0.4827586206896553
 40
0.4827586206896553
 40
0.4827586206896553
 40
0.4827586206896553
 40
0.517241379310345
 40
0.517241379310345
 40
0.517241379310345
 40
0.517241379310345
 40
0.5517241379310346
 40
0.5517241379310346
 40
0.5517241379310346
 40
0.5517241379310346
 40
0.5862068965517242
 40
0.5862068965517242
 40
0.5862068965517242
 40
0.5862068965517242
 40
0.6206896551724138
 40
0.6206896551724138
 40
0.6206896551724138
 40
0.6206896551724138
 40
0.6551724137931034
 40
0.6551724137931034
 40
0.6551724137931034
 40
0.6551724137931034
 40
0.689655172413793
 40
0.689655172413793
 40
0.689655172413793
 40
0.689655172413793
 40
0.7241379310344827
 40
0.7241379310344827
 40
0.7241379310344827
 40
0.7241379310344827
 40
0.7586206896551723
 40
0.7586206896551723
 40
0.7586206896551723
 40
0.7586206896551723
 40
0.7931034482758619
 40
0.7931034482758619
 40
0.7931034482758619
 40
0.7931034482758619
 40
0.8275862068965515
 40
0.8275862068965515
 40
0.8275862068965515
 40
0.8275862068965515
 40
0.8620689655172411
 40
0.8620689655172411
 40
0.8620689655172411
 40
0.8620689655172411
 40
0.8965517241379307
 40
0.8965517241379307
 40
0.8965517241379307
 40
0.8965517241379307
 40
0.9310344827586203
 40
0.9310344827586203
 40
0.9310344827586203
 40
0.9310344827586203
 40
0.9655172413793099
 40
0.9655172413793099
 40
0.9655172413793099
 40
0.9655172413793099
 40
1.0
 40
1.0
 40
1.0
 40
1.0
 10
-1.6762500000000002
 20
5.8312700000000008
 30
0.0
 10
-0.71613
 20
6.1436900000000003
 30
0.0
 10
0.48782
 20
5.6153700000000004
 30
0.0
 10
1.1228200000000002
 20
4.8330500000000001
 30
0.0
 10
1.1228200000000002
 20
4.8330500000000001
 30
0.0
 10
1.15076
 20
5.14039
 30
0.0
 10
0.6732400000000001
 20
5.3588300000000002
 30
0.0
 10
0.49036
 20
5.6153700000000004
 30
0.0
 10
0.49036
 20
5.6153700000000004
 30
0.0
 10
1.1990200000000002
 20
5.5874300000000003
 30
0.0
 10
1.9153000000000002
 20
5.1302300000000001
 30
0.0
 10
2.2429600000000001
 20
4.5130100000000004
 30
0.0
 10
2.2429600000000001
 20
4.5130100000000004
 30
0.0
 10
2.0016600000000002
 20
4.5485700000000007
 30
0.0
 10
1.8645
 20
4.9879900000000008
 30
0.0
 10
1.6232000000000002
 20
5.0286300000000006
 30
0.0
 10
1.6232000000000002
 20
5.0286300000000006
 30
0.0
 10
1.6232000000000002
 20
5.0286300000000006
 30
0.0
 10
1.8162400000000001
 20
4.7416100000000005
 30
0.0
 10
1.8162400000000001
 20
4.7416100000000005
 30
0.0
 10
1.8162400000000001
 20
4.7416100000000005
 30
0.0
 10
2.3140800000000001
 20
4.2361500000000003
 30
0.0
 10
2.8652600000000001
 20
3.7713300000000003
 30
0.0
 10
3.2030800000000004
 20
3.1312500000000001
 30
0.0
 10
3.2030800000000004
 20
3.1312500000000001
 30
0.0
 10
3.2792800000000004
 20
2.9026500000000004
 30
0.0
 10
3.2691200000000005
 20
2.6740500000000003
 30
0.0
 10
3.2386400000000002
 20
2.4403700000000002
 30
0.0
 10
3.2386400000000002
 20
2.4403700000000002
 30
0.0
 10
3.1040200000000002
 20
2.0898500000000002
 30
0.0
 10
2.8119200000000002
 20
1.9095100000000003
 30
0.0
 10
2.5249000000000001
 20
1.7240900000000001
 30
0.0
 10
2.5249000000000001
 20
1.7240900000000001
 30
0.0
 10
2.5249000000000001
 20
1.7240900000000001
 30
0.0
 10
2.4842600000000004
 20
2.3311500000000001
 30
0.0
 10
2.4842600000000004
 20
2.3311500000000001
 30
0.0
 10
2.4842600000000004
 20
2.3311500000000001
 30
0.0
 10
2.3928200000000004
 20
2.7477100000000001
 30
0.0
 10
2.2277200000000001
 20
3.1845900000000005
 30
0.0
 10
1.9356200000000001
 20
3.3623900000000004
 30
0.0
 10
1.9356200000000001
 20
3.3623900000000004
 30
0.0
 10
2.2023200000000003
 20
2.8950300000000002
 30
0.0
 10
2.6671400000000003
 20
1.4827900000000001
 30
0.0
 10
1.61304
 20
1.9399900000000001
 30
0.0
 10
1.61304
 20
1.9399900000000001
 30
0.0
 10
1.61304
 20
1.9399900000000001
 30
0.0
 10
1.1533
 20
1.7469500000000002
 30
0.0
 10
1.1533
 20
1.7469500000000002
 30
0.0
 10
1.1533
 20
1.7469500000000002
 30
0.0
 10
0.7316600000000001
 20
1.4802500000000001
 30
0.0
 10
0.89168
 20
0.8020700000000001
 30
0.0
 10
0.6122800000000001
 20
0.4947300000000001
 30
0.0
 10
0.6122800000000001
 20
0.4947300000000001
 30
0.0
 10
-0.01763
 20
0.72079
 30
0.0
 10
-0.7669300000000001
 20
0.15437
 30
0.0
 10
-0.7516900000000001
 20
-0.50856
 30
0.0
 10
-0.7516900000000001
 20
-0.50856
 30
0.0
 10
-1.1377700000000002
 20
-0.6762
 30
0.0
 10
-1.2850900000000001
 20
-0.4476000000000001
 30
0.0
 10
-1.5086100000000002
 20
-0.07676
 30
0.0
 10
-1.5086100000000002
 20
-0.07676
 30
0.0
 10
-1.6127500000000001
 20
0.00705
 30
0.0
 10
-1.5619500000000002
 20
-0.23424
 30
0.0
 10
-1.5289300000000001
 20
-0.2952
 30
0.0
 10
-1.5289300000000001
 20
-0.2952
 30
0.0
 10
-1.4019300000000001
 20
-0.54666
 30
0.0
 10
-1.6432300000000002
 20
-0.7092200000000001
 30
0.0
 10
-1.8388100000000001
 20
-0.7346200000000001
 30
0.0
 10
-1.8388100000000001
 20
-0.7346200000000001
 30
0.0
 10
-2.0775700000000001
 20
-0.75748
 30
0.0
 10
-2.2477500000000004
 20
-0.55174
 30
0.0
 10
-2.3645900000000002
 20
-0.37648
 30
0.0
 10
-2.3645900000000002
 20
-0.37648
 30
0.0
 10
-2.73543
 20
-0.01072
 30
0.0
 10
-1.9073900000000001
 20
-0.29266
 30
0.0
 10
-1.7346700000000002
 20
-0.38918
 30
0.0
 10
-1.7346700000000002
 20
-0.38918
 30
0.0
 10
-2.0851900000000003
 20
-0.06406
 30
0.0
 10
-2.6592300000000004
 20
-0.07676
 30
0.0
 10
-3.0453100000000002
 20
0.2635900000000001
 30
0.0
 10
-3.0453100000000002
 20
0.2635900000000001
 30
0.0
 10
-3.3678900000000005
 20
0.7157100000000001
 30
0.0
 10
-2.4712700000000001
 20
0.8173100000000001
 30
0.0
 10
-2.36205
 20
1.1983100000000002
 30
0.0
 10
-2.36205
 20
1.1983100000000002
 30
0.0
 10
-2.4839700000000002
 20
1.5920100000000001
 30
0.0
 10
-2.9106900000000002
 20
1.8536300000000001
 30
0.0
 10
-3.2586700000000004
 20
2.08223
 30
0.0
 10
-3.2586700000000004
 20
2.08223
 30
0.0
 10
-2.7506700000000004
 20
1.4929500000000002
 30
0.0
 10
-3.1875500000000003
 20
1.2541900000000001
 30
0.0
 10
-3.3856700000000002
 20
1.23641
 30
0.0
 10
-3.3856700000000002
 20
1.23641
 30
0.0
 10
-3.8885900000000002
 20
1.19323
 30
0.0
 10
-5.0823900000000002
 20
2.4378300000000004
 30
0.0
 10
-3.9571700000000005
 20
2.7527900000000001
 30
0.0
 10
-3.9571700000000005
 20
2.7527900000000001
 30
0.0
 10
-3.6168100000000001
 20
2.80613
 30
0.0
 10
-3.0681700000000003
 20
2.8162900000000004
 30
0.0
 10
-2.9767300000000003
 20
2.3946500000000004
 30
0.0
 10
-2.9767300000000003
 20
2.3946500000000004
 30
0.0
 10
-2.8776700000000002
 20
2.4149700000000003
 30
0.0
 10
-2.9437100000000003
 20
2.5343500000000003
 30
0.0
 10
-2.9106900000000002
 20
2.6054700000000004
 30
0.0
 10
-2.9106900000000002
 20
2.6054700000000004
 30
0.0
 10
-2.8344900000000002
 20
2.9255100000000001
 30
0.0
 10
-3.2840700000000003
 20
3.2912700000000004
 30
0.0
 10
-2.8929100000000001
 20
3.2226900000000001
 30
0.0
 10
-2.8929100000000001
 20
3.2226900000000001
 30
0.0
 10
-2.7176500000000003
 20
3.4919300000000004
 30
0.0
 10
-3.3247100000000001
 20
3.4563700000000002
 30
0.0
 10
-3.4948900000000003
 20
3.6646500000000004
 30
0.0
 10
-3.4948900000000003
 20
3.6646500000000004
 30
0.0
 10
-3.7895300000000005
 20
4.8025700000000002
 30
0.0
 10
-2.6084300000000002
 20
5.4502700000000006
 30
0.0
 10
-1.6762500000000002
 20
5.8312700000000008
 30
0.0
  0
SPLINE
  5
28
100
AcDbEntity
  8
Ebene 1
100
AcDbSpline
210
0.0
220
0.0
230
1.0
 70
     1
 71
     3
 72
    28
 73
    24
 74
     0
 42
0.0000000001
 43
0.0000000001
 40
0.0
 40
0.0
 40
0.0
 40
0.0
 40
0.1666666666666667
 40
0.1666666666666667
 40
0.1666666666666667
 40
0.1666666666666667
 40
0.3333333333333333
 40
0.3333333333333333
 40
0.3333333333333333
 40
0.3333333333333333
 40
0.5
 40
0.5
 40
0.5
 40
0.5
 40
0.6666666666666666
 40
0.6666666666666666
 40
0.6666666666666666
 40
0.6666666666666666
 40
0.8333333333333333
 40
0.8333333333333333
 40
0.8333333333333333
 40
0.8333333333333333
 40
1.0
 40
1.0
 40
1.0
 40
1.0
 10
-1.1758700000000002
 20
4.3148900000000001
 30
0.0
 10
-0.9777500000000001
 20
4.08629
 30
0.0
 10
-0.5637300000000001
 20
4.0456500000000002
 30
0.0
 10
-0.49769
 20
3.7129100000000004
 30
0.0
 10
-0.49769
 20
3.7129100000000004
 30
0.0
 10
-0.71613
 20
3.8170500000000005
 30
0.0
 10
-0.9345700000000001
 20
4.1269300000000007
 30
0.0
 10
-1.24699
 20
4.0507300000000006
 30
0.0
 10
-1.24699
 20
4.0507300000000006
 30
0.0
 10
-1.5746500000000001
 20
4.2945700000000002
 30
0.0
 10
-2.0039100000000003
 20
4.3301300000000005
 30
0.0
 10
-2.2858500000000004
 20
4.0151700000000003
 30
0.0
 10
-2.2858500000000004
 20
4.0151700000000003
 30
0.0
 10
-2.3366500000000001
 20
3.9719900000000004
 30
0.0
 10
-2.3747500000000001
 20
3.9008700000000003
 30
0.0
 10
-2.4509500000000002
 20
3.9034100000000005
 30
0.0
 10
-2.4509500000000002
 20
3.9034100000000005
 30
0.0
 10
-2.4509500000000002
 20
3.9034100000000005
 30
0.0
 10
-2.2985500000000001
 20
4.1320100000000002
 30
0.0
 10
-2.2985500000000001
 20
4.1320100000000002
 30
0.0
 10
-2.2985500000000001
 20
4.1320100000000002
 30
0.0
 10
-1.8997700000000002
 20
4.4088700000000003
 30
0.0
 10
-1.6914900000000002
 20
4.4317299999999999
 30
0.0
 10
-1.1758700000000002
 20
4.3148900000000001
 30
0.0
  0
SPLINE
  5
29
100
AcDbEntity
  8
Ebene 1
100
AcDbSpline
210
0.0
220
0.0
230
1.0
 70
     1
 71
     3
 72
    72
 73
    68
 74
     0
 42
0.0000000001
 43
0.0000000001
 40
0.0
 40
0.0
 40
0.0
 40
0.0
 40
0.0588235294117647
 40
0.0588235294117647
 40
0.0588235294117647
 40
0.0588235294117647
 40
0.1176470588235294
 40
0.1176470588235294
 40
0.1176470588235294
 40
0.1176470588235294
 40
0.1764705882352941
 40
0.1764705882352941
 40
0.1764705882352941
 40
0.1764705882352941
 40
0.2352941176470588
 40
0.2352941176470588
 40
0.2352941176470588
 40
0.2352941176470588
 40
0.2941176470588235
 40
0.2941176470588235
 40
0.2941176470588235
 40
0.2941176470588235
 40
0.3529411764705883
 40
0.3529411764705883
 40
0.3529411764705883
 40
0.3529411764705883
 40
0.411764705882353
 40
0.411764705882353
 40
0.411764705882353
 40
0.411764705882353
 40
0.4705882352941177
 40
0.4705882352941177
 40
0.4705882352941177
 40
0.4705882352941177
 40
0.5294117647058824
 40
0.5294117647058824
 40
0.5294117647058824
 40
0.5294117647058824
 40
0.5882352941176471
 40
0.5882352941176471
 40
0.5882352941176471
 40
0.5882352941176471
 40
0.6470588235294118
 40
0.6470588235294118
 40
0.6470588235294118
 40
0.6470588235294118
 40
0.7058823529411765
 40
0.7058823529411765
 40
0.7058823529411765
 40
0.7058823529411765
 40
0.7647058823529412
 40
0.7647058823529412
 40
0.7647058823529412
 40
0.7647058823529412
 40
0.823529411764706
 40
0.823529411764706
 40
0.823529411764706
 40
0.823529411764706
 40
0.8823529411764707
 40
0.8823529411764707
 40
0.8823529411764707
 40
0.8823529411764707
 40
0.9411764705882354
 40
0.9411764705882354
 40
0.9411764705882354
 40
0.9411764705882354
 40
1.0
 40
1.0
 40
1.0
 40
1.0
 10
-0.53325
 20
1.2541900000000001
 30
0.0
 10
-1.5136900000000002
 20
0.8173100000000001
 30
0.0
 10
-2.3112500000000002
 20
2.0974700000000004
 30
0.0
 10
-1.8032500000000002
 20
2.8543900000000004
 30
0.0
 10
-1.8032500000000002
 20
2.8543900000000004
 30
0.0
 10
-1.9785100000000002
 20
2.9128100000000003
 30
0.0
 10
-2.0724900000000002
 20
2.6918300000000004
 30
0.0
 10
-2.1588500000000002
 20
2.5724500000000003
 30
0.0
 10
-2.1588500000000002
 20
2.5724500000000003
 30
0.0
 10
-2.3722100000000004
 20
2.3743300000000001
 30
0.0
 10
-2.1182100000000004
 20
1.49041
 30
0.0
 10
-2.30871
 20
2.08223
 30
0.0
 10
-2.30871
 20
2.08223
 30
0.0
 10
-2.52969
 20
2.4987900000000001
 30
0.0
 10
-2.0724900000000002
 20
3.1109300000000002
 30
0.0
 10
-1.6076700000000002
 20
3.0245700000000002
 30
0.0
 10
-1.6076700000000002
 20
3.0245700000000002
 30
0.0
 10
-0.9193300000000001
 20
2.6994500000000001
 30
0.0
 10
-0.8583700000000001
 20
1.8460100000000002
 30
0.0
 10
-0.29449
 20
1.4192900000000002
 30
0.0
 10
-0.29449
 20
1.4192900000000002
 30
0.0
 10
0.29224
 20
1.0840100000000001
 30
0.0
 10
0.5437000000000001
 20
1.61487
 30
0.0
 10
0.9907400000000001
 20
1.9806300000000001
 30
0.0
 10
0.9907400000000001
 20
1.9806300000000001
 30
0.0
 10
0.9450200000000001
 20
1.8460100000000002
 30
0.0
 10
0.8612000000000001
 20
1.7494900000000002
 30
0.0
 10
0.7392800000000001
 20
1.53105
 30
0.0
 10
0.7392800000000001
 20
1.53105
 30
0.0
 10
0.4675
 20
1.0484500000000001
 30
0.0
 10
0.6275200000000001
 20
0.37789
 30
0.0
 10
-0.04049
 20
0.6776100000000001
 30
0.0
 10
-0.04049
 20
0.6776100000000001
 30
0.0
 10
-0.11923
 20
0.6776100000000001
 30
0.0
 10
-0.17511
 20
0.65729
 30
0.0
 10
-0.23861
 20
0.61411
 30
0.0
 10
-0.23861
 20
0.61411
 30
0.0
 10
-0.3325900000000001
 20
0.50997
 30
0.0
 10
-0.44689
 20
0.43377
 30
0.0
 10
-0.55357
 20
0.3474100000000001
 30
0.0
 10
-0.55357
 20
0.3474100000000001
 30
0.0
 10
-0.6424700000000001
 20
0.29661
 30
0.0
 10
-0.7135900000000001
 20
0.15691
 30
0.0
 10
-0.8329700000000001
 20
0.20009
 30
0.0
 10
-0.8329700000000001
 20
0.20009
 30
0.0
 10
-0.5815100000000001
 20
0.65983
 30
0.0
 10
-0.12431
 20
1.06877
 30
0.0
 10
0.40654
 20
1.15259
 30
0.0
 10
0.40654
 20
1.15259
 30
0.0
 10
0.40654
 20
1.15259
 30
0.0
 10
0.25668
 20
1.1779900000000001
 30
0.0
 10
0.25668
 20
1.1779900000000001
 30
0.0
 10
0.25668
 20
1.1779900000000001
 30
0.0
 10
0.25668
 20
1.1779900000000001
 30
0.0
 10
0.08904
 20
1.19323
 30
0.0
 10
0.08904
 20
1.19323
 30
0.0
 10
0.08904
 20
1.19323
 30
0.0
 10
-0.5205500000000001
 20
1.1627500000000002
 30
0.0
 10
-1.4476500000000001
 20
-0.00056
 30
0.0
 10
-1.8184900000000002
 20
1.0154300000000001
 30
0.0
 10
-1.8184900000000002
 20
1.0154300000000001
 30
0.0
 10
-1.7118100000000001
 20
0.9214500000000001
 30
0.0
 10
-1.6203700000000001
 20
0.7588900000000001
 30
0.0
 10
-1.4578100000000001
 20
0.7360300000000001
 30
0.0
 10
-1.4578100000000001
 20
0.7360300000000001
 30
0.0
 10
-1.0564900000000002
 20
0.55823
 30
0.0
 10
-0.63993
 20
1.0840100000000001
 30
0.0
 10
-0.53325
 20
1.2541900000000001
 30
0.0
  0
SPLINE
  5
2A
100
AcDbEntity
  8
Ebene 1
100
AcDbSpline
210
0.0
220
0.0
230
1.0
 70
     1
 71
     3
 72
    24
 73
    20
 74
     0
 42
0.0000000001
 43
0.0000000001
 40
0.0
 40
0.0
 40
0.0
 40
0.0
 40
0.2
 40
0.2
 40
0.2
 40
0.2
 40
0.4
 40
0.4
 40
0.4
 40
0.4
 40
0.6000000000000001
 40
0.6000000000000001
 40
0.6000000000000001
 40
0.6000000000000001
 40
0.8
 40
0.8
 40
0.8
 40
0.8
 40
1.0
 40
1.0
 40
1.0
 40
1.0
 10
-0.14209
 20
3.5935300000000003
 30
0.0
 10
-0.14209
 20
3.5935300000000003
 30
0.0
 10
0.404
 20
3.0296500000000002
 30
0.0
 10
0.404
 20
3.0296500000000002
 30
0.0
 10
0.404
 20
3.0296500000000002
 30
0.0
 10
0.7494400000000001
 20
2.9356700000000004
 30
0.0
 10
1.2193400000000001
 20
2.5724500000000003
 30
0.0
 10
1.0313800000000002
 20
2.1711300000000002
 30
0.0
 10
1.0313800000000002
 20
2.1711300000000002
 30
0.0
 10
0.95264
 20
2.0949300000000002
 30
0.0
 10
0.8586600000000001
 20
2.03905
 30
0.0
 10
0.76214
 20
2.00095
 30
0.0
 10
0.76214
 20
2.00095
 30
0.0
 10
0.6757800000000001
 20
2.0415900000000002
 30
0.0
 10
0.785
 20
2.08223
 30
0.0
 10
0.74182
 20
2.1279500000000002
 30
0.0
 10
0.74182
 20
2.1279500000000002
 30
0.0
 10
1.0339200000000002
 20
2.8213700000000004
 30
0.0
 10
-0.11669
 20
2.9839300000000004
 30
0.0
 10
-0.14209
 20
3.5935300000000003
 30
0.0
  0
SPLINE
  5
2B
100
AcDbEntity
  8
Ebene 1
 62
     7
100
AcDbSpline
210
0.0
220
0.0
230
1.0
 70
     1
 71
     3
 72
    12
 73
     8
 74
     0
 42
0.0000000001
 43
0.0000000001
 40
0.0
 40
0.0
 40
0.0
 40
0.0
 40
0.5
 40
0.5
 40
0.5
 40
0.5
 40
1.0
 40
1.0
 40
1.0
 40
1.0
 10
-0.9574300000000001
 20
1.6326500000000002
 30
0.0
 10
-1.1784100000000002
 20
1.5996300000000001
 30
0.0
 10
-1.3282700000000001
 20
1.7926700000000002
 30
0.0
 10
-1.3435100000000002
 20
2.0034900000000002
 30
0.0
 10
-1.3435100000000002
 20
2.0034900000000002
 30
0.0
 10
-1.2012700000000001
 20
1.9120500000000002
 30
0.0
 10
-1.0717300000000001
 20
1.7647300000000001
 30
0.0
 10
-0.9574300000000001
 20
1.6326500000000002
 30
0.0
  0
SPLINE
  5
2C
100
AcDbEntity
  8
Ebene 1
 62
     7
100
AcDbSpline
210
0.0
220
0.0
230
1.0
 70
     1
 71
     3
 72
   104
 73
   100
 74
     0
 42
0.0000000001
 43
0.0000000001
 40
0.0
 40
0.0
 40
0.0
 40
0.0
 40
0.04
 40
0.04
 40
0.04
 40
0.04
 40
0.08
 40
0.08
 40
0.08
 40
0.08
 40
0.12
 40
0.12
 40
0.12
 40
0.12
 40
0.16
 40
0.16
 40
0.16
 40
0.16
 40
0.2
 40
0.2
 40
0.2
 40
0.2
 40
0.24
 40
0.24
 40
0.24
 40
0.24
 40
0.28
 40
0.28
 40
0.28
 40
0.28
 40
0.32
 40
0.32
 40
0.32
 40
0.32
 40
0.36
 40
0.36
 40
0.36
 40
0.36
 40
0.4
 40
0.4
 40
0.4
 40
0.4
 40
0.44
 40
0.44
 40
0.44
 40
0.44
 40
0.4799999999999999
 40
0.4799999999999999
 40
0.4799999999999999
 40
0.4799999999999999
 40
0.5199999999999999
 40
0.5199999999999999
 40
0.5199999999999999
 40
0.5199999999999999
 40
0.5599999999999999
 40
0.5599999999999999
 40
0.5599999999999999
 40
0.5599999999999999
 40
0.6
 40
0.6
 40
0.6
 40
0.6
 40
0.64
 40
0.64
 40
0.64
 40
0.64
 40
0.6800000000000001
 40
0.6800000000000001
 40
0.6800000000000001
 40
0.6800000000000001
 40
0.7200000000000001
 40
0.7200000000000001
 40
0.7200000000000001
 40
0.7200000000000001
 40
0.7600000000000001
 40
0.7600000000000001
 40
0.7600000000000001
 40
0.7600000000000001
 40
0.8000000000000002
 40
0.8000000000000002
 40
0.8000000000000002
 40
0.8000000000000002
 40
0.8400000000000002
 40
0.8400000000000002
 40
0.8400000000000002
 40
0.8400000000000002
 40
0.8800000000000002
 40
0.8800000000000002
 40
0.8800000000000002
 40
0.8800000000000002
 40
0.9200000000000003
 40
0.9200000000000003
 40
0.9200000000000003
 40
0.9200000000000003
 40
0.9600000000000003
 40
0.9600000000000003
 40
0.9600000000000003
 40
0.9600000000000003
 40
1.0
 40
1.0
 40
1.0
 40
1.0
 10
1.4835
 20
1.7266300000000001
 30
0.0
 10
2.2988400000000002
 20
1.9171300000000002
 30
0.0
 10
2.3902800000000002
 20
0.6928500000000001
 30
0.0
 10
3.1141800000000002
 20
0.55569
 30
0.0
 10
3.1141800000000002
 20
0.55569
 30
0.0
 10
2.8779600000000003
 20
0.91383
 30
0.0
 10
2.3242400000000001
 20
1.8561700000000001
 30
0.0
 10
3.1573600000000002
 20
1.7977500000000002
 30
0.0
 10
3.1573600000000002
 20
1.7977500000000002
 30
0.0
 10
3.6120200000000002
 20
0.9062100000000001
 30
0.0
 10
3.6450400000000003
 20
0.48203
 30
0.0
 10
3.8634800000000005
 20
-0.02342
 30
0.0
 10
3.8634800000000005
 20
-0.02342
 30
0.0
 10
3.8406200000000004
 20
0.04007
 30
0.0
 10
3.6526600000000005
 20
0.2737500000000001
 30
0.0
 10
3.6628200000000004
 20
0.08833
 30
0.0
 10
3.6628200000000004
 20
0.08833
 30
0.0
 10
3.8101400000000005
 20
-0.346
 30
0.0
 10
4.0819200000000002
 20
-0.8082800000000001
 30
0.0
 10
4.1098600000000003
 20
-1.2781800000000001
 30
0.0
 10
4.1098600000000003
 20
-1.2781800000000001
 30
0.0
 10
4.0006400000000006
 20
-1.1410200000000001
 30
0.0
 10
3.9320600000000003
 20
-0.7473200000000001
 30
0.0
 10
3.7923600000000004
 20
-0.7447800000000001
 30
0.0
 10
3.7923600000000004
 20
-0.7447800000000001
 30
0.0
 10
4.2317800000000005
 20
-1.7176000000000002
 30
0.0
 10
4.5289600000000005
 20
-2.8047200000000001
 30
0.0
 10
4.4248200000000004
 20
-3.8486600000000002
 30
0.0
 10
4.4248200000000004
 20
-3.8486600000000002
 30
0.0
 10
4.2978200000000006
 20
-3.5413200000000002
 30
0.0
 10
4.0768400000000007
 20
-2.6751800000000001
 30
0.0
 10
3.9803200000000003
 20
-2.7056600000000004
 30
0.0
 10
3.9803200000000003
 20
-2.7056600000000004
 30
0.0
 10
4.2825800000000003
 20
-3.5743400000000003
 30
0.0
 10
4.5746800000000007
 20
-4.6309800000000001
 30
0.0
 10
4.0311200000000005
 20
-5.5022000000000002
 30
0.0
 10
4.0311200000000005
 20
-5.5022000000000002
 30
0.0
 10
3.4697800000000001
 20
-5.0500800000000003
 30
0.0
 10
3.4901000000000004
 20
-4.2144200000000005
 30
0.0
 10
3.3021400000000001
 20
-3.6429200000000002
 30
0.0
 10
3.3021400000000001
 20
-3.6429200000000002
 30
0.0
 10
3.2640400000000001
 20
-3.9528000000000003
 30
0.0
 10
3.3732600000000001
 20
-4.2830000000000004
 30
0.0
 10
3.4342200000000003
 20
-4.5979600000000005
 30
0.0
 10
3.4342200000000003
 20
-4.5979600000000005
 30
0.0
 10
3.0633800000000004
 20
-4.2169600000000003
 30
0.0
 10
2.5884
 20
-3.4905200000000001
 30
0.0
 10
2.6468200000000004
 20
-2.85806
 30
0.0
 10
2.6468200000000004
 20
-2.85806
 30
0.0
 10
2.4868000000000001
 20
-2.81996
 30
0.0
 10
2.5706200000000003
 20
-3.4575000000000005
 30
0.0
 10
2.6671400000000003
 20
-3.7242000000000002
 30
0.0
 10
2.6671400000000003
 20
-3.7242000000000002
 30
0.0
 10
2.2734400000000003
 20
-3.2390600000000003
 30
0.0
 10
2.2328000000000001
 20
-2.5253200000000002
 30
0.0
 10
2.1743800000000002
 20
-1.9284200000000002
 30
0.0
 10
2.1743800000000002
 20
-1.9284200000000002
 30
0.0
 10
2.0016600000000002
 20
-2.3348200000000001
 30
0.0
 10
2.2556600000000002
 20
-2.8453600000000003
 30
0.0
 10
2.24804
 20
-3.2924000000000002
 30
0.0
 10
2.24804
 20
-3.2924000000000002
 30
0.0
 10
1.8873600000000001
 20
-3.0003000000000002
 30
0.0
 10
1.8365600000000002
 20
-2.4592800000000001
 30
0.0
 10
1.7476600000000002
 20
-2.0274800000000002
 30
0.0
 10
1.7476600000000002
 20
-2.0274800000000002
 30
0.0
 10
1.6181200000000002
 20
-2.2281400000000002
 30
0.0
 10
1.7248000000000001
 20
-2.5913600000000003
 30
0.0
 10
1.6867000000000001
 20
-2.8301200000000004
 30
0.0
 10
1.6867000000000001
 20
-2.8301200000000004
 30
0.0
 10
1.11266
 20
-2.5126200000000001
 30
0.0
 10
1.0364600000000002
 20
-1.8192000000000002
 30
0.0
 10
0.9094600000000001
 20
-1.2604000000000002
 30
0.0
 10
0.9094600000000001
 20
-1.2604000000000002
 30
0.0
 10
0.7748400000000001
 20
-1.5398000000000001
 30
0.0
 10
0.8637400000000001
 20
-1.9614400000000001
 30
0.0
 10
0.9170800000000001
 20
-2.2891000000000004
 30
0.0
 10
0.9170800000000001
 20
-2.2891000000000004
 30
0.0
 10
0.46496
 20
-2.2891000000000004
 30
0.0
 10
-0.12685
 20
-2.3018000000000001
 30
0.0
 10
-0.40371
 20
-1.8141200000000002
 30
0.0
 10
-0.40371
 20
-1.8141200000000002
 30
0.0
 10
-0.5408700000000001
 20
-1.3264400000000001
 30
0.0
 10
-0.33767
 20
-0.7879600000000001
 30
0.0
 10
-0.08113
 20
-0.3968
 30
0.0
 10
-0.08113
 20
-0.3968
 30
0.0
 10
-0.19543
 20
-0.3536200000000001
 30
0.0
 10
-0.26909
 20
-0.47554
 30
0.0
 10
-0.31735
 20
-0.55428
 30
0.0
 10
-0.31735
 20
-0.55428
 30
0.0
 10
-0.4291100000000001
 20
-0.75748
 30
0.0
 10
-0.58913
 20
-0.45522
 30
0.0
 10
-0.55611
 20
-0.32314
 30
0.0
 10
-0.55611
 20
-0.32314
 30
0.0
 10
-0.52563
 20
0.39567
 30
0.0
 10
0.86882
 20
0.6903100000000001
 30
0.0
 10
0.7138800000000001
 20
-0.02342
 30
0.0
 10
0.7138800000000001
 20
-0.02342
 30
0.0
 10
1.2599800000000001
 20
0.43631
 30
0.0
 10
0.74436
 20
1.3329300000000002
 30
0.0
 10
1.4835
 20
1.7266300000000001
 30
0.0
  0
SPLINE
  5
2D
100
AcDbEntity
  8
Ebene 1
 62
     7
100
AcDbSpline
210
0.0
220
0.0
230
1.0
 70
     1
 71
     3
 72
    80
 73
    76
 74
     0
 42
0.0000000001
 43
0.0000000001
 40
0.0
 40
0.0
 40
0.0
 40
0.0
 40
0.0526315789473684
 40
0.0526315789473684
 40
0.0526315789473684
 40
0.0526315789473684
 40
0.1052631578947368
 40
0.1052631578947368
 40
0.1052631578947368
 40
0.1052631578947368
 40
0.1578947368421053
 40
0.1578947368421053
 40
0.1578947368421053
 40
0.1578947368421053
 40
0.2105263157894737
 40
0.2105263157894737
 40
0.2105263157894737
 40
0.2105263157894737
 40
0.2631578947368421
 40
0.2631578947368421
 40
0.2631578947368421
 40
0.2631578947368421
 40
0.3157894736842105
 40
0.3157894736842105
 40
0.3157894736842105
 40
0.3157894736842105
 40
0.3684210526315789
 40
0.3684210526315789
 40
0.3684210526315789
 40
0.3684210526315789
 40
0.4210526315789474
 40
0.4210526315789474
 40
0.4210526315789474
 40
0.4210526315789474
 40
0.4736842105263158
 40
0.4736842105263158
 40
0.4736842105263158
 40
0.4736842105263158
 40
0.5263157894736842
 40
0.5263157894736842
 40
0.5263157894736842
 40
0.5263157894736842
 40
0.5789473684210527
 40
0.5789473684210527
 40
0.5789473684210527
 40
0.5789473684210527
 40
0.631578947368421
 40
0.631578947368421
 40
0.631578947368421
 40
0.631578947368421
 40
0.6842105263157894
 40
0.6842105263157894
 40
0.6842105263157894
 40
0.6842105263157894
 40
0.7368421052631577
 40
0.7368421052631577
 40
0.7368421052631577
 40
0.7368421052631577
 40
0.7894736842105261
 40
0.7894736842105261
 40
0.7894736842105261
 40
0.7894736842105261
 40
0.8421052631578945
 40
0.8421052631578945
 40
0.8421052631578945
 40
0.8421052631578945
 40
0.8947368421052628
 40
0.8947368421052628
 40
0.8947368421052628
 40
0.8947368421052628
 40
0.9473684210526312
 40
0.9473684210526312
 40
0.9473684210526312
 40
0.9473684210526312
 40
1.0
 40
1.0
 40
1.0
 40
1.0
 10
2.2810600000000001
 20
-4.3312600000000003
 30
0.0
 10
2.2810600000000001
 20
-4.3312600000000003
 30
0.0
 10
2.7001600000000003
 20
-4.5903400000000003
 30
0.0
 10
2.7001600000000003
 20
-4.5903400000000003
 30
0.0
 10
2.7001600000000003
 20
-4.5903400000000003
 30
0.0
 10
2.8373200000000001
 20
-4.5700200000000004
 30
0.0
 10
2.7027000000000001
 20
-4.43032
 30
0.0
 10
2.5807800000000003
 20
-4.3287200000000006
 30
0.0
 10
2.5807800000000003
 20
-4.3287200000000006
 30
0.0
 10
2.12358
 20
-3.9528000000000003
 30
0.0
 10
1.4606400000000002
 20
-3.4905200000000001
 30
0.0
 10
0.9424800000000001
 20
-3.1679400000000002
 30
0.0
 10
0.9424800000000001
 20
-3.1679400000000002
 30
0.0
 10
1.0796400000000002
 20
-3.1374600000000004
 30
0.0
 10
1.35904
 20
-3.3330400000000004
 30
0.0
 10
1.4098400000000002
 20
-3.1603200000000005
 30
0.0
 10
1.4098400000000002
 20
-3.1603200000000005
 30
0.0
 10
0.51322
 20
-2.9622000000000002
 30
0.0
 10
-0.4799100000000001
 20
-2.9317200000000003
 30
0.0
 10
-1.3181100000000001
 20
-2.5685000000000002
 30
0.0
 10
-1.3181100000000001
 20
-2.5685000000000002
 30
0.0
 10
-1.3968500000000001
 20
-2.4669000000000003
 30
0.0
 10
-1.4552700000000001
 20
-2.3475200000000003
 30
0.0
 10
-1.4781300000000002
 20
-2.2129000000000003
 30
0.0
 10
-1.4781300000000002
 20
-2.2129000000000003
 30
0.0
 10
-1.2850900000000001
 20
-2.2916400000000001
 30
0.0
 10
-1.1149100000000001
 20
-2.5837400000000001
 30
0.0
 10
-0.9193300000000001
 20
-2.5405600000000002
 30
0.0
 10
-0.9193300000000001
 20
-2.5405600000000002
 30
0.0
 10
-1.3511300000000002
 20
-1.9106400000000001
 30
0.0
 10
-2.1359900000000001
 20
-1.4407400000000001
 30
0.0
 10
-2.3442700000000003
 20
-0.6635000000000001
 30
0.0
 10
-2.3442700000000003
 20
-0.6635000000000001
 30
0.0
 10
-1.8337300000000001
 20
-0.90988
 30
0.0
 10
-1.6229100000000001
 20
-1.41534
 30
0.0
 10
-1.1961900000000001
 20
-1.7988800000000003
 30
0.0
 10
-1.1961900000000001
 20
-1.7988800000000003
 30
0.0
 10
-0.9472700000000001
 20
-1.9309600000000002
 30
0.0
 10
-0.8304300000000001
 20
-1.54234
 30
0.0
 10
-1.0945900000000002
 20
-1.7480800000000001
 30
0.0
 10
-1.0945900000000002
 20
-1.7480800000000001
 30
0.0
 10
-1.2825500000000001
 20
-1.6515600000000001
 30
0.0
 10
-1.0082300000000002
 20
-1.3594600000000001
 30
0.0
 10
-1.0666500000000001
 20
-1.1334000000000002
 30
0.0
 10
-1.0666500000000001
 20
-1.1334000000000002
 30
0.0
 10
-1.0641100000000001
 20
-0.9556000000000001
 30
0.0
 10
-1.1885700000000001
 20
-0.80066
 30
0.0
 10
-1.2774700000000001
 20
-0.6660400000000001
 30
0.0
 10
-1.2774700000000001
 20
-0.6660400000000001
 30
0.0
 10
-1.07681
 20
-0.61778
 30
0.0
 10
-0.9066300000000001
 20
-0.7498600000000001
 30
0.0
 10
-0.82281
 20
-0.9225800000000001
 30
0.0
 10
-0.82281
 20
-0.9225800000000001
 30
0.0
 10
-0.82281
 20
-0.9225800000000001
 30
0.0
 10
-0.7770900000000001
 20
-0.7930400000000001
 30
0.0
 10
-0.7770900000000001
 20
-0.7930400000000001
 30
0.0
 10
-0.7770900000000001
 20
-0.7930400000000001
 30
0.0
 10
-0.3656100000000001
 20
-0.99116
 30
0.0
 10
-0.74153
 20
-1.6820400000000002
 30
0.0
 10
-0.4392700000000001
 20
-2.0071600000000003
 30
0.0
 10
-0.4392700000000001
 20
-2.0071600000000003
 30
0.0
 10
-0.4392700000000001
 20
-2.0071600000000003
 30
0.0
 10
0.03316
 20
-2.3729200000000001
 30
0.0
 10
0.03316
 20
-2.3729200000000001
 30
0.0
 10
0.03316
 20
-2.3729200000000001
 30
0.0
 10
0.03316
 20
-2.3729200000000001
 30
0.0
 10
1.0110600000000001
 20
-2.5202400000000003
 30
0.0
 10
1.0110600000000001
 20
-2.5202400000000003
 30
0.0
 10
1.0110600000000001
 20
-2.5202400000000003
 30
0.0
 10
2.0296000000000003
 20
-3.3940000000000001
 30
0.0
 10
3.4824800000000002
 20
-4.19156
 30
0.0
 10
3.6044000000000005
 20
-5.5403000000000002
 30
0.0
 10
3.6044000000000005
 20
-5.5403000000000002
 30
0.0
 10
3.1497400000000004
 20
-5.1516800000000007
 30
0.0
 10
2.6823800000000002
 20
-4.7681400000000007
 30
0.0
 10
2.2810600000000001
 20
-4.3312600000000003
 30
0.0
  0
SPLINE
  5
2E
100
AcDbEntity
  8
Ebene 1
100
AcDbSpline
210
0.0
220
0.0
230
1.0
 70
     1
 71
     3
 72
    20
 73
    16
 74
     0
 42
0.0000000001
 43
0.0000000001
 40
0.0
 40
0.0
 40
0.0
 40
0.0
 40
0.25
 40
0.25
 40
0.25
 40
0.25
 40
0.5
 40
0.5
 40
0.5
 40
0.5
 40
0.75
 40
0.75
 40
0.75
 40
0.75
 40
1.0
 40
1.0
 40
1.0
 40
1.0
 10
1.3438000000000001
 20
0.4109100000000001
 30
0.0
 10
1.3438000000000001
 20
0.4109100000000001
 30
0.0
 10
1.4352400000000001
 20
0.43631
 30
0.0
 10
1.4352400000000001
 20
0.43631
 30
0.0
 10
1.4352400000000001
 20
0.43631
 30
0.0
 10
1.8441800000000002
 20
0.22549
 30
0.0
 10
2.2429600000000001
 20
-0.20884
 30
0.0
 10
2.1921600000000003
 20
-0.69906
 30
0.0
 10
2.1921600000000003
 20
-0.69906
 30
0.0
 10
2.1159600000000003
 20
-0.4044200000000001
 30
0.0
 10
1.6206600000000002
 20
-0.1047
 30
0.0
 10
1.3946000000000001
 20
-0.2317
 30
0.0
 10
1.3946000000000001
 20
-0.2317
 30
0.0
 10
1.3184
 20
-0.03104
 30
0.0
 10
1.27014
 20
0.20009
 30
0.0
 10
1.3438000000000001
 20
0.4109100000000001
 30
0.0
  0
ENDSEC
  0
SECTION
  2
OBJECTS
  0
DICTIONARY
  5
19
100
AcDbDictionary
280
     0
281
     1
  3
ACAD_GROUP
350
1A
  3
ACAD_MLINESTYLE
350
1B
  3
ACAD_LAYOUT
350
1E
  3
ACAD_PLOTSETTINGS
350
22
  3
ACAD_PLOTSTYLENAME
350
1F
  3
ACAD_WIPEOUT_VARS
350
23
  0
DICTIONARY
  5
1A
102
{ACAD_REACTORS
330
19
102
}
100
AcDbDictionary
280
     0
281
     1
  0
DICTIONARY
  5
1B
102
{ACAD_REACTORS
330
19
102
}
100
AcDbDictionary
280
     0
281
     1
  3
Standard
350
1C
  0
MLINESTYLE
  5
1C
102
{ACAD_REACTORS
330
1B
102
}
100
AcDbMlineStyle
  2
Standard
 70
     0
  3

 62
     0
 51
90.0
 52
90.0
 71
     2
 49
0.5
 62
   256
  6
BYLAYER
 49
-0.5
 62
   256
  6
BYLAYER
  0
ACDBDICTIONARYWDFLT
  5
1F
102
{ACAD_REACTORS
330
19
102
}
100
AcDbDictionary
281
     1
  3
Normal
350
1D
100
AcDbDictionaryWithDefault
340
1D
  0
ACDBPLACEHOLDER
  5
1D
102
{ACAD_REACTORS
330
1F
102
}
  0
LAYOUT
  5
20
102
{ACAD_REACTORS
330
1E
102
}
100
AcDbPlotSettings
  1

  2

  4

  6

 40
0.0
 41
0.0
 42
0.0
 43
0.0
 44
0.0
 45
0.0
 46
0.0
 47
0.0
 48
0.0
 49
0.0
140
0.0
141
0.0
142
1.0
143
1.0
 70
  1024
 72
     0
 73
     0
 74
     0
  7

 75
     0
147
1.0
148
0.0
149
0.0
100
AcDbLayout
  1
Model
 70
     0
 71
     0
 10
0.0
 20
0.0
 11
0.0
 21
0.0
 12
0.0
 22
0.0
 32
0.0
 14
0.0
 24
0.0
 34
0.0
 15
0.0
 25
0.0
 35
0.0
146
0.0
 13
0.0
 23
0.0
 33
0.0
 16
0.0
 26
0.0
 36
0.0
 17
0.0
 27
0.0
 37
0.0
 76
     0
330
A
331
0
345
0
346
0
  0
LAYOUT
  5
21
102
{ACAD_REACTORS
330
1E
102
}
100
AcDbPlotSettings
  1

  2

  4

  6

 40
0.0
 41
0.0
 42
0.0
 43
0.0
 44
0.0
 45
0.0
 46
0.0
 47
0.0
 48
0.0
 49
0.0
140
0.0
141
0.0
142
1.0
143
1.0
 70
     0
 72
     0
 73
     0
 74
     0
  7

 75
     0
147
1.0
148
0.0
149
0.0
100
AcDbLayout
  1
Layout1
 70
     0
 71
     0
 10
0.0
 20
0.0
 11
0.0
 21
0.0
 12
0.0
 22
0.0
 32
0.0
 14
0.0
 24
0.0
 34
0.0
 15
0.0
 25
0.0
 35
0.0
146
0.0
 13
0.0
 23
0.0
 33
0.0
 16
0.0
 26
0.0
 36
0.0
 17
0.0
 27
0.0
 37
0.0
 76
     0
330
B
331
0
345
0
346
0
  0
DICTIONARY
  5
1E
102
{ACAD_REACTORS
330
19
102
}
100
AcDbDictionary
280
     0
281
     1
  3
Layout1
350
21
  3
Model
350
20
  0
DICTIONARY
  5
22
102
{ACAD_REACTORS
330
19
102
}
100
AcDbDictionary
280
     0
281
     1
  0
WIPEOUTVARIABLES
  5
23
100
AcDbWipeoutVariables
 70
     1
  0
ENDSEC
  0
EOF
