  0
SECTION
  2
HEADER
  9
$ACADVER
  1
AC1015
  9
$ACADMAINTVER
 70
     6
  9
$DWGCODEPAGE
  3
DOS850
  9
$INSBASE
 10
0.0
 20
0.0
 30
0.0
  9
$EXTMIN
 10
-4.59979
 20
-5.16692
 30
1.000000E+20
  9
$EXTMAX
 10
4.60475
 20
5.15973
 30
-1.000000E+20
  9
$LIMMIN
 10
0.0
 20
0.0
  9
$LIMMAX
 10
0.0
 20
0.0
  9
$ORTHOMODE
 70
     0
  9
$REGENMODE
 70
     1
  9
$FILLMODE
 70
     1
  9
$QTEXTMODE
 70
     0
  9
$MIRRTEXT
 70
     1
  9
$LTSCALE
 40
1.0
  9
$ATTMODE
 70
     1
  9
$TEXTSIZE
 40
0.2
  9
$TRACEWID
 40
0.05
  9
$TEXTSTYLE
  7
Standard
  9
$CLAYER
  8
0
  9
$CELTYPE
  6
Continuous
  9
$CECOLOR
 62
   256
  9
$CELTSCALE
 40
1.0
  9
$DISPSILH
 70
     0
  9
$DIMSCALE
 40
1.0
  9
$DIMASZ
 40
0.18
  9
$DIMEXO
 40
0.0625
  9
$DIMDLI
 40
0.38
  9
$DIMRND
 40
0.0
  9
$DIMDLE
 40
0.0
  9
$DIMEXE
 40
0.18
  9
$DIMTP
 40
0.0
  9
$DIMTM
 40
0.0
  9
$DIMTXT
 40
0.18
  9
$DIMCEN
 40
0.09
  9
$DIMTSZ
 40
0.0
  9
$DIMTOL
 70
     0
  9
$DIMLIM
 70
     0
  9
$DIMTIH
 70
     1
  9
$DIMTOH
 70
     1
  9
$DIMSE1
 70
     0
  9
$DIMSE2
 70
     0
  9
$DIMTAD
 70
     0
  9
$DIMZIN
 70
     0
  9
$DIMBLK
  1

  9
$DIMASO
 70
     1
  9
$DIMSHO
 70
     1
  9
$DIMPOST
  1

  9
$DIMAPOST
  1

  9
$DIMALT
 70
     0
  9
$DIMALTD
 70
     2
  9
$DIMALTF
 40
25.4
  9
$DIMLFAC
 40
1.0
  9
$DIMTOFL
 70
     0
  9
$DIMTVP
 40
0.0
  9
$DIMTIX
 70
     0
  9
$DIMSOXD
 70
     0
  9
$DIMSAH
 70
     0
  9
$DIMBLK1
  1

  9
$DIMBLK2
  1

  9
$DIMSTYLE
  2
Standard
  9
$DIMCLRD
 70
     0
  9
$DIMCLRE
 70
     0
  9
$DIMCLRT
 70
     0
  9
$DIMTFAC
 40
1.0
  9
$DIMGAP
 40
0.09
  9
$DIMJUST
 70
     0
  9
$DIMSD1
 70
     0
  9
$DIMSD2
 70
     0
  9
$DIMTOLJ
 70
     1
  9
$DIMTZIN
 70
     0
  9
$DIMALTZ
 70
     0
  9
$DIMALTTZ
 70
     0
  9
$DIMUPT
 70
     0
  9
$DIMDEC
 70
     4
  9
$DIMTDEC
 70
     4
  9
$DIMALTU
 70
     2
  9
$DIMALTTD
 70
     2
  9
$DIMTXSTY
  7
Standard
  9
$DIMAUNIT
 70
     0
  9
$DIMADEC
 70
     0
  9
$DIMALTRND
 40
0.0
  9
$DIMAZIN
 70
     0
  9
$DIMDSEP
 70
     0
  9
$DIMATFIT
 70
     3
  9
$DIMFRAC
 70
     0
  9
$DIMLDRBLK
  1

  9
$DIMLUNIT
 70
     2
  9
$DIMLWD
 70
     0
  9
$DIMLWE
 70
     0
  9
$DIMTMOVE
 70
     0
  9
$LUNITS
 70
     2
  9
$LUPREC
 70
     4
  9
$SKETCHINC
 40
0.1
  9
$FILLETRAD
 40
0.0
  9
$AUNITS
 70
     0
  9
$AUPREC
 70
     0
  9
$MENU
  1
acad
  9
$ELEVATION
 40
0.0
  9
$PELEVATION
 40
0.0
  9
$THICKNESS
 40
0.0
  9
$LIMCHECK
 70
     0
  9
$CHAMFERA
 40
0.0
  9
$CHAMFERB
 40
0.0
  9
$CHAMFERC
 40
0.0
  9
$CHAMFERD
 40
0.0
  9
$SKPOLY
 70
     0
  9
$TDCREATE
 40
0.000000000
  9
$TDUCREATE
 40
0.000000000
  9
$TDUPDATE
 40
0.000000000
  9
$TDUUPDATE
 40
0.000000000
  9
$TDINDWG
 40
0.0000000000
  9
$TDUSRTIMER
 40
0.0000000000
  9
$USRTIMER
 70
     1
  9
$ANGBASE
 50
0.0
  9
$ANGDIR
 70
     0
  9
$PDMODE
 70
     0
  9
$PDSIZE
 40
0.0
  9
$PLINEWID
 40
0.0
  9
$SPLFRAME
 70
     0
  9
$SPLINETYPE
 70
     6
  9
$SPLINESEGS
 70
     8
  9
$HANDSEED
  5
42
  9
$SURFTAB1
 70
     6
  9
$SURFTAB2
 70
     6
  9
$SURFTYPE
 70
     6
  9
$SURFU
 70
     6
  9
$SURFV
 70
     6
  9
$UCSBASE
  2

  9
$UCSNAME
  2

  9
$UCSORG
 10
0.0
 20
0.0
 30
0.0
  9
$UCSXDIR
 10
1.0
 20
0.0
 30
0.0
  9
$UCSYDIR
 10
0.0
 20
1.0
 30
0.0
  9
$UCSORTHOREF
  2

  9
$UCSORTHOVIEW
 70
     0
  9
$UCSORGTOP
 10
0.0
 20
0.0
 30
0.0
  9
$UCSORGBOTTOM
 10
0.0
 20
0.0
 30
0.0
  9
$UCSORGLEFT
 10
0.0
 20
0.0
 30
0.0
  9
$UCSORGRIGHT
 10
0.0
 20
0.0
 30
0.0
  9
$UCSORGFRONT
 10
0.0
 20
0.0
 30
0.0
  9
$UCSORGBACK
 10
0.0
 20
0.0
 30
0.0
  9
$PUCSBASE
  2

  9
$PUCSNAME
  2

  9
$PUCSORG
 10
0.0
 20
0.0
 30
0.0
  9
$PUCSXDIR
 10
1.0
 20
0.0
 30
0.0
  9
$PUCSYDIR
 10
0.0
 20
1.0
 30
0.0
  9
$PUCSORTHOREF
  2

  9
$PUCSORTHOVIEW
 70
     0
  9
$PUCSORGTOP
 10
0.0
 20
0.0
 30
0.0
  9
$PUCSORGBOTTOM
 10
0.0
 20
0.0
 30
0.0
  9
$PUCSORGLEFT
 10
0.0
 20
0.0
 30
0.0
  9
$PUCSORGRIGHT
 10
0.0
 20
0.0
 30
0.0
  9
$PUCSORGFRONT
 10
0.0
 20
0.0
 30
0.0
  9
$PUCSORGBACK
 10
0.0
 20
0.0
 30
0.0
  9
$USERI1
 70
     0
  9
$USERI2
 70
     0
  9
$USERI3
 70
     0
  9
$USERI4
 70
     0
  9
$USERI5
 70
     0
  9
$USERR1
 40
0.0
  9
$USERR2
 40
0.0
  9
$USERR3
 40
0.0
  9
$USERR4
 40
0.0
  9
$USERR5
 40
0.0
  9
$WORLDVIEW
 70
     1
  9
$SHADEDGE
 70
     3
  9
$SHADEDIF
 70
    70
  9
$TILEMODE
 70
     1
  9
$MAXACTVP
 70
    16
  9
$PINSBASE
 10
0.0
 20
0.0
 30
0.0
  9
$PLIMCHECK
 70
     0
  9
$PEXTMIN
 10
1.000000E+20
 20
1.000000E+20
 30
1.000000E+20
  9
$PEXTMAX
 10
-1.000000E+20
 20
-1.000000E+20
 30
-1.000000E+20
  9
$PLIMMIN
 10
0.0
 20
0.0
  9
$PLIMMAX
 10
12.0
 20
9.0
  9
$UNITMODE
 70
     0
  9
$VISRETAIN
 70
     0
  9
$PLINEGEN
 70
     1
  9
$PSLTSCALE
 70
     0
  9
$TREEDEPTH
 70
  3020
  9
$CMLSTYLE
  2
Standard
  9
$CMLJUST
 70
     0
  9
$CMLSCALE
 40
1.0
  9
$PROXYGRAPHICS
 70
     0
  9
$MEASUREMENT
 70
     0
  9
$CELWEIGHT
370
     0
  9
$ENDCAPS
280
     0
  9
$JOINSTYLE
280
     0
  9
$LWDISPLAY
290
     0
  9
$INSUNITS
 70
     5
  9
$HYPERLINKBASE
  1

  9
$XEDIT
290
     1
  9
$CEPSNTYPE
380
     0
  9
$PSTYLEMODE
290
     1
  9
$FINGERPRINTGUID
  2

  9
$VERSIONGUID
  2

  9
$EXTNAMES
290
     1
  9
$PSVPSCALE
 40
0.0
  0
ENDSEC
  0
SECTION
  2
CLASSES
  0
CLASS
  1
LWPOLYLINE
  2
AcDbPolyline
  3
AutoCAD 2000
 90
    32768
280
     0
281
     1
  0
CLASS
  1
IMAGE
  2
AcDbRasterImage
  3
ISM
 90
    32895
280
     0
281
     1
  0
CLASS
  1
OLE2FRAME
  2
AcDbOle2Frame
  3
AutoCAD 2000
 90
    32768
280
     0
281
     1
  0
CLASS
  1
HATCH
  2
AcDbHatch
  3
AutoCAD 2000
 90
    32768
280
     0
281
     1
  0
CLASS
  1
DICTIONARYVAR
  2
AcDbDictionaryVar
  3
AutoCAD 2000
 90
    32768
280
     0
281
     0
  0
CLASS
  1
RASTERVARIABLES
  2
AcDbRasterVariables
  3
ISM
 90
    32768
280
     0
281
     0
  0
CLASS
  1
IMAGEDEF
  2
AcDbRasterImageDef
  3
ISM
 90
    32768
280
     0
281
     0
  0
CLASS
  1
IMAGEDEF_REACTOR
  2
AcDbRasterImageDefReactor
  3
ISM
 90
    32769
280
     0
281
     0
  0
CLASS
  1
IDBUFFER
  2
AcDbIdBuffer
  3
AutoCAD 2000
 90
    32768
280
     0
281
     0
  0
CLASS
  1
SPATIAL_FILTER
  2
AcDbSpatialFilter
  3
AutoCAD 2000
 90
    32768
280
     0
281
     0
  0
CLASS
  1
XRECORD
  2
AcDbXrecord
  3
AutoCAD 2000
 90
    32768
280
     0
281
     0
  0
CLASS
  1
SORTENTSTABLE
  2
AcDbSortentsTable
  3
AutoCAD 2000
 90
    32768
280
     0
281
     0
  0
CLASS
  1
LAYER_INDEX
  2
AcDbLayerIndex
  3
AutoCAD 2000
 90
    32768
280
     0
281
     0
  0
CLASS
  1
SPATIAL_INDEX
  2
AcDbSpatialIndex
  3
AutoCAD 2000
 90
    32768
280
     0
281
     0
  0
CLASS
  1
OBJECT_PTR
  2
CAseDLPNTableRecord
  3
"ASE-LPNTableRecord"
 90
    32769
280
     0
281
     0
  0
CLASS
  1
LAYOUT
  2
AcDbLayout
  3
AutoCAD 2000
 90
        0
280
     0
281
     0
  0
CLASS
  1
PLOTSETTINGS
  2
AcDbPlotSettings
  3
AutoCAD 2000
 90
    32768
280
     0
281
     0
  0
CLASS
  1
ACDBDICTIONARYWDFLT
  2
AcDbDictionaryWithDefault
  3
AutoCAD 2000
 90
        0
280
     0
281
     0
  0
CLASS
  1
ACDBPLACEHOLDER
  2
AcDbPlaceHolder
  3
AutoCAD 2000
 90
        0
280
     0
281
     0
  0
CLASS
  1
VBA_PROJECT
  2
AcDbVbaProject
  3
acadvba
 90
    32768
280
     0
281
     0
  0
CLASS
  1
WIPEOUT
  2
AcDbWipeout
  3
WipeOut|AutoCAD Express Tool|expresstools@autodesk.com
 90
    32895
280
     0
281
     1
  0
CLASS
  1
WIPEOUTVARIABLES
  2
AcDbWipeoutVariables
  3
WipeOut|AutoCAD Express Tool|expresstools@autodesk.com
 90
        0
280
     0
281
     0
  0
CLASS
  1
RTEXT
  2
RText
  3
RText|AutoCAD Express Tool|expresstools@autodesk.com
 90
    32768
280
     0
281
     1
  0
CLASS
  1
ARCALIGNEDTEXT
  2
AcDbArcAlignedText
  3
ATEXT|AutoCAD Express Tool|expresstools@autodesk.com
 90
    32768
280
     0
281
     1
  0
ENDSEC
  0
SECTION
  2
TABLES
  0
TABLE
  2
VPORT
  5
7
100
AcDbSymbolTable
 70
     1
  0
VPORT
  5
15
100
AcDbSymbolTableRecord
100
AcDbViewportTableRecord
  2
*ACTIVE
 70
     0
 10
0.0
 20
0.0
 11
1.0
 21
1.0
 12
6.591288
 22
4.579184
 13
0.0
 23
0.0
 14
1.0
 24
1.0
 15
0.0
 25
0.0
 16
0.0
 26
0.0
 36
1.0
 17
0.0
 27
0.0
 37
0.0
 40
9.158369
 41
0.688564
 42
50.0
 43
0.0
 44
0.0
 50
0.0
 51
0.0
 71
     0
 72
   100
 73
     1
 74
     1
 75
     0
 76
     0
 77
     0
 78
     0
281
     0
 65
     0
110
0.0
120
0.0
130
0.0
111
1.0
121
0.0
131
0.0
112
0.0
122
1.0
132
0.0
345
0
346
0
 79
     0
146
0.0
  0
ENDTAB
  0
TABLE
  2
LTYPE
  5
4
100
AcDbSymbolTable
 70
     3
  0
LTYPE
  5
11
100
AcDbSymbolTableRecord
100
AcDbLinetypeTableRecord
  2
ByBlock
 70
    64
  3

 72
    65
 73
     0
 40
0.0
  0
LTYPE
  5
12
100
AcDbSymbolTableRecord
100
AcDbLinetypeTableRecord
  2
ByLayer
 70
    64
  3

 72
    65
 73
     0
 40
0.0
  0
LTYPE
  5
13
100
AcDbSymbolTableRecord
100
AcDbLinetypeTableRecord
  2
Continuous
 70
    64
  3
Solid line
 72
    65
 73
     0
 40
0.0
  0
ENDTAB
  0
TABLE
  2
LAYER
  5
2
100
AcDbSymbolTable
 70
     2
  0
LAYER
  5
14
100
AcDbSymbolTableRecord
100
AcDbLayerTableRecord
  2
0
 70
     0
 62
     7
  6
Continuous
290
     1
370
    -3
390
1D
  0
LAYER
  5
24
100
AcDbSymbolTableRecord
100
AcDbLayerTableRecord
  2
Ebene 1
 70
     0
 62
     7
  6
Continuous
290
     1
370
    -3
390
1F
  0
ENDTAB
  0
TABLE
  2
STYLE
  5
3
100
AcDbSymbolTable
 70
     1
  0
STYLE
  5
17
100
AcDbSymbolTableRecord
100
AcDbTextStyleTableRecord
  2
Standard
 70
     0
 40
0.0
 41
1.0
 50
0.0
 71
     0
 42
0.0
  3
txt
  4

  0
ENDTAB
  0
TABLE
  2
VIEW
  5
5
100
AcDbSymbolTable
 70
     0
  0
ENDTAB
  0
TABLE
  2
UCS
  5
6
100
AcDbSymbolTable
 70
     0
  0
ENDTAB
  0
TABLE
  2
APPID
  5
8
100
AcDbSymbolTable
 70
     1
  0
APPID
  5
16
100
AcDbSymbolTableRecord
100
AcDbRegAppTableRecord
  2
ACAD
 70
     0
  0
ENDTAB
  0
TABLE
  2
DIMSTYLE
  5
9
100
AcDbSymbolTable
 70
     1
100
AcDbDimStyleTable
 71
     0
  0
DIMSTYLE
105
18
100
AcDbSymbolTableRecord
100
AcDbDimStyleTableRecord
  2
Standard
 70
     0
  3

  4

 40
1.0
 41
0.18
 42
0.0625
 43
0.38
 44
0.18
 45
0.0
 46
0.0
 47
0.0
 48
0.0
 71
     0
 72
     0
 73
     1
 74
     1
 75
     0
 76
     0
 77
     0
 78
     0
 79
     0
140
0.18
141
0.09
142
0.0
143
25.4
144
1.0
145
0.0
146
1.0
147
0.09
148
0.0
170
     0
171
     2
172
     0
173
     0
174
     0
175
     0
176
     0
177
     0
178
     0
179
     0
271
     4
272
     4
273
     2
274
     2
275
     0
276
     0
277
     2
278
    46
279
     0
280
     0
281
     0
282
     0
283
     1
284
     0
285
     0
286
     0
288
     0
340
17
341
0
342
0
343
0
344
0
371
    -2
372
    -2
  0
ENDTAB
  0
TABLE
  2
BLOCK_RECORD
  5
1
100
AcDbSymbolTable
 70
     0
  0
BLOCK_RECORD
  5
A
100
AcDbSymbolTableRecord
100
AcDbBlockTableRecord
  2
*MODEL_SPACE
340
20
  0
BLOCK_RECORD
  5
B
100
AcDbSymbolTableRecord
100
AcDbBlockTableRecord
  2
*PAPER_SPACE
340
21
  0
ENDTAB
  0
ENDSEC
  0
SECTION
  2
BLOCKS
  0
BLOCK
  5
D
100
AcDbEntity
  8
0
100
AcDbBlockBegin
  2
*MODEL_SPACE
 70
     0
 10
0.0
 20
0.0
 30
0.0
  3
*MODEL_SPACE
  1

  0
ENDBLK
  5
E
100
AcDbEntity
  8
0
100
AcDbBlockEnd
  0
BLOCK
  5
F
100
AcDbEntity
 67
     1
  8
0
100
AcDbBlockBegin
  2
*PAPER_SPACE
 70
     0
 10
0.0
 20
0.0
 30
0.0
  3
*PAPER_SPACE
  1

  0
ENDBLK
  5
10
100
AcDbEntity
 67
     1
  8
0
100
AcDbBlockEnd
  0
ENDSEC
  0
SECTION
  2
ENTITIES
  0
SPLINE
  5
25
100
AcDbEntity
  8
Ebene 1
100
AcDbSpline
210
0.0
220
0.0
230
1.0
 70
     1
 71
     3
 72
    48
 73
    44
 74
     0
 42
0.0000000001
 43
0.0000000001
 40
0.0
 40
0.0
 40
0.0
 40
0.0
 40
0.0909090909090909
 40
0.0909090909090909
 40
0.0909090909090909
 40
0.0909090909090909
 40
0.1818181818181818
 40
0.1818181818181818
 40
0.1818181818181818
 40
0.1818181818181818
 40
0.2727272727272727
 40
0.2727272727272727
 40
0.2727272727272727
 40
0.2727272727272727
 40
0.3636363636363637
 40
0.3636363636363637
 40
0.3636363636363637
 40
0.3636363636363637
 40
0.4545454545454546
 40
0.4545454545454546
 40
0.4545454545454546
 40
0.4545454545454546
 40
0.5454545454545455
 40
0.5454545454545455
 40
0.5454545454545455
 40
0.5454545454545455
 40
0.6363636363636365
 40
0.6363636363636365
 40
0.6363636363636365
 40
0.6363636363636365
 40
0.7272727272727274
 40
0.7272727272727274
 40
0.7272727272727274
 40
0.7272727272727274
 40
0.8181818181818183
 40
0.8181818181818183
 40
0.8181818181818183
 40
0.8181818181818183
 40
0.9090909090909093
 40
0.9090909090909093
 40
0.9090909090909093
 40
0.9090909090909093
 40
1.0
 40
1.0
 40
1.0
 40
1.0
 10
-0.7491500000000001
 20
5.1327700000000007
 30
0.0
 10
-2.9868900000000003
 20
5.4426500000000004
 30
0.0
 10
-4.61503
 20
3.0296500000000002
 30
0.0
 10
-4.5997900000000005
 20
1.0408300000000001
 30
0.0
 10
-4.5997900000000005
 20
1.0408300000000001
 30
0.0
 10
-4.51851
 20
0.43377
 30
0.0
 10
-4.0181300000000002
 20
-0.06406
 30
0.0
 10
-3.5202900000000001
 20
-0.39172
 30
0.0
 10
-3.5202900000000001
 20
-0.39172
 30
0.0
 10
-3.6168100000000001
 20
-0.6000000000000001
 30
0.0
 10
-3.5837900000000005
 20
-0.86416
 30
0.0
 10
-3.6015700000000002
 20
-1.0978400000000001
 30
0.0
 10
-3.6015700000000002
 20
-1.0978400000000001
 30
0.0
 10
-2.9259300000000001
 20
-1.8954000000000002
 30
0.0
 10
-2.77861
 20
-2.9368000000000003
 30
0.0
 10
-2.4585700000000004
 20
-3.8791400000000005
 30
0.0
 10
-2.4585700000000004
 20
-3.8791400000000005
 30
0.0
 10
-0.46213
 20
-4.7681400000000007
 30
0.0
 10
1.7959200000000002
 20
-4.7097200000000008
 30
0.0
 10
3.8787200000000004
 20
-5.1669200000000002
 30
0.0
 10
3.8787200000000004
 20
-5.1669200000000002
 30
0.0
 10
4.3181400000000005
 20
-4.4912800000000006
 30
0.0
 10
4.75502
 20
-3.7826200000000001
 30
0.0
 10
4.3867200000000004
 20
-2.9520400000000002
 30
0.0
 10
4.3867200000000004
 20
-2.9520400000000002
 30
0.0
 10
4.9150400000000003
 20
-2.3094200000000003
 30
0.0
 10
4.3511600000000001
 20
-1.5779000000000001
 30
0.0
 10
4.0946199999999999
 20
-0.9378200000000001
 30
0.0
 10
4.0946199999999999
 20
-0.9378200000000001
 30
0.0
 10
4.3511600000000001
 20
-0.2444
 30
0.0
 10
3.9269800000000004
 20
0.6242700000000001
 30
0.0
 10
3.2919800000000001
 20
0.8681100000000001
 30
0.0
 10
3.2919800000000001
 20
0.8681100000000001
 30
0.0
 10
3.2919800000000001
 20
0.8681100000000001
 30
0.0
 10
3.2411800000000004
 20
1.0890900000000001
 30
0.0
 10
3.2411800000000004
 20
1.0890900000000001
 30
0.0
 10
3.2411800000000004
 20
1.0890900000000001
 30
0.0
 10
3.7085400000000002
 20
1.5589900000000001
 30
0.0
 10
3.4951800000000004
 20
2.2778100000000001
 30
0.0
 10
3.0506800000000003
 20
2.6892900000000002
 30
0.0
 10
3.0506800000000003
 20
2.6892900000000002
 30
0.0
 10
2.6950800000000004
 20
4.4291900000000002
 30
0.0
 10
0.7570600000000001
 20
4.9473500000000001
 30
0.0
 10
-0.7491500000000001
 20
5.1327700000000007
 30
0.0
  0
SPLINE
  5
26
100
AcDbEntity
  8
Ebene 1
100
AcDbSpline
210
0.0
220
0.0
230
1.0
 70
     1
 71
     3
 72
    20
 73
    16
 74
     0
 42
0.0000000001
 43
0.0000000001
 40
0.0
 40
0.0
 40
0.0
 40
0.0
 40
0.25
 40
0.25
 40
0.25
 40
0.25
 40
0.5
 40
0.5
 40
0.5
 40
0.5
 40
0.75
 40
0.75
 40
0.75
 40
0.75
 40
1.0
 40
1.0
 40
1.0
 40
1.0
 10
-2.2960100000000003
 20
-0.7752600000000001
 30
0.0
 10
-2.2960100000000003
 20
-0.7752600000000001
 30
0.0
 10
-2.1359900000000001
 20
-0.8667
 30
0.0
 10
-2.1359900000000001
 20
-0.8667
 30
0.0
 10
-2.1359900000000001
 20
-0.8667
 30
0.0
 10
-1.7321300000000002
 20
-0.9632200000000001
 30
0.0
 10
-1.5238500000000001
 20
-1.4940800000000001
 30
0.0
 10
-1.6203700000000001
 20
-1.8649200000000001
 30
0.0
 10
-1.6203700000000001
 20
-1.8649200000000001
 30
0.0
 10
-1.6686300000000001
 20
-1.8801600000000001
 30
0.0
 10
-1.7168900000000002
 20
-1.8471400000000002
 30
0.0
 10
-1.7651500000000002
 20
-1.8319000000000001
 30
0.0
 10
-1.7651500000000002
 20
-1.8319000000000001
 30
0.0
 10
-2.02169
 20
-1.5321800000000001
 30
0.0
 10
-2.36205
 20
-1.1816600000000002
 30
0.0
 10
-2.2960100000000003
 20
-0.7752600000000001
 30
0.0
  0
SPLINE
  5
27
100
AcDbEntity
  8
Ebene 1
100
AcDbSpline
210
0.0
220
0.0
230
1.0
 70
     1
 71
     3
 72
    32
 73
    28
 74
     0
 42
0.0000000001
 43
0.0000000001
 40
0.0
 40
0.0
 40
0.0
 40
0.0
 40
0.1428571428571429
 40
0.1428571428571429
 40
0.1428571428571429
 40
0.1428571428571429
 40
0.2857142857142857
 40
0.2857142857142857
 40
0.2857142857142857
 40
0.2857142857142857
 40
0.4285714285714286
 40
0.4285714285714286
 40
0.4285714285714286
 40
0.4285714285714286
 40
0.5714285714285714
 40
0.5714285714285714
 40
0.5714285714285714
 40
0.5714285714285714
 40
0.7142857142857142
 40
0.7142857142857142
 40
0.7142857142857142
 40
0.7142857142857142
 40
0.857142857142857
 40
0.857142857142857
 40
0.857142857142857
 40
0.857142857142857
 40
1.0
 40
1.0
 40
1.0
 40
1.0
 10
-0.05827
 20
-1.2731000000000001
 30
0.0
 10
-0.05827
 20
-1.2731000000000001
 30
0.0
 10
0.11698
 20
-1.4356600000000002
 30
0.0
 10
0.11698
 20
-1.4356600000000002
 30
0.0
 10
0.11698
 20
-1.4356600000000002
 30
0.0
 10
-0.01001
 20
-1.6769600000000002
 30
0.0
 10
0.06618
 20
-1.9512800000000001
 30
0.0
 10
0.08396
 20
-2.2179800000000003
 30
0.0
 10
0.08396
 20
-2.2179800000000003
 30
0.0
 10
0.08396
 20
-2.2179800000000003
 30
0.0
 10
-0.02525
 20
-2.09606
 30
0.0
 10
-0.02525
 20
-2.09606
 30
0.0
 10
-0.02525
 20
-2.09606
 30
0.0
 10
-0.17257
 20
-2.2967200000000001
 30
0.0
 10
-0.22083
 20
-2.5456400000000001
 30
0.0
 10
-0.20305
 20
-2.7996400000000001
 30
0.0
 10
-0.20305
 20
-2.7996400000000001
 30
0.0
 10
-0.20305
 20
-2.7996400000000001
 30
0.0
 10
-0.28433
 20
-2.8479000000000001
 30
0.0
 10
-0.28433
 20
-2.8479000000000001
 30
0.0
 10
-0.28433
 20
-2.8479000000000001
 30
0.0
 10
-0.5586500000000001
 20
-2.8555200000000003
 30
0.0
 10
-0.71867
 20
-2.5380200000000004
 30
0.0
 10
-0.71867
 20
-2.2891000000000004
 30
0.0
 10
-0.71867
 20
-2.2891000000000004
 30
0.0
 10
-0.6069100000000001
 20
-1.8979400000000002
 30
0.0
 10
-0.28433
 20
-1.6058400000000002
 30
0.0
 10
-0.05827
 20
-1.2731000000000001
 30
0.0
  0
SPLINE
  5
28
100
AcDbEntity
  8
Ebene 1
 62
     7
100
AcDbSpline
210
0.0
220
0.0
230
1.0
 70
     1
 71
     3
 72
   208
 73
   204
 74
     0
 42
0.0000000001
 43
0.0000000001
 40
0.0
 40
0.0
 40
0.0
 40
0.0
 40
0.0196078431372549
 40
0.0196078431372549
 40
0.0196078431372549
 40
0.0196078431372549
 40
0.0392156862745098
 40
0.0392156862745098
 40
0.0392156862745098
 40
0.0392156862745098
 40
0.0588235294117647
 40
0.0588235294117647
 40
0.0588235294117647
 40
0.0588235294117647
 40
0.0784313725490196
 40
0.0784313725490196
 40
0.0784313725490196
 40
0.0784313725490196
 40
0.0980392156862745
 40
0.0980392156862745
 40
0.0980392156862745
 40
0.0980392156862745
 40
0.1176470588235294
 40
0.1176470588235294
 40
0.1176470588235294
 40
0.1176470588235294
 40
0.1372549019607843
 40
0.1372549019607843
 40
0.1372549019607843
 40
0.1372549019607843
 40
0.1568627450980392
 40
0.1568627450980392
 40
0.1568627450980392
 40
0.1568627450980392
 40
0.1764705882352941
 40
0.1764705882352941
 40
0.1764705882352941
 40
0.1764705882352941
 40
0.196078431372549
 40
0.196078431372549
 40
0.196078431372549
 40
0.196078431372549
 40
0.2156862745098039
 40
0.2156862745098039
 40
0.2156862745098039
 40
0.2156862745098039
 40
0.2352941176470588
 40
0.2352941176470588
 40
0.2352941176470588
 40
0.2352941176470588
 40
0.2549019607843137
 40
0.2549019607843137
 40
0.2549019607843137
 40
0.2549019607843137
 40
0.2745098039215685
 40
0.2745098039215685
 40
0.2745098039215685
 40
0.2745098039215685
 40
0.2941176470588234
 40
0.2941176470588234
 40
0.2941176470588234
 40
0.2941176470588234
 40
0.3137254901960783
 40
0.3137254901960783
 40
0.3137254901960783
 40
0.3137254901960783
 40
0.3333333333333332
 40
0.3333333333333332
 40
0.3333333333333332
 40
0.3333333333333332
 40
0.3529411764705881
 40
0.3529411764705881
 40
0.3529411764705881
 40
0.3529411764705881
 40
0.372549019607843
 40
0.372549019607843
 40
0.372549019607843
 40
0.372549019607843
 40
0.3921568627450979
 40
0.3921568627450979
 40
0.3921568627450979
 40
0.3921568627450979
 40
0.4117647058823528
 40
0.4117647058823528
 40
0.4117647058823528
 40
0.4117647058823528
 40
0.4313725490196076
 40
0.4313725490196076
 40
0.4313725490196076
 40
0.4313725490196076
 40
0.4509803921568625
 40
0.4509803921568625
 40
0.4509803921568625
 40
0.4509803921568625
 40
0.4705882352941174
 40
0.4705882352941174
 40
0.4705882352941174
 40
0.4705882352941174
 40
0.4901960784313723
 40
0.4901960784313723
 40
0.4901960784313723
 40
0.4901960784313723
 40
0.5098039215686272
 40
0.5098039215686272
 40
0.5098039215686272
 40
0.5098039215686272
 40
0.5294117647058821
 40
0.5294117647058821
 40
0.5294117647058821
 40
0.5294117647058821
 40
0.5490196078431371
 40
0.5490196078431371
 40
0.5490196078431371
 40
0.5490196078431371
 40
0.568627450980392
 40
0.568627450980392
 40
0.568627450980392
 40
0.568627450980392
 40
0.588235294117647
 40
0.588235294117647
 40
0.588235294117647
 40
0.588235294117647
 40
0.6078431372549019
 40
0.6078431372549019
 40
0.6078431372549019
 40
0.6078431372549019
 40
0.6274509803921569
 40
0.6274509803921569
 40
0.6274509803921569
 40
0.6274509803921569
 40
0.6470588235294118
 40
0.6470588235294118
 40
0.6470588235294118
 40
0.6470588235294118
 40
0.6666666666666667
 40
0.6666666666666667
 40
0.6666666666666667
 40
0.6666666666666667
 40
0.6862745098039217
 40
0.6862745098039217
 40
0.6862745098039217
 40
0.6862745098039217
 40
0.7058823529411766
 40
0.7058823529411766
 40
0.7058823529411766
 40
0.7058823529411766
 40
0.7254901960784316
 40
0.7254901960784316
 40
0.7254901960784316
 40
0.7254901960784316
 40
0.7450980392156865
 40
0.7450980392156865
 40
0.7450980392156865
 40
0.7450980392156865
 40
0.7647058823529415
 40
0.7647058823529415
 40
0.7647058823529415
 40
0.7647058823529415
 40
0.7843137254901964
 40
0.7843137254901964
 40
0.7843137254901964
 40
0.7843137254901964
 40
0.8039215686274513
 40
0.8039215686274513
 40
0.8039215686274513
 40
0.8039215686274513
 40
0.8235294117647063
 40
0.8235294117647063
 40
0.8235294117647063
 40
0.8235294117647063
 40
0.8431372549019612
 40
0.8431372549019612
 40
0.8431372549019612
 40
0.8431372549019612
 40
0.8627450980392162
 40
0.8627450980392162
 40
0.8627450980392162
 40
0.8627450980392162
 40
0.8823529411764711
 40
0.8823529411764711
 40
0.8823529411764711
 40
0.8823529411764711
 40
0.9019607843137261
 40
0.9019607843137261
 40
0.9019607843137261
 40
0.9019607843137261
 40
0.921568627450981
 40
0.921568627450981
 40
0.921568627450981
 40
0.921568627450981
 40
0.941176470588236
 40
0.941176470588236
 40
0.941176470588236
 40
0.941176470588236
 40
0.9607843137254909
 40
0.9607843137254909
 40
0.9607843137254909
 40
0.9607843137254909
 40
0.9803921568627458
 40
0.9803921568627458
 40
0.9803921568627458
 40
0.9803921568627458
 40
1.0
 40
1.0
 40
1.0
 40
1.0
 10
-0.8634500000000001
 20
4.9879900000000008
 30
0.0
 10
-1.8286500000000001
 20
4.9803700000000006
 30
0.0
 10
-2.9081500000000005
 20
4.6984300000000001
 30
0.0
 10
-3.4237700000000002
 20
3.7992700000000004
 30
0.0
 10
-3.4237700000000002
 20
3.7992700000000004
 30
0.0
 10
-3.2789900000000003
 20
3.8653100000000005
 30
0.0
 10
-2.98943
 20
4.1548700000000007
 30
0.0
 10
-2.9411700000000001
 20
4.0253300000000003
 30
0.0
 10
-2.9411700000000001
 20
4.0253300000000003
 30
0.0
 10
-3.6828500000000002
 20
3.5808300000000002
 30
0.0
 10
-4.0841700000000003
 20
2.75787
 30
0.0
 10
-4.3584900000000006
 20
1.9907900000000001
 30
0.0
 10
-4.3584900000000006
 20
1.9907900000000001
 30
0.0
 10
-4.4067500000000006
 20
1.5513700000000001
 30
0.0
 10
-4.4067500000000006
 20
1.0890900000000001
 30
0.0
 10
-4.2289500000000002
 20
0.6928500000000001
 30
0.0
 10
-4.2289500000000002
 20
0.6928500000000001
 30
0.0
 10
-3.3602700000000003
 20
-0.53142
 30
0.0
 10
-1.8616700000000002
 20
0.00705
 30
0.0
 10
-0.6704100000000001
 20
0.22549
 30
0.0
 10
-0.6704100000000001
 20
0.22549
 30
0.0
 10
-0.23607
 20
0.9290700000000001
 30
0.0
 10
-1.3460500000000002
 20
1.31769
 30
0.0
 10
-1.3943100000000002
 20
1.9577700000000002
 30
0.0
 10
-1.3943100000000002
 20
1.9577700000000002
 30
0.0
 10
-1.1377700000000002
 20
2.4327500000000004
 30
0.0
 10
0.0357
 20
2.5546700000000002
 30
0.0
 10
-0.4291100000000001
 20
3.2455500000000002
 30
0.0
 10
-0.4291100000000001
 20
3.2455500000000002
 30
0.0
 10
-0.29957
 20
3.2150700000000003
 30
0.0
 10
-0.18781
 20
3.1033100000000005
 30
0.0
 10
-0.10653
 20
2.9940900000000004
 30
0.0
 10
-0.10653
 20
2.9940900000000004
 30
0.0
 10
0.00268
 20
2.8518500000000002
 30
0.0
 10
-0.10653
 20
2.6842100000000002
 30
0.0
 10
-0.22083
 20
2.5927700000000002
 30
0.0
 10
-0.22083
 20
2.5927700000000002
 30
0.0
 10
-0.5408700000000001
 20
2.47085
 30
0.0
 10
-0.71867
 20
2.1609700000000003
 30
0.0
 10
-1.04125
 20
2.0898500000000002
 30
0.0
 10
-1.04125
 20
2.0898500000000002
 30
0.0
 10
-1.0234700000000001
 20
1.44215
 30
0.0
 10
-0.46213
 20
1.1729100000000001
 30
0.0
 10
-0.17257
 20
0.6699900000000001
 30
0.0
 10
-0.17257
 20
0.6699900000000001
 30
0.0
 10
-0.09129
 20
0.42869
 30
0.0
 10
-0.34783
 20
0.4109100000000001
 30
0.0
 10
-0.3656100000000001
 20
0.20517
 30
0.0
 10
-0.3656100000000001
 20
0.20517
 30
0.0
 10
-0.38085
 20
0.10357
 30
0.0
 10
-0.3960900000000001
 20
-0.01072
 30
0.0
 10
-0.29957
 20
-0.09454
 30
0.0
 10
-0.29957
 20
-0.09454
 30
0.0
 10
-0.01001
 20
0.19247
 30
0.0
 10
-0.01001
 20
0.4617100000000001
 30
0.0
 10
-0.18781
 20
0.8604900000000001
 30
0.0
 10
-0.18781
 20
0.8604900000000001
 30
0.0
 10
-0.22591
 20
1.4269100000000001
 30
0.0
 10
-0.01509
 20
0.34487
 30
0.0
 10
0.3354200000000001
 20
0.40329
 30
0.0
 10
0.3354200000000001
 20
0.40329
 30
0.0
 10
-0.15225
 20
0.15183
 30
0.0
 10
-0.22845
 20
-0.1555
 30
0.0
 10
-0.18781
 20
-0.5492
 30
0.0
 10
-0.18781
 20
-0.5492
 30
0.0
 10
0.11698
 20
-1.0064000000000002
 30
0.0
 10
0.8866000000000001
 20
-0.48316
 30
0.0
 10
1.11012
 20
-1.0927600000000002
 30
0.0
 10
1.11012
 20
-1.0927600000000002
 30
0.0
 10
0.9755
 20
-1.03434
 30
0.0
 10
0.7291200000000001
 20
-0.8565400000000001
 30
0.0
 10
0.6478400000000001
 20
-0.9403600000000001
 30
0.0
 10
0.6478400000000001
 20
-0.9403600000000001
 30
0.0
 10
0.7113400000000001
 20
-1.1842000000000001
 30
0.0
 10
0.74436
 20
-1.4534400000000001
 30
0.0
 10
0.7291200000000001
 20
-1.7049000000000001
 30
0.0
 10
0.7291200000000001
 20
-1.7049000000000001
 30
0.0
 10
0.8231000000000001
 20
-1.5398000000000001
 30
0.0
 10
1.0796400000000002
 20
-1.6007600000000002
 30
0.0
 10
1.1736200000000001
 20
-1.7379200000000001
 30
0.0
 10
1.1736200000000001
 20
-1.7379200000000001
 30
0.0
 10
1.2828400000000002
 20
-1.5525000000000002
 30
0.0
 10
1.2041000000000002
 20
-1.3391400000000002
 30
0.0
 10
1.19648
 20
-1.16642
 30
0.0
 10
1.19648
 20
-1.16642
 30
0.0
 10
1.4174600000000002
 20
-1.3239000000000001
 30
0.0
 10
1.3565
 20
-1.6083800000000001
 30
0.0
 10
1.3107800000000001
 20
-1.8319000000000001
 30
0.0
 10
1.3107800000000001
 20
-1.8319000000000001
 30
0.0
 10
1.4301600000000001
 20
-1.7887200000000001
 30
0.0
 10
1.4987400000000002
 20
-1.7709400000000002
 30
0.0
 10
1.61304
 20
-1.7633200000000002
 30
0.0
 10
1.61304
 20
-1.7633200000000002
 30
0.0
 10
1.6790800000000001
 20
-1.7607800000000002
 30
0.0
 10
1.6790800000000001
 20
-1.9716000000000002
 30
0.0
 10
1.8391000000000002
 20
-1.7404600000000001
 30
0.0
 10
1.8391000000000002
 20
-1.7404600000000001
 30
0.0
 10
1.8568800000000001
 20
-2.3195800000000002
 30
0.0
 10
2.0677000000000003
 20
-1.6642600000000001
 30
0.0
 10
1.9457800000000001
 20
-1.4128000000000001
 30
0.0
 10
1.9457800000000001
 20
-1.4128000000000001
 30
0.0
 10
2.2455000000000003
 20
-1.5601200000000002
 30
0.0
 10
1.9457800000000001
 20
-2.0808200000000001
 30
0.0
 10
2.3852000000000002
 20
-2.1265400000000003
 30
0.0
 10
2.3852000000000002
 20
-2.1265400000000003
 30
0.0
 10
2.5172800000000004
 20
-1.9309600000000002
 30
0.0
 10
2.4283800000000002
 20
-1.6464800000000002
 30
0.0
 10
2.4664800000000002
 20
-1.4509000000000001
 30
0.0
 10
2.4664800000000002
 20
-1.4509000000000001
 30
0.0
 10
2.5782400000000001
 20
-1.8065000000000002
 30
0.0
 10
2.63158
 20
-2.6294600000000004
 30
0.0
 10
2.8525600000000004
 20
-2.09606
 30
0.0
 10
2.8525600000000004
 20
-2.09606
 30
0.0
 10
2.8525600000000004
 20
-2.09606
 30
0.0
 10
2.8982800000000002
 20
-2.2281400000000002
 30
0.0
 10
2.8982800000000002
 20
-2.2281400000000002
 30
0.0
 10
2.8982800000000002
 20
-2.2281400000000002
 30
0.0
 10
3.1040200000000002
 20
-2.7132800000000001
 30
0.0
 10
2.8500200000000002
 20
-1.8446000000000002
 30
0.0
 10
2.8728800000000003
 20
-1.6642600000000001
 30
0.0
 10
2.8728800000000003
 20
-1.6642600000000001
 30
0.0
 10
2.9948000000000001
 20
-1.9563600000000001
 30
0.0
 10
3.1675200000000001
 20
-2.6980400000000002
 30
0.0
 10
3.3859600000000003
 20
-2.0300200000000004
 30
0.0
 10
3.3859600000000003
 20
-2.0300200000000004
 30
0.0
 10
3.7695000000000003
 20
-2.2433800000000002
 30
0.0
 10
3.8609400000000003
 20
-2.3195800000000002
 30
0.0
 10
3.6755200000000001
 20
-1.8700000000000001
 30
0.0
 10
3.6755200000000001
 20
-1.8700000000000001
 30
0.0
 10
3.6755200000000001
 20
-1.8700000000000001
 30
0.0
 10
3.6526600000000005
 20
-1.6795000000000002
 30
0.0
 10
3.6526600000000005
 20
-1.6795000000000002
 30
0.0
 10
3.6526600000000005
 20
-1.6795000000000002
 30
0.0
 10
3.7085400000000002
 20
-1.5067800000000002
 30
0.0
 10
3.7212400000000003
 20
-1.8928600000000002
 30
0.0
 10
3.7974400000000004
 20
-1.9538200000000001
 30
0.0
 10
3.7974400000000004
 20
-1.9538200000000001
 30
0.0
 10
3.7974400000000004
 20
-1.9538200000000001
 30
0.0
 10
3.8634800000000005
 20
-2.4770600000000003
 30
0.0
 10
3.8634800000000005
 20
-2.4770600000000003
 30
0.0
 10
3.8634800000000005
 20
-2.4770600000000003
 30
0.0
 10
3.8279200000000002
 20
-1.9639800000000001
 30
0.0
 10
4.4222800000000007
 20
-2.0122400000000003
 30
0.0
 10
3.9955600000000002
 20
-1.5169400000000002
 30
0.0
 10
3.9955600000000002
 20
-1.5169400000000002
 30
0.0
 10
3.9041200000000003
 20
-1.3391400000000002
 30
0.0
 10
4.0514400000000004
 20
-1.4077200000000001
 30
0.0
 10
4.0870000000000006
 20
-1.5347200000000001
 30
0.0
 10
4.0870000000000006
 20
-1.5347200000000001
 30
0.0
 10
4.1454200000000005
 20
-1.6058400000000002
 30
0.0
 10
4.19876
 20
-1.6795000000000002
 30
0.0
 10
4.2317800000000005
 20
-1.7607800000000002
 30
0.0
 10
4.2317800000000005
 20
-1.7607800000000002
 30
0.0
 10
4.2495600000000007
 20
-1.9182600000000001
 30
0.0
 10
4.2825800000000003
 20
-1.9106400000000001
 30
0.0
 10
4.4095800000000001
 20
-1.8649200000000001
 30
0.0
 10
4.4095800000000001
 20
-1.8649200000000001
 30
0.0
 10
4.4095800000000001
 20
-1.8649200000000001
 30
0.0
 10
4.0641400000000001
 20
-1.1562600000000001
 30
0.0
 10
4.0641400000000001
 20
-1.1562600000000001
 30
0.0
 10
4.0641400000000001
 20
-1.1562600000000001
 30
0.0
 10
4.0082599999999999
 20
-1.0241800000000001
 30
0.0
 10
3.9549200000000004
 20
-1.0648200000000001
 30
0.0
 10
3.9066600000000005
 20
-1.2146800000000002
 30
0.0
 10
3.9066600000000005
 20
-1.2146800000000002
 30
0.0
 10
3.9066600000000005
 20
-1.2146800000000002
 30
0.0
 10
3.7110800000000004
 20
-1.2477
 30
0.0
 10
3.7110800000000004
 20
-1.2477
 30
0.0
 10
3.7110800000000004
 20
-1.2477
 30
0.0
 10
4.2698800000000006
 20
-0.7320800000000001
 30
0.0
 10
4.0793800000000005
 20
0.91383
 30
0.0
 10
3.1624400000000001
 20
0.43377
 30
0.0
 10
3.1624400000000001
 20
0.43377
 30
0.0
 10
3.3427800000000003
 20
0.61919
 30
0.0
 10
3.2208600000000001
 20
0.7817500000000001
 30
0.0
 10
3.0329000000000002
 20
0.89351
 30
0.0
 10
3.0329000000000002
 20
0.89351
 30
0.0
 10
2.9465400000000002
 20
0.7766700000000001
 30
0.0
 10
3.1091000000000002
 20
0.5836300000000001
 30
0.0
 10
3.0024200000000003
 20
0.48203
 30
0.0
 10
3.0024200000000003
 20
0.48203
 30
0.0
 10
3.0024200000000003
 20
0.48203
 30
0.0
 10
2.8195400000000004
 20
0.8808100000000001
 30
0.0
 10
2.8195400000000004
 20
0.8808100000000001
 30
0.0
 10
2.8195400000000004
 20
0.8808100000000001
 30
0.0
 10
2.7281000000000004
 20
1.1729100000000001
 30
0.0
 10
3.1091000000000002
 20
1.5031100000000002
 30
0.0
 10
2.8398600000000003
 20
1.8104500000000001
 30
0.0
 10
2.8398600000000003
 20
1.8104500000000001
 30
0.0
 10
3.0481400000000001
 20
1.6783700000000001
 30
0.0
 10
3.0430600000000001
 20
1.3405500000000001
 30
0.0
 10
3.0786200000000004
 20
1.1221100000000002
 30
0.0
 10
3.0786200000000004
 20
1.1221100000000002
 30
0.0
 10
3.7364800000000002
 20
1.4243700000000001
 30
0.0
 10
3.3758000000000004
 20
2.7934300000000003
 30
0.0
 10
2.6468200000000004
 20
2.3184500000000003
 30
0.0
 10
2.6468200000000004
 20
2.3184500000000003
 30
0.0
 10
3.0760800000000001
 20
2.8543900000000004
 30
0.0
 10
2.6646000000000001
 20
3.5681300000000005
 30
0.0
 10
2.20486
 20
4.0177100000000001
 30
0.0
 10
2.20486
 20
4.0177100000000001
 30
0.0
 10
1.3412600000000001
 20
4.7365300000000001
 30
0.0
 10
0.22874
 20
4.9270300000000002
 30
0.0
 10
-0.8634500000000001
 20
4.9879900000000008
 30
0.0
  0
SPLINE
  5
29
100
AcDbEntity
  8
Ebene 1
100
AcDbSpline
210
0.0
220
0.0
230
1.0
 70
     1
 71
     3
 72
    24
 73
    20
 74
     0
 42
0.0000000001
 43
0.0000000001
 40
0.0
 40
0.0
 40
0.0
 40
0.0
 40
0.2
 40
0.2
 40
0.2
 40
0.2
 40
0.4
 40
0.4
 40
0.4
 40
0.4
 40
0.6000000000000001
 40
0.6000000000000001
 40
0.6000000000000001
 40
0.6000000000000001
 40
0.8
 40
0.8
 40
0.8
 40
0.8
 40
1.0
 40
1.0
 40
1.0
 40
1.0
 10
-1.8769100000000001
 20
3.6341700000000001
 30
0.0
 10
-2.2172700000000001
 20
3.6417900000000003
 30
0.0
 10
-2.5931900000000003
 20
3.6671900000000002
 30
0.0
 10
-2.8522700000000003
 20
3.4131900000000002
 30
0.0
 10
-2.8522700000000003
 20
3.4131900000000002
 30
0.0
 10
-3.2383500000000001
 20
3.2506300000000001
 30
0.0
 10
-3.4237700000000002
 20
2.7426300000000001
 30
0.0
 10
-3.3272500000000003
 20
2.3819500000000002
 30
0.0
 10
-3.3272500000000003
 20
2.3819500000000002
 30
0.0
 10
-2.9868900000000003
 20
4.0939100000000002
 30
0.0
 10
-0.99553
 20
3.1896700000000004
 30
0.0
 10
-1.0082300000000002
 20
3.4538300000000004
 30
0.0
 10
-1.0082300000000002
 20
3.4538300000000004
 30
0.0
 10
-1.1047500000000001
 20
3.5224100000000003
 30
0.0
 10
-1.2342900000000001
 20
3.5300300000000004
 30
0.0
 10
-1.3460500000000002
 20
3.5579700000000001
 30
0.0
 10
-1.3460500000000002
 20
3.5579700000000001
 30
0.0
 10
-1.3460500000000002
 20
3.5579700000000001
 30
0.0
 10
-1.8769100000000001
 20
3.6341700000000001
 30
0.0
 10
-1.8769100000000001
 20
3.6341700000000001
 30
0.0
  0
SPLINE
  5
2A
100
AcDbEntity
  8
Ebene 1
100
AcDbSpline
210
0.0
220
0.0
230
1.0
 70
     1
 71
     3
 72
    32
 73
    28
 74
     0
 42
0.0000000001
 43
0.0000000001
 40
0.0
 40
0.0
 40
0.0
 40
0.0
 40
0.1428571428571429
 40
0.1428571428571429
 40
0.1428571428571429
 40
0.1428571428571429
 40
0.2857142857142857
 40
0.2857142857142857
 40
0.2857142857142857
 40
0.2857142857142857
 40
0.4285714285714286
 40
0.4285714285714286
 40
0.4285714285714286
 40
0.4285714285714286
 40
0.5714285714285714
 40
0.5714285714285714
 40
0.5714285714285714
 40
0.5714285714285714
 40
0.7142857142857142
 40
0.7142857142857142
 40
0.7142857142857142
 40
0.7142857142857142
 40
0.857142857142857
 40
0.857142857142857
 40
0.857142857142857
 40
0.857142857142857
 40
1.0
 40
1.0
 40
1.0
 40
1.0
 10
-0.3960900000000001
 20
3.3776300000000004
 30
0.0
 10
-0.4291100000000001
 20
3.3852500000000001
 30
0.0
 10
-0.46213
 20
3.3649300000000002
 30
0.0
 10
-0.44435
 20
3.3319100000000001
 30
0.0
 10
-0.44435
 20
3.3319100000000001
 30
0.0
 10
-0.22083
 20
3.2709500000000005
 30
0.0
 10
-0.04303
 20
3.1210900000000001
 30
0.0
 10
0.14746
 20
2.9940900000000004
 30
0.0
 10
0.14746
 20
2.9940900000000004
 30
0.0
 10
1.0796400000000002
 20
2.9585300000000001
 30
0.0
 10
2.1388200000000004
 20
2.5343500000000003
 30
0.0
 10
2.6722200000000003
 20
1.7545700000000002
 30
0.0
 10
2.6722200000000003
 20
1.7545700000000002
 30
0.0
 10
2.7408000000000001
 20
1.9018900000000001
 30
0.0
 10
2.6163400000000001
 20
2.0796900000000003
 30
0.0
 10
2.5579200000000002
 20
2.2295500000000001
 30
0.0
 10
2.5579200000000002
 20
2.2295500000000001
 30
0.0
 10
2.5579200000000002
 20
2.2295500000000001
 30
0.0
 10
2.4614000000000003
 20
2.3260700000000001
 30
0.0
 10
2.4614000000000003
 20
2.3260700000000001
 30
0.0
 10
2.4614000000000003
 20
2.3260700000000001
 30
0.0
 10
1.6765400000000001
 20
2.5368900000000001
 30
0.0
 10
1.0771000000000002
 20
3.2455500000000002
 30
0.0
 10
0.22874
 20
3.1820500000000003
 30
0.0
 10
0.22874
 20
3.1820500000000003
 30
0.0
 10
0.22874
 20
3.1820500000000003
 30
0.0
 10
-0.3960900000000001
 20
3.3776300000000004
 30
0.0
 10
-0.3960900000000001
 20
3.3776300000000004
 30
0.0
  0
SPLINE
  5
2B
100
AcDbEntity
  8
Ebene 1
100
AcDbSpline
210
0.0
220
0.0
230
1.0
 70
     1
 71
     3
 72
    72
 73
    68
 74
     0
 42
0.0000000001
 43
0.0000000001
 40
0.0
 40
0.0
 40
0.0
 40
0.0
 40
0.0588235294117647
 40
0.0588235294117647
 40
0.0588235294117647
 40
0.0588235294117647
 40
0.1176470588235294
 40
0.1176470588235294
 40
0.1176470588235294
 40
0.1176470588235294
 40
0.1764705882352941
 40
0.1764705882352941
 40
0.1764705882352941
 40
0.1764705882352941
 40
0.2352941176470588
 40
0.2352941176470588
 40
0.2352941176470588
 40
0.2352941176470588
 40
0.2941176470588235
 40
0.2941176470588235
 40
0.2941176470588235
 40
0.2941176470588235
 40
0.3529411764705883
 40
0.3529411764705883
 40
0.3529411764705883
 40
0.3529411764705883
 40
0.411764705882353
 40
0.411764705882353
 40
0.411764705882353
 40
0.411764705882353
 40
0.4705882352941177
 40
0.4705882352941177
 40
0.4705882352941177
 40
0.4705882352941177
 40
0.5294117647058824
 40
0.5294117647058824
 40
0.5294117647058824
 40
0.5294117647058824
 40
0.5882352941176471
 40
0.5882352941176471
 40
0.5882352941176471
 40
0.5882352941176471
 40
0.6470588235294118
 40
0.6470588235294118
 40
0.6470588235294118
 40
0.6470588235294118
 40
0.7058823529411765
 40
0.7058823529411765
 40
0.7058823529411765
 40
0.7058823529411765
 40
0.7647058823529412
 40
0.7647058823529412
 40
0.7647058823529412
 40
0.7647058823529412
 40
0.823529411764706
 40
0.823529411764706
 40
0.823529411764706
 40
0.823529411764706
 40
0.8823529411764707
 40
0.8823529411764707
 40
0.8823529411764707
 40
0.8823529411764707
 40
0.9411764705882354
 40
0.9411764705882354
 40
0.9411764705882354
 40
0.9411764705882354
 40
1.0
 40
1.0
 40
1.0
 40
1.0
 10
1.06948
 20
1.3710300000000002
 30
0.0
 10
1.2676000000000001
 20
1.32277
 30
0.0
 10
1.7705200000000001
 20
0.9824100000000001
 30
0.0
 10
2.0270600000000001
 20
0.8376300000000001
 30
0.0
 10
2.0270600000000001
 20
0.8376300000000001
 30
0.0
 10
1.4682600000000001
 20
1.0154300000000001
 30
0.0
 10
0.9043800000000001
 20
0.63951
 30
0.0
 10
0.43702
 20
0.41345
 30
0.0
 10
0.43702
 20
0.41345
 30
0.0
 10
0.48782
 20
0.36011
 30
0.0
 10
0.5665600000000001
 20
0.43377
 30
0.0
 10
0.61482
 20
0.4007500000000001
 30
0.0
 10
0.61482
 20
0.4007500000000001
 30
0.0
 10
0.8942200000000001
 20
0.5455300000000001
 30
0.0
 10
1.19394
 20
0.6699900000000001
 30
0.0
 10
1.5012800000000002
 20
0.7512700000000001
 30
0.0
 10
1.5012800000000002
 20
0.7512700000000001
 30
0.0
 10
1.9153000000000002
 20
0.7334900000000001
 30
0.0
 10
2.3090000000000002
 20
0.61411
 30
0.0
 10
2.6620600000000003
 20
0.4007500000000001
 30
0.0
 10
2.6620600000000003
 20
0.4007500000000001
 30
0.0
 10
2.7001600000000003
 20
0.4007500000000001
 30
0.0
 10
2.8043
 20
0.4642500000000001
 30
0.0
 10
2.6773000000000002
 20
0.62173
 30
0.0
 10
2.6773000000000002
 20
0.62173
 30
0.0
 10
2.5274400000000004
 20
0.80969
 30
0.0
 10
2.6442800000000002
 20
0.9036700000000001
 30
0.0
 10
2.67476
 20
0.97733
 30
0.0
 10
2.67476
 20
0.97733
 30
0.0
 10
2.6849200000000004
 20
1.0509900000000001
 30
0.0
 10
2.8500200000000002
 20
1.1398900000000001
 30
0.0
 10
2.75604
 20
1.1856100000000001
 30
0.0
 10
2.75604
 20
1.1856100000000001
 30
0.0
 10
1.6181200000000002
 20
0.31947
 30
0.0
 10
0.7926200000000001
 20
2.6613500000000001
 30
0.0
 10
-0.4926100000000001
 20
2.0695300000000003
 30
0.0
 10
-0.4926100000000001
 20
2.0695300000000003
 30
0.0
 10
-0.23607
 20
1.9831700000000001
 30
0.0
 10
-0.22337
 20
1.6275700000000002
 30
0.0
 10
-0.01509
 20
1.4396100000000001
 30
0.0
 10
-0.01509
 20
1.4396100000000001
 30
0.0
 10
-0.01509
 20
1.4396100000000001
 30
0.0
 10
0.29986
 20
1.1703700000000001
 30
0.0
 10
0.29986
 20
1.1703700000000001
 30
0.0
 10
0.29986
 20
1.1703700000000001
 30
0.0
 10
0.47512
 20
1.0890900000000001
 30
0.0
 10
0.6478400000000001
 20
1.0840100000000001
 30
0.0
 10
0.43702
 20
1.1983100000000002
 30
0.0
 10
0.43702
 20
1.1983100000000002
 30
0.0
 10
0.2617600000000001
 20
1.2922900000000002
 30
0.0
 10
0.11698
 20
1.4243700000000001
 30
0.0
 10
0.00268
 20
1.5767700000000002
 30
0.0
 10
0.00268
 20
1.5767700000000002
 30
0.0
 10
-0.10653
 20
1.7063100000000002
 30
0.0
 10
-0.18781
 20
1.8739500000000002
 30
0.0
 10
-0.18781
 20
2.0517500000000002
 30
0.0
 10
-0.18781
 20
2.0517500000000002
 30
0.0
 10
-0.12177
 20
2.0415900000000002
 30
0.0
 10
-0.05827
 20
2.04921
 30
0.0
 10
0.00268
 20
2.0212700000000003
 30
0.0
 10
0.00268
 20
2.0212700000000003
 30
0.0
 10
0.18048
 20
1.3938900000000001
 30
0.0
 10
0.9196200000000001
 20
0.9798700000000001
 30
0.0
 10
1.5114400000000001
 20
0.93415
 30
0.0
 10
1.5114400000000001
 20
0.93415
 30
0.0
 10
1.5114400000000001
 20
0.93415
 30
0.0
 10
1.06948
 20
1.3710300000000002
 30
0.0
 10
1.06948
 20
1.3710300000000002
 30
0.0
  0
SPLINE
  5
2C
100
AcDbEntity
  8
Ebene 1
 62
     7
100
AcDbSpline
210
0.0
220
0.0
230
1.0
 70
     1
 71
     3
 72
    16
 73
    12
 74
     0
 42
0.0000000001
 43
0.0000000001
 40
0.0
 40
0.0
 40
0.0
 40
0.0
 40
0.3333333333333333
 40
0.3333333333333333
 40
0.3333333333333333
 40
0.3333333333333333
 40
0.6666666666666666
 40
0.6666666666666666
 40
0.6666666666666666
 40
0.6666666666666666
 40
1.0
 40
1.0
 40
1.0
 40
1.0
 10
0.4548
 20
1.7494900000000002
 30
0.0
 10
0.4548
 20
1.7494900000000002
 30
0.0
 10
0.42178
 20
1.7469500000000002
 30
0.0
 10
0.42178
 20
1.7469500000000002
 30
0.0
 10
0.42178
 20
1.7469500000000002
 30
0.0
 10
0.48782
 20
1.5615300000000001
 30
0.0
 10
0.67832
 20
1.4548500000000002
 30
0.0
 10
0.85104
 20
1.40151
 30
0.0
 10
0.85104
 20
1.40151
 30
0.0
 10
0.7773800000000001
 20
1.57423
 30
0.0
 10
0.61482
 20
1.6783700000000001
 30
0.0
 10
0.4548
 20
1.7494900000000002
 30
0.0
  0
SPLINE
  5
2D
100
AcDbEntity
  8
Ebene 1
100
AcDbSpline
210
0.0
220
0.0
230
1.0
 70
     1
 71
     3
 72
    24
 73
    20
 74
     0
 42
0.0000000001
 43
0.0000000001
 40
0.0
 40
0.0
 40
0.0
 40
0.0
 40
0.2
 40
0.2
 40
0.2
 40
0.2
 40
0.4
 40
0.4
 40
0.4
 40
0.4
 40
0.6000000000000001
 40
0.6000000000000001
 40
0.6000000000000001
 40
0.6000000000000001
 40
0.8
 40
0.8
 40
0.8
 40
0.8
 40
1.0
 40
1.0
 40
1.0
 40
1.0
 10
3.0786200000000004
 20
0.3169300000000001
 30
0.0
 10
2.7763600000000004
 20
0.36519
 30
0.0
 10
3.1472000000000002
 20
0.13405
 30
0.0
 10
3.0659200000000002
 20
0.00705
 30
0.0
 10
3.0659200000000002
 20
0.00705
 30
0.0
 10
3.0024200000000003
 20
-0.25456
 30
0.0
 10
2.6849200000000004
 20
0.02483
 30
0.0
 10
2.5172800000000004
 20
0.06547
 30
0.0
 10
2.5172800000000004
 20
0.06547
 30
0.0
 10
2.3344
 20
0.13405
 30
0.0
 10
2.1210400000000003
 20
0.23057
 30
0.0
 10
1.9356200000000001
 20
0.22041
 30
0.0
 10
1.9356200000000001
 20
0.22041
 30
0.0
 10
1.9356200000000001
 20
0.22041
 30
0.0
 10
3.2818200000000002
 20
-0.39934
 30
0.0
 10
3.2818200000000002
 20
-0.39934
 30
0.0
 10
3.2818200000000002
 20
-0.39934
 30
0.0
 10
3.3377000000000003
 20
-0.15296
 30
0.0
 10
3.2513400000000003
 20
0.13659
 30
0.0
 10
3.0786200000000004
 20
0.3169300000000001
 30
0.0
  0
SPLINE
  5
2E
100
AcDbEntity
  8
Ebene 1
100
AcDbSpline
210
0.0
220
0.0
230
1.0
 70
     1
 71
     3
 72
    28
 73
    24
 74
     0
 42
0.0000000001
 43
0.0000000001
 40
0.0
 40
0.0
 40
0.0
 40
0.0
 40
0.1666666666666667
 40
0.1666666666666667
 40
0.1666666666666667
 40
0.1666666666666667
 40
0.3333333333333333
 40
0.3333333333333333
 40
0.3333333333333333
 40
0.3333333333333333
 40
0.5
 40
0.5
 40
0.5
 40
0.5
 40
0.6666666666666666
 40
0.6666666666666666
 40
0.6666666666666666
 40
0.6666666666666666
 40
0.8333333333333333
 40
0.8333333333333333
 40
0.8333333333333333
 40
0.8333333333333333
 40
1.0
 40
1.0
 40
1.0
 40
1.0
 10
1.6460600000000001
 20
0.22041
 30
0.0
 10
1.5012800000000002
 20
0.23057
 30
0.0
 10
1.3692000000000002
 20
0.21533
 30
0.0
 10
1.2472800000000002
 20
0.15183
 30
0.0
 10
1.2472800000000002
 20
0.15183
 30
0.0
 10
0.8231000000000001
 20
-1.2477
 30
0.0
 10
2.8728800000000003
 20
-0.7041400000000001
 30
0.0
 10
3.4291400000000003
 20
-1.4458200000000001
 30
0.0
 10
3.4291400000000003
 20
-1.4458200000000001
 30
0.0
 10
3.4291400000000003
 20
-1.4458200000000001
 30
0.0
 10
3.5231200000000005
 20
-1.3823200000000002
 30
0.0
 10
3.5231200000000005
 20
-1.3823200000000002
 30
0.0
 10
3.5231200000000005
 20
-1.3823200000000002
 30
0.0
 10
3.5815400000000004
 20
-0.8717800000000001
 30
0.0
 10
4.1860600000000003
 20
-0.36632
 30
0.0
 10
3.7974400000000004
 20
0.15183
 30
0.0
 10
3.7974400000000004
 20
0.15183
 30
0.0
 10
3.6526600000000005
 20
-0.04882
 30
0.0
 10
3.5891600000000001
 20
-0.4679200000000001
 30
0.0
 10
3.2564200000000003
 20
-0.5009400000000001
 30
0.0
 10
3.2564200000000003
 20
-0.5009400000000001
 30
0.0
 10
3.2564200000000003
 20
-0.5009400000000001
 30
0.0
 10
1.6460600000000001
 20
0.22041
 30
0.0
 10
1.6460600000000001
 20
0.22041
 30
0.0
  0
SPLINE
  5
2F
100
AcDbEntity
  8
Ebene 1
 62
     7
100
AcDbSpline
210
0.0
220
0.0
230
1.0
 70
     1
 71
     3
 72
   244
 73
   240
 74
     0
 42
0.0000000001
 43
0.0000000001
 40
0.0
 40
0.0
 40
0.0
 40
0.0
 40
0.0166666666666667
 40
0.0166666666666667
 40
0.0166666666666667
 40
0.0166666666666667
 40
0.0333333333333333
 40
0.0333333333333333
 40
0.0333333333333333
 40
0.0333333333333333
 40
0.05
 40
0.05
 40
0.05
 40
0.05
 40
0.0666666666666667
 40
0.0666666666666667
 40
0.0666666666666667
 40
0.0666666666666667
 40
0.0833333333333333
 40
0.0833333333333333
 40
0.0833333333333333
 40
0.0833333333333333
 40
0.1
 40
0.1
 40
0.1
 40
0.1
 40
0.1166666666666667
 40
0.1166666666666667
 40
0.1166666666666667
 40
0.1166666666666667
 40
0.1333333333333333
 40
0.1333333333333333
 40
0.1333333333333333
 40
0.1333333333333333
 40
0.15
 40
0.15
 40
0.15
 40
0.15
 40
0.1666666666666667
 40
0.1666666666666667
 40
0.1666666666666667
 40
0.1666666666666667
 40
0.1833333333333333
 40
0.1833333333333333
 40
0.1833333333333333
 40
0.1833333333333333
 40
0.2
 40
0.2
 40
0.2
 40
0.2
 40
0.2166666666666667
 40
0.2166666666666667
 40
0.2166666666666667
 40
0.2166666666666667
 40
0.2333333333333333
 40
0.2333333333333333
 40
0.2333333333333333
 40
0.2333333333333333
 40
0.25
 40
0.25
 40
0.25
 40
0.25
 40
0.2666666666666667
 40
0.2666666666666667
 40
0.2666666666666667
 40
0.2666666666666667
 40
0.2833333333333333
 40
0.2833333333333333
 40
0.2833333333333333
 40
0.2833333333333333
 40
0.3
 40
0.3
 40
0.3
 40
0.3
 40
0.3166666666666667
 40
0.3166666666666667
 40
0.3166666666666667
 40
0.3166666666666667
 40
0.3333333333333333
 40
0.3333333333333333
 40
0.3333333333333333
 40
0.3333333333333333
 40
0.35
 40
0.35
 40
0.35
 40
0.35
 40
0.3666666666666666
 40
0.3666666666666666
 40
0.3666666666666666
 40
0.3666666666666666
 40
0.3833333333333333
 40
0.3833333333333333
 40
0.3833333333333333
 40
0.3833333333333333
 40
0.4
 40
0.4
 40
0.4
 40
0.4
 40
0.4166666666666666
 40
0.4166666666666666
 40
0.4166666666666666
 40
0.4166666666666666
 40
0.4333333333333333
 40
0.4333333333333333
 40
0.4333333333333333
 40
0.4333333333333333
 40
0.45
 40
0.45
 40
0.45
 40
0.45
 40
0.4666666666666666
 40
0.4666666666666666
 40
0.4666666666666666
 40
0.4666666666666666
 40
0.4833333333333333
 40
0.4833333333333333
 40
0.4833333333333333
 40
0.4833333333333333
 40
0.4999999999999999
 40
0.4999999999999999
 40
0.4999999999999999
 40
0.4999999999999999
 40
0.5166666666666666
 40
0.5166666666666666
 40
0.5166666666666666
 40
0.5166666666666666
 40
0.5333333333333333
 40
0.5333333333333333
 40
0.5333333333333333
 40
0.5333333333333333
 40
0.55
 40
0.55
 40
0.55
 40
0.55
 40
0.5666666666666668
 40
0.5666666666666668
 40
0.5666666666666668
 40
0.5666666666666668
 40
0.5833333333333335
 40
0.5833333333333335
 40
0.5833333333333335
 40
0.5833333333333335
 40
0.6000000000000002
 40
0.6000000000000002
 40
0.6000000000000002
 40
0.6000000000000002
 40
0.6166666666666669
 40
0.6166666666666669
 40
0.6166666666666669
 40
0.6166666666666669
 40
0.6333333333333336
 40
0.6333333333333336
 40
0.6333333333333336
 40
0.6333333333333336
 40
0.6500000000000004
 40
0.6500000000000004
 40
0.6500000000000004
 40
0.6500000000000004
 40
0.6666666666666671
 40
0.6666666666666671
 40
0.6666666666666671
 40
0.6666666666666671
 40
0.6833333333333338
 40
0.6833333333333338
 40
0.6833333333333338
 40
0.6833333333333338
 40
0.7000000000000005
 40
0.7000000000000005
 40
0.7000000000000005
 40
0.7000000000000005
 40
0.7166666666666672
 40
0.7166666666666672
 40
0.7166666666666672
 40
0.7166666666666672
 40
0.733333333333334
 40
0.733333333333334
 40
0.733333333333334
 40
0.733333333333334
 40
0.7500000000000007
 40
0.7500000000000007
 40
0.7500000000000007
 40
0.7500000000000007
 40
0.7666666666666674
 40
0.7666666666666674
 40
0.7666666666666674
 40
0.7666666666666674
 40
0.7833333333333341
 40
0.7833333333333341
 40
0.7833333333333341
 40
0.7833333333333341
 40
0.8000000000000008
 40
0.8000000000000008
 40
0.8000000000000008
 40
0.8000000000000008
 40
0.8166666666666675
 40
0.8166666666666675
 40
0.8166666666666675
 40
0.8166666666666675
 40
0.8333333333333343
 40
0.8333333333333343
 40
0.8333333333333343
 40
0.8333333333333343
 40
0.850000000000001
 40
0.850000000000001
 40
0.850000000000001
 40
0.850000000000001
 40
0.8666666666666677
 40
0.8666666666666677
 40
0.8666666666666677
 40
0.8666666666666677
 40
0.8833333333333344
 40
0.8833333333333344
 40
0.8833333333333344
 40
0.8833333333333344
 40
0.9000000000000011
 40
0.9000000000000011
 40
0.9000000000000011
 40
0.9000000000000011
 40
0.9166666666666679
 40
0.9166666666666679
 40
0.9166666666666679
 40
0.9166666666666679
 40
0.9333333333333346
 40
0.9333333333333346
 40
0.9333333333333346
 40
0.9333333333333346
 40
0.9500000000000013
 40
0.9500000000000013
 40
0.9500000000000013
 40
0.9500000000000013
 40
0.966666666666668
 40
0.966666666666668
 40
0.966666666666668
 40
0.966666666666668
 40
0.9833333333333347
 40
0.9833333333333347
 40
0.9833333333333347
 40
0.9833333333333347
 40
1.0
 40
1.0
 40
1.0
 40
1.0
 10
-1.46035
 20
-1.5169400000000002
 30
0.0
 10
-1.4425700000000001
 20
-1.5093200000000002
 30
0.0
 10
-1.4425700000000001
 20
-1.5398000000000001
 30
0.0
 10
-1.46035
 20
-1.5321800000000001
 30
0.0
 10
-1.46035
 20
-1.5321800000000001
 30
0.0
 10
-1.4095500000000001
 20
-1.9385800000000002
 30
0.0
 10
-1.24953
 20
-2.4719800000000003
 30
0.0
 10
-1.5086100000000002
 20
-2.8301200000000004
 30
0.0
 10
-1.5086100000000002
 20
-2.8301200000000004
 30
0.0
 10
-1.7168900000000002
 20
-2.8707600000000002
 30
0.0
 10
-1.8464300000000002
 20
-2.6345400000000003
 30
0.0
 10
-1.9912100000000001
 20
-2.5253200000000002
 30
0.0
 10
-1.9912100000000001
 20
-2.5253200000000002
 30
0.0
 10
-2.1182100000000004
 20
-2.3043400000000003
 30
0.0
 10
-1.7321300000000002
 20
-2.7590000000000003
 30
0.0
 10
-1.58735
 20
-2.73868
 30
0.0
 10
-1.58735
 20
-2.73868
 30
0.0
 10
-1.3460500000000002
 20
-2.5634200000000003
 30
0.0
 10
-1.4755900000000002
 20
-2.2052800000000001
 30
0.0
 10
-1.5086100000000002
 20
-1.9538200000000001
 30
0.0
 10
-1.5086100000000002
 20
-1.9538200000000001
 30
0.0
 10
-1.9632700000000001
 20
-2.0478000000000001
 30
0.0
 10
-2.1207500000000001
 20
-1.5956800000000002
 30
0.0
 10
-2.4484100000000004
 20
-1.2680200000000001
 30
0.0
 10
-2.4484100000000004
 20
-1.2680200000000001
 30
0.0
 10
-2.5144500000000001
 20
-1.20452
 30
0.0
 10
-2.8497300000000001
 20
-0.9886200000000001
 30
0.0
 10
-2.7151100000000001
 20
-0.9886200000000001
 30
0.0
 10
-2.7151100000000001
 20
-0.9886200000000001
 30
0.0
 10
-2.7151100000000001
 20
-0.9886200000000001
 30
0.0
 10
-2.4738100000000003
 20
-1.1080000000000001
 30
0.0
 10
-2.4738100000000003
 20
-1.1080000000000001
 30
0.0
 10
-2.4738100000000003
 20
-1.1080000000000001
 30
0.0
 10
-2.3925300000000003
 20
-1.16896
 30
0.0
 10
-2.4585700000000004
 20
-1.0267200000000001
 30
0.0
 10
-2.4407900000000002
 20
-0.9835400000000001
 30
0.0
 10
-2.4407900000000002
 20
-0.9835400000000001
 30
0.0
 10
-2.4738100000000003
 20
-0.8336800000000001
 30
0.0
 10
-2.4585700000000004
 20
-0.65334
 30
0.0
 10
-2.5703300000000002
 20
-0.5365000000000001
 30
0.0
 10
-2.5703300000000002
 20
-0.5365000000000001
 30
0.0
 10
-2.8446500000000001
 20
-0.42982
 30
0.0
 10
-3.2307300000000003
 20
-0.27488
 30
0.0
 10
-3.4720300000000002
 20
-0.5212600000000001
 30
0.0
 10
-3.4720300000000002
 20
-0.5212600000000001
 30
0.0
 10
-3.6117300000000001
 20
-1.0140200000000001
 30
0.0
 10
-3.1265900000000002
 20
-1.4940800000000001
 30
0.0
 10
-2.9081500000000005
 20
-2.0020800000000003
 30
0.0
 10
-2.9081500000000005
 20
-2.0020800000000003
 30
0.0
 10
-2.6668500000000002
 20
-2.4542000000000002
 30
0.0
 10
-2.2807700000000004
 20
-2.9063200000000005
 30
0.0
 10
-2.2477500000000004
 20
-3.4143200000000005
 30
0.0
 10
-2.2477500000000004
 20
-3.4143200000000005
 30
0.0
 10
-2.3290300000000004
 20
-3.3990800000000001
 30
0.0
 10
-2.2807700000000004
 20
-3.2771600000000003
 30
0.0
 10
-2.3290300000000004
 20
-3.2238200000000004
 30
0.0
 10
-2.3290300000000004
 20
-3.2238200000000004
 30
0.0
 10
-2.4077700000000002
 20
-3.0079200000000004
 30
0.0
 10
-2.5220700000000003
 20
-2.7691600000000003
 30
0.0
 10
-2.6846300000000003
 20
-2.6142200000000004
 30
0.0
 10
-2.6846300000000003
 20
-2.6142200000000004
 30
0.0
 10
-2.6185900000000002
 20
-2.9571200000000002
 30
0.0
 10
-2.5703300000000002
 20
-3.3025600000000002
 30
0.0
 10
-2.4890500000000002
 20
-3.6378400000000002
 30
0.0
 10
-2.4890500000000002
 20
-3.6378400000000002
 30
0.0
 10
-2.23251
 20
-3.8918400000000002
 30
0.0
 10
-1.9099300000000001
 20
-4.0112200000000007
 30
0.0
 10
-1.5390900000000001
 20
-3.9807400000000004
 30
0.0
 10
-1.5390900000000001
 20
-3.9807400000000004
 30
0.0
 10
-1.0260100000000001
 20
-4.0340800000000003
 30
0.0
 10
-0.3224300000000001
 20
-4.6132
 30
0.0
 10
0.37352
 20
-4.4811200000000007
 30
0.0
 10
0.37352
 20
-4.4811200000000007
 30
0.0
 10
0.05094
 20
-4.30586
 30
0.0
 10
-0.28433
 20
-4.1814
 30
0.0
 10
-0.6069100000000001
 20
-4.0772600000000008
 30
0.0
 10
-0.6069100000000001
 20
-4.0772600000000008
 30
0.0
 10
0.14746
 20
-4.1128200000000001
 30
0.0
 10
0.8408800000000001
 20
-4.5598600000000005
 30
0.0
 10
1.5647800000000001
 20
-4.7351200000000002
 30
0.0
 10
1.5647800000000001
 20
-4.7351200000000002
 30
0.0
 10
1.7095600000000002
 20
-4.6767000000000003
 30
0.0
 10
2.4055200000000001
 20
-4.81386
 30
0.0
 10
2.0829400000000002
 20
-4.6665400000000004
 30
0.0
 10
2.0829400000000002
 20
-4.6665400000000004
 30
0.0
 10
1.8772000000000002
 20
-4.5243000000000002
 30
0.0
 10
1.6105
 20
-4.4811200000000007
 30
0.0
 10
1.3869800000000001
 20
-4.3973000000000004
 30
0.0
 10
1.3869800000000001
 20
-4.3973000000000004
 30
0.0
 10
2.2251800000000004
 20
-4.3947600000000007
 30
0.0
 10
2.9922600000000004
 20
-5.1288200000000002
 30
0.0
 10
3.8634800000000005
 20
-5.0221400000000003
 30
0.0
 10
3.8634800000000005
 20
-5.0221400000000003
 30
0.0
 10
3.9041200000000003
 20
-4.9027600000000007
 30
0.0
 10
4.0616000000000003
 20
-4.6157400000000006
 30
0.0
 10
3.8253800000000004
 20
-4.7300400000000007
 30
0.0
 10
3.8253800000000004
 20
-4.7300400000000007
 30
0.0
 10
3.9904800000000002
 20
-4.4811200000000007
 30
0.0
 10
4.55436
 20
-4.2423600000000006
 30
0.0
 10
4.3765600000000004
 20
-3.8385000000000002
 30
0.0
 10
4.3765600000000004
 20
-3.8385000000000002
 30
0.0
 10
4.2394000000000007
 20
-3.7597600000000004
 30
0.0
 10
4.1124000000000001
 20
-3.8918400000000002
 30
0.0
 10
4.1098600000000003
 20
-4.1255200000000007
 30
0.0
 10
4.1098600000000003
 20
-4.1255200000000007
 30
0.0
 10
4.0946199999999999
 20
-4.19156
 30
0.0
 10
4.0819200000000002
 20
-4.2652200000000002
 30
0.0
 10
4.0235000000000003
 20
-4.3134800000000002
 30
0.0
 10
4.0235000000000003
 20
-4.3134800000000002
 30
0.0
 10
3.7034600000000002
 20
-4.7681400000000007
 30
0.0
 10
4.2673399999999999
 20
-3.7343600000000001
 30
0.0
 10
3.9650800000000004
 20
-3.8994600000000004
 30
0.0
 10
3.9650800000000004
 20
-3.8994600000000004
 30
0.0
 10
3.9727000000000001
 20
-4.0137600000000004
 30
0.0
 10
3.9701600000000004
 20
-4.1737800000000007
 30
0.0
 10
3.8558600000000003
 20
-4.2169600000000003
 30
0.0
 10
3.8558600000000003
 20
-4.2169600000000003
 30
0.0
 10
3.8558600000000003
 20
-4.2169600000000003
 30
0.0
 10
3.8863400000000001
 20
-4.1280600000000005
 30
0.0
 10
3.8863400000000001
 20
-4.1280600000000005
 30
0.0
 10
3.8863400000000001
 20
-4.1280600000000005
 30
0.0
 10
3.9117400000000004
 20
-4.0670999999999999
 30
0.0
 10
3.9066600000000005
 20
-3.9350200000000002
 30
0.0
 10
3.8203000000000005
 20
-3.8994600000000004
 30
0.0
 10
3.8203000000000005
 20
-3.8994600000000004
 30
0.0
 10
3.5409000000000002
 20
-3.4016200000000003
 30
0.0
 10
3.6272600000000002
 20
-4.5014400000000006
 30
0.0
 10
3.5307400000000002
 20
-4.1890200000000002
 30
0.0
 10
3.5307400000000002
 20
-4.1890200000000002
 30
0.0
 10
3.5155000000000003
 20
-3.7699200000000004
 30
0.0
 10
3.4189800000000004
 20
-3.9680400000000002
 30
0.0
 10
3.4139000000000004
 20
-4.2753800000000002
 30
0.0
 10
3.4139000000000004
 20
-4.2753800000000002
 30
0.0
 10
3.3961200000000002
 20
-4.3007800000000005
 30
0.0
 10
3.3097600000000003
 20
-4.3211000000000004
 30
0.0
 10
3.2742000000000004
 20
-4.3134800000000002
 30
0.0
 10
3.2742000000000004
 20
-4.3134800000000002
 30
0.0
 10
3.4926400000000002
 20
-3.9528000000000003
 30
0.0
 10
3.1065600000000004
 20
-3.9604200000000005
 30
0.0
 10
2.9211400000000003
 20
-3.8054800000000002
 30
0.0
 10
2.9211400000000003
 20
-3.8054800000000002
 30
0.0
 10
2.9516200000000001
 20
-4.01884
 30
0.0
 10
3.0456000000000003
 20
-4.2753800000000002
 30
0.0
 10
2.9059000000000004
 20
-4.44048
 30
0.0
 10
2.9059000000000004
 20
-4.44048
 30
0.0
 10
2.9389200000000004
 20
-4.2499800000000008
 30
0.0
 10
2.8982800000000002
 20
-4.0391600000000007
 30
0.0
 10
2.7509600000000001
 20
-3.8689800000000005
 30
0.0
 10
2.7509600000000001
 20
-3.8689800000000005
 30
0.0
 10
2.5376000000000003
 20
-3.9121600000000005
 30
0.0
 10
2.3191600000000001
 20
-3.8562800000000004
 30
0.0
 10
2.2937600000000002
 20
-3.6276800000000002
 30
0.0
 10
2.2937600000000002
 20
-3.6276800000000002
 30
0.0
 10
2.2556600000000002
 20
-3.8816800000000002
 30
0.0
 10
2.4182200000000003
 20
-4.1128200000000001
 30
0.0
 10
2.3420200000000002
 20
-4.34396
 30
0.0
 10
2.3420200000000002
 20
-4.34396
 30
0.0
 10
2.2988400000000002
 20
-4.1306000000000003
 30
0.0
 10
2.16676
 20
-3.9426400000000004
 30
0.0
 10
2.0753200000000001
 20
-3.7419800000000003
 30
0.0
 10
2.0753200000000001
 20
-3.7419800000000003
 30
0.0
 10
1.8619600000000001
 20
-3.7369000000000003
 30
0.0
 10
1.6232000000000002
 20
-3.5870400000000005
 30
0.0
 10
1.6486000000000001
 20
-3.3559000000000001
 30
0.0
 10
1.6486000000000001
 20
-3.3559000000000001
 30
0.0
 10
1.52668
 20
-3.5260800000000003
 30
0.0
 10
1.6765400000000001
 20
-3.7343600000000001
 30
0.0
 10
1.6714600000000002
 20
-3.9096200000000003
 30
0.0
 10
1.6714600000000002
 20
-3.9096200000000003
 30
0.0
 10
1.4784200000000001
 20
-3.5591000000000004
 30
0.0
 10
1.5419200000000002
 20
-4.0010600000000007
 30
0.0
 10
1.4733400000000001
 20
-4.1687000000000003
 30
0.0
 10
1.4733400000000001
 20
-4.1687000000000003
 30
0.0
 10
1.4733400000000001
 20
-4.1687000000000003
 30
0.0
 10
1.3666600000000002
 20
-3.5794200000000003
 30
0.0
 10
1.3666600000000002
 20
-3.5794200000000003
 30
0.0
 10
1.3666600000000002
 20
-3.5794200000000003
 30
0.0
 10
1.1406000000000001
 20
-3.6937200000000003
 30
0.0
 10
0.9932800000000001
 20
-3.4752800000000001
 30
0.0
 10
0.9297800000000001
 20
-3.3000200000000004
 30
0.0
 10
0.9297800000000001
 20
-3.3000200000000004
 30
0.0
 10
0.8561200000000001
 20
-3.5260800000000003
 30
0.0
 10
1.18632
 20
-3.8181800000000004
 30
0.0
 10
0.9653400000000001
 20
-3.9426400000000004
 30
0.0
 10
0.9653400000000001
 20
-3.9426400000000004
 30
0.0
 10
0.9196200000000001
 20
-3.5895800000000002
 30
0.0
 10
0.57672
 20
-3.4524200000000005
 30
0.0
 10
0.3989200000000001
 20
-3.1933400000000001
 30
0.0
 10
0.3989200000000001
 20
-3.1933400000000001
 30
0.0
 10
0.4319400000000001
 20
-3.3330400000000004
 30
0.0
 10
0.4548
 20
-3.4676600000000004
 30
0.0
 10
0.40654
 20
-3.5870400000000005
 30
0.0
 10
0.40654
 20
-3.5870400000000005
 30
0.0
 10
0.3532
 20
-3.1933400000000001
 30
0.0
 10
0.00522
 20
-3.2035000000000005
 30
0.0
 10
-0.15479
 20
-2.9495000000000005
 30
0.0
 10
-0.15479
 20
-2.9495000000000005
 30
0.0
 10
-0.13955
 20
-3.0587200000000001
 30
0.0
 10
-0.38085
 20
-3.3736800000000002
 30
0.0
 10
-0.6221500000000001
 20
-3.1908000000000003
 30
0.0
 10
-0.6221500000000001
 20
-3.1908000000000003
 30
0.0
 10
-0.5408700000000001
 20
-3.1704800000000004
 30
0.0
 10
-0.28433
 20
-3.1603200000000005
 30
0.0
 10
-0.38085
 20
-2.9520400000000002
 30
0.0
 10
-0.38085
 20
-2.9520400000000002
 30
0.0
 10
-0.57389
 20
-2.8656800000000002
 30
0.0
 10
-0.7339100000000001
 20
-2.6955
 30
0.0
 10
-0.8151900000000001
 20
-2.5024600000000001
 30
0.0
 10
-0.8151900000000001
 20
-2.5024600000000001
 30
0.0
 10
-0.8151900000000001
 20
-2.5024600000000001
 30
0.0
 10
-0.8634500000000001
 20
-2.5456400000000001
 30
0.0
 10
-0.8634500000000001
 20
-2.5456400000000001
 30
0.0
 10
-0.8634500000000001
 20
-2.5456400000000001
 30
0.0
 10
-1.0564900000000002
 20
-2.6650200000000002
 30
0.0
 10
-0.9599700000000001
 20
-2.9418800000000003
 30
0.0
 10
-0.8786900000000001
 20
-3.0892000000000004
 30
0.0
 10
-0.8786900000000001
 20
-3.0892000000000004
 30
0.0
 10
-1.2825500000000001
 20
-3.0485600000000002
 30
0.0
 10
-1.0234700000000001
 20
-2.6294600000000004
 30
0.0
 10
-0.92949
 20
-2.4161000000000001
 30
0.0
 10
-0.92949
 20
-2.4161000000000001
 30
0.0
 10
-0.8304300000000001
 20
-2.2052800000000001
 30
0.0
 10
-0.71867
 20
-1.9919200000000001
 30
0.0
 10
-0.58913
 20
-1.7912600000000001
 30
0.0
 10
-0.58913
 20
-1.7912600000000001
 30
0.0
 10
-0.29957
 20
-1.4915400000000001
 30
0.0
 10
0.00268
 20
-1.1156200000000001
 30
0.0
 10
-0.17257
 20
-0.69906
 30
0.0
 10
-0.17257
 20
-0.69906
 30
0.0
 10
-0.5408700000000001
 20
-0.36124
 30
0.0
 10
-1.0234700000000001
 20
-0.13518
 30
0.0
 10
-1.5086100000000002
 20
-0.03612
 30
0.0
 10
-1.5086100000000002
 20
-0.03612
 30
0.0
 10
-1.8134100000000002
 20
-0.0666
 30
0.0
 10
-2.0724900000000002
 20
-0.38156
 30
0.0
 10
-1.9734300000000002
 20
-0.69398
 30
0.0
 10
-1.9734300000000002
 20
-0.69398
 30
0.0
 10
-1.8616700000000002
 20
-0.9987800000000001
 30
0.0
 10
-1.4908300000000001
 20
-1.1791200000000002
 30
0.0
 10
-1.46035
 20
-1.5169400000000002
 30
0.0
  0
SPLINE
  5
30
100
AcDbEntity
  8
Ebene 1
100
AcDbSpline
210
0.0
220
0.0
230
1.0
 70
     1
 71
     3
 72
    16
 73
    12
 74
     0
 42
0.0000000001
 43
0.0000000001
 40
0.0
 40
0.0
 40
0.0
 40
0.0
 40
0.3333333333333333
 40
0.3333333333333333
 40
0.3333333333333333
 40
0.3333333333333333
 40
0.6666666666666666
 40
0.6666666666666666
 40
0.6666666666666666
 40
0.6666666666666666
 40
1.0
 40
1.0
 40
1.0
 40
1.0
 10
1.2599800000000001
 20
-0.7752600000000001
 30
0.0
 10
1.2422000000000002
 20
-0.7701800000000001
 30
0.0
 10
1.2142600000000001
 20
-0.78288
 30
0.0
 10
1.2142600000000001
 20
-0.8032
 30
0.0
 10
1.2142600000000001
 20
-0.8032
 30
0.0
 10
1.6105
 20
-1.2705600000000001
 30
0.0
 10
2.29122
 20
-1.1334000000000002
 30
0.0
 10
2.7687400000000002
 20
-1.3975600000000001
 30
0.0
 10
2.7687400000000002
 20
-1.3975600000000001
 30
0.0
 10
2.4055200000000001
 20
-0.9378200000000001
 30
0.0
 10
1.6867000000000001
 20
-1.1765800000000002
 30
0.0
 10
1.2599800000000001
 20
-0.7752600000000001
 30
0.0
  0
SPLINE
  5
31
100
AcDbEntity
  8
Ebene 1
 62
     7
100
AcDbSpline
210
0.0
220
0.0
230
1.0
 70
     1
 71
     3
 72
    20
 73
    16
 74
     0
 42
0.0000000001
 43
0.0000000001
 40
0.0
 40
0.0
 40
0.0
 40
0.0
 40
0.25
 40
0.25
 40
0.25
 40
0.25
 40
0.5
 40
0.5
 40
0.5
 40
0.5
 40
0.75
 40
0.75
 40
0.75
 40
0.75
 40
1.0
 40
1.0
 40
1.0
 40
1.0
 10
0.18048
 20
-0.9048000000000001
 30
0.0
 10
0.21096
 20
-1.0292600000000001
 30
0.0
 10
0.277
 20
-1.20452
 30
0.0
 10
0.277
 20
-1.3670800000000001
 30
0.0
 10
0.277
 20
-1.3670800000000001
 30
0.0
 10
0.277
 20
-1.3670800000000001
 30
0.0
 10
0.37352
 20
-1.2604000000000002
 30
0.0
 10
0.37352
 20
-1.2604000000000002
 30
0.0
 10
0.37352
 20
-1.2604000000000002
 30
0.0
 10
0.3252600000000001
 20
-1.42042
 30
0.0
 10
0.42178
 20
-1.5093200000000002
 30
0.0
 10
0.55132
 20
-1.5753600000000001
 30
0.0
 10
0.55132
 20
-1.5753600000000001
 30
0.0
 10
0.6326000000000001
 20
-1.3188200000000001
 30
0.0
 10
0.4548
 20
-0.9454400000000001
 30
0.0
 10
0.18048
 20
-0.9048000000000001
 30
0.0
  0
SPLINE
  5
32
100
AcDbEntity
  8
Ebene 1
 62
     7
100
AcDbSpline
210
0.0
220
0.0
230
1.0
 70
     1
 71
     3
 72
    20
 73
    16
 74
     0
 42
0.0000000001
 43
0.0000000001
 40
0.0
 40
0.0
 40
0.0
 40
0.0
 40
0.25
 40
0.25
 40
0.25
 40
0.25
 40
0.5
 40
0.5
 40
0.5
 40
0.5
 40
0.75
 40
0.75
 40
0.75
 40
0.75
 40
1.0
 40
1.0
 40
1.0
 40
1.0
 10
0.42178
 20
-1.54742
 30
0.0
 10
0.21096
 20
-1.66934
 30
0.0
 10
0.3252600000000001
 20
-2.0097
 30
0.0
 10
0.2617600000000001
 20
-2.2179800000000003
 30
0.0
 10
0.2617600000000001
 20
-2.2179800000000003
 30
0.0
 10
0.18048
 20
-2.10114
 30
0.0
 10
0.19826
 20
-1.9360400000000002
 30
0.0
 10
0.18048
 20
-1.7912600000000001
 30
0.0
 10
0.18048
 20
-1.7912600000000001
 30
0.0
 10
0.0992
 20
-1.8928600000000002
 30
0.0
 10
0.16524
 20
-2.31704
 30
0.0
 10
0.3252600000000001
 20
-2.4948400000000004
 30
0.0
 10
0.3252600000000001
 20
-2.4948400000000004
 30
0.0
 10
0.3252600000000001
 20
-2.1646400000000003
 30
0.0
 10
0.66308
 20
-1.8573000000000002
 30
0.0
 10
0.42178
 20
-1.54742
 30
0.0
  0
SPLINE
  5
33
100
AcDbEntity
  8
Ebene 1
 62
     7
100
AcDbSpline
210
0.0
220
0.0
230
1.0
 70
     1
 71
     3
 72
    36
 73
    32
 74
     0
 42
0.0000000001
 43
0.0000000001
 40
0.0
 40
0.0
 40
0.0
 40
0.0
 40
0.125
 40
0.125
 40
0.125
 40
0.125
 40
0.25
 40
0.25
 40
0.25
 40
0.25
 40
0.375
 40
0.375
 40
0.375
 40
0.375
 40
0.5
 40
0.5
 40
0.5
 40
0.5
 40
0.625
 40
0.625
 40
0.625
 40
0.625
 40
0.75
 40
0.75
 40
0.75
 40
0.75
 40
0.875
 40
0.875
 40
0.875
 40
0.875
 40
1.0
 40
1.0
 40
1.0
 40
1.0
 10
1.0009000000000001
 20
-1.7252200000000002
 30
0.0
 10
0.7926200000000001
 20
-1.8319000000000001
 30
0.0
 10
0.7596000000000001
 20
-2.1722600000000001
 30
0.0
 10
0.7773800000000001
 20
-2.4008600000000002
 30
0.0
 10
0.7773800000000001
 20
-2.4008600000000002
 30
0.0
 10
0.80786
 20
-2.4643600000000001
 30
0.0
 10
0.7926200000000001
 20
-2.5583400000000003
 30
0.0
 10
0.7596000000000001
 20
-2.5888200000000001
 30
0.0
 10
0.7596000000000001
 20
-2.5888200000000001
 30
0.0
 10
0.7291200000000001
 20
-2.4669000000000003
 30
0.0
 10
0.7291200000000001
 20
-2.3373600000000003
 30
0.0
 10
0.7113400000000001
 20
-2.2078200000000003
 30
0.0
 10
0.7113400000000001
 20
-2.2078200000000003
 30
0.0
 10
0.66308
 20
-2.0833600000000003
 30
0.0
 10
0.7596000000000001
 20
-1.9360400000000002
 30
0.0
 10
0.7291200000000001
 20
-1.8242800000000001
 30
0.0
 10
0.7291200000000001
 20
-1.8242800000000001
 30
0.0
 10
0.55132
 20
-2.1240000000000001
 30
0.0
 10
0.6326000000000001
 20
-2.4973800000000002
 30
0.0
 10
0.8231000000000001
 20
-2.8301200000000004
 30
0.0
 10
0.8231000000000001
 20
-2.8301200000000004
 30
0.0
 10
0.8231000000000001
 20
-2.8301200000000004
 30
0.0
 10
0.8612000000000001
 20
-2.5989800000000001
 30
0.0
 10
0.8612000000000001
 20
-2.5989800000000001
 30
0.0
 10
0.8612000000000001
 20
-2.5989800000000001
 30
0.0
 10
0.8612000000000001
 20
-2.5989800000000001
 30
0.0
 10
0.9805800000000001
 20
-2.2027400000000004
 30
0.0
 10
0.9805800000000001
 20
-2.2027400000000004
 30
0.0
 10
0.9805800000000001
 20
-2.2027400000000004
 30
0.0
 10
1.15076
 20
-2.0452600000000003
 30
0.0
 10
1.0313800000000002
 20
-1.8065000000000002
 30
0.0
 10
1.0009000000000001
 20
-1.7252200000000002
 30
0.0
  0
SPLINE
  5
34
100
AcDbEntity
  8
Ebene 1
 62
     7
100
AcDbSpline
210
0.0
220
0.0
230
1.0
 70
     1
 71
     3
 72
    40
 73
    36
 74
     0
 42
0.0000000001
 43
0.0000000001
 40
0.0
 40
0.0
 40
0.0
 40
0.0
 40
0.1111111111111111
 40
0.1111111111111111
 40
0.1111111111111111
 40
0.1111111111111111
 40
0.2222222222222222
 40
0.2222222222222222
 40
0.2222222222222222
 40
0.2222222222222222
 40
0.3333333333333333
 40
0.3333333333333333
 40
0.3333333333333333
 40
0.3333333333333333
 40
0.4444444444444444
 40
0.4444444444444444
 40
0.4444444444444444
 40
0.4444444444444444
 40
0.5555555555555556
 40
0.5555555555555556
 40
0.5555555555555556
 40
0.5555555555555556
 40
0.6666666666666667
 40
0.6666666666666667
 40
0.6666666666666667
 40
0.6666666666666667
 40
0.7777777777777779
 40
0.7777777777777779
 40
0.7777777777777779
 40
0.7777777777777779
 40
0.8888888888888891
 40
0.8888888888888891
 40
0.8888888888888891
 40
0.8888888888888891
 40
1.0
 40
1.0
 40
1.0
 40
1.0
 10
1.5012800000000002
 20
-1.8369800000000001
 30
0.0
 10
0.9501000000000001
 20
-1.9462000000000002
 30
0.0
 10
1.3311000000000002
 20
-2.6370800000000001
 30
0.0
 10
1.5368400000000002
 20
-2.9291800000000001
 30
0.0
 10
1.5368400000000002
 20
-2.9291800000000001
 30
0.0
 10
1.5368400000000002
 20
-2.9291800000000001
 30
0.0
 10
1.6765400000000001
 20
-2.5456400000000001
 30
0.0
 10
1.6765400000000001
 20
-2.5456400000000001
 30
0.0
 10
1.6765400000000001
 20
-2.5456400000000001
 30
0.0
 10
1.69686
 20
-2.4262600000000001
 30
0.0
 10
1.8314800000000002
 20
-2.35006
 30
0.0
 10
1.8213200000000001
 20
-2.2256
 30
0.0
 10
1.8213200000000001
 20
-2.2256
 30
0.0
 10
1.8213200000000001
 20
-2.2256
 30
0.0
 10
1.7857600000000002
 20
-2.06812
 30
0.0
 10
1.7857600000000002
 20
-2.06812
 30
0.0
 10
1.7857600000000002
 20
-2.06812
 30
0.0
 10
1.61304
 20
-2.2484600000000001
 30
0.0
 10
1.6486000000000001
 20
-2.5405600000000002
 30
0.0
 10
1.5317600000000002
 20
-2.73868
 30
0.0
 10
1.5317600000000002
 20
-2.73868
 30
0.0
 10
1.4784200000000001
 20
-2.7234400000000001
 30
0.0
 10
1.5089000000000001
 20
-2.65232
 30
0.0
 10
1.5012800000000002
 20
-2.6116800000000002
 30
0.0
 10
1.5012800000000002
 20
-2.6116800000000002
 30
0.0
 10
1.5012800000000002
 20
-2.6116800000000002
 30
0.0
 10
1.5165200000000001
 20
-2.4161000000000001
 30
0.0
 10
1.5165200000000001
 20
-2.4161000000000001
 30
0.0
 10
1.5165200000000001
 20
-2.4161000000000001
 30
0.0
 10
1.5165200000000001
 20
-2.4161000000000001
 30
0.0
 10
1.5800200000000002
 20
-2.1595600000000004
 30
0.0
 10
1.5800200000000002
 20
-2.1595600000000004
 30
0.0
 10
1.5800200000000002
 20
-2.1595600000000004
 30
0.0
 10
1.6384400000000001
 20
-2.0300200000000004
 30
0.0
 10
1.6892400000000001
 20
-1.8573000000000002
 30
0.0
 10
1.5012800000000002
 20
-1.8369800000000001
 30
0.0
  0
SPLINE
  5
35
100
AcDbEntity
  8
Ebene 1
 62
     7
100
AcDbSpline
210
0.0
220
0.0
230
1.0
 70
     1
 71
     3
 72
    16
 73
    12
 74
     0
 42
0.0000000001
 43
0.0000000001
 40
0.0
 40
0.0
 40
0.0
 40
0.0
 40
0.3333333333333333
 40
0.3333333333333333
 40
0.3333333333333333
 40
0.3333333333333333
 40
0.6666666666666666
 40
0.6666666666666666
 40
0.6666666666666666
 40
0.6666666666666666
 40
1.0
 40
1.0
 40
1.0
 40
1.0
 10
4.4298999999999999
 20
-1.9182600000000001
 30
0.0
 10
4.4298999999999999
 20
-1.9182600000000001
 30
0.0
 10
4.3384600000000004
 20
-1.9893800000000001
 30
0.0
 10
4.3384600000000004
 20
-1.9893800000000001
 30
0.0
 10
4.3384600000000004
 20
-1.9893800000000001
 30
0.0
 10
4.3460800000000006
 20
-2.2992600000000003
 30
0.0
 10
4.3511600000000001
 20
-2.56088
 30
0.0
 10
4.3994200000000001
 20
-2.8529800000000001
 30
0.0
 10
4.3994200000000001
 20
-2.8529800000000001
 30
0.0
 10
4.3740200000000007
 20
-2.86314
 30
0.0
 10
4.6534200000000006
 20
-2.2637
 30
0.0
 10
4.4298999999999999
 20
-1.9182600000000001
 30
0.0
  0
SPLINE
  5
36
100
AcDbEntity
  8
Ebene 1
 62
     7
100
AcDbSpline
210
0.0
220
0.0
230
1.0
 70
     1
 71
     3
 72
    28
 73
    24
 74
     0
 42
0.0000000001
 43
0.0000000001
 40
0.0
 40
0.0
 40
0.0
 40
0.0
 40
0.1666666666666667
 40
0.1666666666666667
 40
0.1666666666666667
 40
0.1666666666666667
 40
0.3333333333333333
 40
0.3333333333333333
 40
0.3333333333333333
 40
0.3333333333333333
 40
0.5
 40
0.5
 40
0.5
 40
0.5
 40
0.6666666666666666
 40
0.6666666666666666
 40
0.6666666666666666
 40
0.6666666666666666
 40
0.8333333333333333
 40
0.8333333333333333
 40
0.8333333333333333
 40
0.8333333333333333
 40
1.0
 40
1.0
 40
1.0
 40
1.0
 10
4.0616000000000003
 20
-2.09606
 30
0.0
 10
3.8939600000000003
 20
-2.3754600000000003
 30
0.0
 10
3.8812600000000002
 20
-2.8021800000000003
 30
0.0
 10
4.0616000000000003
 20
-3.0942800000000004
 30
0.0
 10
4.0616000000000003
 20
-3.0942800000000004
 30
0.0
 10
4.1860600000000003
 20
-2.8555200000000003
 30
0.0
 10
4.25718
 20
-2.5761200000000004
 30
0.0
 10
4.2495600000000007
 20
-2.2916400000000001
 30
0.0
 10
4.2495600000000007
 20
-2.2916400000000001
 30
0.0
 10
4.2267000000000001
 20
-2.2586200000000001
 30
0.0
 10
4.2241600000000004
 20
-2.2916400000000001
 30
0.0
 10
4.20892
 20
-2.3094200000000003
 30
0.0
 10
4.20892
 20
-2.3094200000000003
 30
0.0
 10
4.19876
 20
-2.4313400000000001
 30
0.0
 10
4.1809799999999999
 20
-2.5507200000000001
 30
0.0
 10
4.1251000000000007
 20
-2.6599400000000002
 30
0.0
 10
4.1251000000000007
 20
-2.6599400000000002
 30
0.0
 10
4.1200200000000002
 20
-2.7082000000000002
 30
0.0
 10
4.1251000000000007
 20
-2.77678
 30
0.0
 10
4.0768400000000007
 20
-2.8047200000000001
 30
0.0
 10
4.0768400000000007
 20
-2.8047200000000001
 30
0.0
 10
3.9879400000000005
 20
-2.5837400000000001
 30
0.0
 10
4.3003600000000004
 20
-2.2560800000000003
 30
0.0
 10
4.0616000000000003
 20
-2.09606
 30
0.0
  0
SPLINE
  5
37
100
AcDbEntity
  8
Ebene 1
 62
     7
100
AcDbSpline
210
0.0
220
0.0
230
1.0
 70
     1
 71
     3
 72
    28
 73
    24
 74
     0
 42
0.0000000001
 43
0.0000000001
 40
0.0
 40
0.0
 40
0.0
 40
0.0
 40
0.1666666666666667
 40
0.1666666666666667
 40
0.1666666666666667
 40
0.1666666666666667
 40
0.3333333333333333
 40
0.3333333333333333
 40
0.3333333333333333
 40
0.3333333333333333
 40
0.5
 40
0.5
 40
0.5
 40
0.5
 40
0.6666666666666666
 40
0.6666666666666666
 40
0.6666666666666666
 40
0.6666666666666666
 40
0.8333333333333333
 40
0.8333333333333333
 40
0.8333333333333333
 40
0.8333333333333333
 40
1.0
 40
1.0
 40
1.0
 40
1.0
 10
2.12866
 20
-2.1113
 30
0.0
 10
2.12866
 20
-2.1113
 30
0.0
 10
2.05246
 20
-2.1468600000000002
 30
0.0
 10
2.05246
 20
-2.1468600000000002
 30
0.0
 10
2.05246
 20
-2.1468600000000002
 30
0.0
 10
1.9915000000000003
 20
-2.43642
 30
0.0
 10
2.0600800000000001
 20
-2.8174200000000003
 30
0.0
 10
2.2861400000000001
 20
-3.0409400000000004
 30
0.0
 10
2.2861400000000001
 20
-3.0409400000000004
 30
0.0
 10
2.2861400000000001
 20
-3.0409400000000004
 30
0.0
 10
2.3979000000000004
 20
-2.6701000000000001
 30
0.0
 10
2.3979000000000004
 20
-2.6701000000000001
 30
0.0
 10
2.3979000000000004
 20
-2.6701000000000001
 30
0.0
 10
2.4334600000000002
 20
-2.5634200000000003
 30
0.0
 10
2.5376000000000003
 20
-2.43642
 30
0.0
 10
2.4334600000000002
 20
-2.3373600000000003
 30
0.0
 10
2.4334600000000002
 20
-2.3373600000000003
 30
0.0
 10
2.4334600000000002
 20
-2.3373600000000003
 30
0.0
 10
2.2734400000000003
 20
-2.8352000000000004
 30
0.0
 10
2.2734400000000003
 20
-2.8352000000000004
 30
0.0
 10
2.2734400000000003
 20
-2.8352000000000004
 30
0.0
 10
2.1972400000000003
 20
-2.6396200000000003
 30
0.0
 10
2.4334600000000002
 20
-2.1798800000000003
 30
0.0
 10
2.12866
 20
-2.1113
 30
0.0
  0
SPLINE
  5
38
100
AcDbEntity
  8
Ebene 1
 62
     7
100
AcDbSpline
210
0.0
220
0.0
230
1.0
 70
     1
 71
     3
 72
    24
 73
    20
 74
     0
 42
0.0000000001
 43
0.0000000001
 40
0.0
 40
0.0
 40
0.0
 40
0.0
 40
0.2
 40
0.2
 40
0.2
 40
0.2
 40
0.4
 40
0.4
 40
0.4
 40
0.4
 40
0.6000000000000001
 40
0.6000000000000001
 40
0.6000000000000001
 40
0.6000000000000001
 40
0.8
 40
0.8
 40
0.8
 40
0.8
 40
1.0
 40
1.0
 40
1.0
 40
1.0
 10
3.4647000000000001
 20
-2.1265400000000003
 30
0.0
 10
3.1573600000000002
 20
-2.4059400000000002
 30
0.0
 10
3.2665800000000003
 20
-2.9545800000000004
 30
0.0
 10
3.5764600000000004
 20
-3.2060400000000002
 30
0.0
 10
3.5764600000000004
 20
-3.2060400000000002
 30
0.0
 10
3.5917000000000003
 20
-2.9393400000000001
 30
0.0
 10
3.7517200000000002
 20
-2.6320000000000001
 30
0.0
 10
3.6526600000000005
 20
-2.3576800000000002
 30
0.0
 10
3.6526600000000005
 20
-2.3576800000000002
 30
0.0
 10
3.6526600000000005
 20
-2.3576800000000002
 30
0.0
 10
3.6298000000000004
 20
-2.3881600000000001
 30
0.0
 10
3.6298000000000004
 20
-2.3881600000000001
 30
0.0
 10
3.6298000000000004
 20
-2.3881600000000001
 30
0.0
 10
3.5993200000000001
 20
-2.5583400000000003
 30
0.0
 10
3.5942400000000001
 20
-2.7513800000000002
 30
0.0
 10
3.5332800000000004
 20
-2.8961600000000001
 30
0.0
 10
3.5332800000000004
 20
-2.8961600000000001
 30
0.0
 10
3.4545400000000002
 20
-2.6777200000000003
 30
0.0
 10
3.5815400000000004
 20
-2.3526000000000002
 30
0.0
 10
3.4647000000000001
 20
-2.1265400000000003
 30
0.0
  0
SPLINE
  5
39
100
AcDbEntity
  8
Ebene 1
 62
     7
100
AcDbSpline
210
0.0
220
0.0
230
1.0
 70
     1
 71
     3
 72
    28
 73
    24
 74
     0
 42
0.0000000001
 43
0.0000000001
 40
0.0
 40
0.0
 40
0.0
 40
0.0
 40
0.1666666666666667
 40
0.1666666666666667
 40
0.1666666666666667
 40
0.1666666666666667
 40
0.3333333333333333
 40
0.3333333333333333
 40
0.3333333333333333
 40
0.3333333333333333
 40
0.5
 40
0.5
 40
0.5
 40
0.5
 40
0.6666666666666666
 40
0.6666666666666666
 40
0.6666666666666666
 40
0.6666666666666666
 40
0.8333333333333333
 40
0.8333333333333333
 40
0.8333333333333333
 40
0.8333333333333333
 40
1.0
 40
1.0
 40
1.0
 40
1.0
 10
-0.01001
 20
-2.1849600000000002
 30
0.0
 10
-0.16749
 20
-2.4084800000000004
 30
0.0
 10
-0.24115
 20
-2.8682200000000004
 30
0.0
 10
0.00268
 20
-3.0561800000000003
 30
0.0
 10
0.00268
 20
-3.0561800000000003
 30
0.0
 10
0.00268
 20
-3.0561800000000003
 30
0.0
 10
-0.04303
 20
-2.5939000000000001
 30
0.0
 10
-0.04303
 20
-2.5939000000000001
 30
0.0
 10
-0.04303
 20
-2.5939000000000001
 30
0.0
 10
-0.04303
 20
-2.5380200000000004
 30
0.0
 10
-0.07605
 20
-2.4288000000000003
 30
0.0
 10
0.00268
 20
-2.4161000000000001
 30
0.0
 10
0.00268
 20
-2.4161000000000001
 30
0.0
 10
0.08396
 20
-2.6320000000000001
 30
0.0
 10
0.0992
 20
-2.9342600000000001
 30
0.0
 10
0.24398
 20
-3.1425400000000003
 30
0.0
 10
0.24398
 20
-3.1425400000000003
 30
0.0
 10
0.29224
 20
-3.1196800000000002
 30
0.0
 10
0.28208
 20
-3.0511000000000004
 30
0.0
 10
0.31256
 20
-3.0003000000000002
 30
0.0
 10
0.31256
 20
-3.0003000000000002
 30
0.0
 10
0.30494
 20
-2.6396200000000003
 30
0.0
 10
0.16524
 20
-2.43642
 30
0.0
 10
-0.01001
 20
-2.1849600000000002
 30
0.0
  0
SPLINE
  5
3A
100
AcDbEntity
  8
Ebene 1
 62
     7
100
AcDbSpline
210
0.0
220
0.0
230
1.0
 70
     1
 71
     3
 72
    32
 73
    28
 74
     0
 42
0.0000000001
 43
0.0000000001
 40
0.0
 40
0.0
 40
0.0
 40
0.0
 40
0.1428571428571429
 40
0.1428571428571429
 40
0.1428571428571429
 40
0.1428571428571429
 40
0.2857142857142857
 40
0.2857142857142857
 40
0.2857142857142857
 40
0.2857142857142857
 40
0.4285714285714286
 40
0.4285714285714286
 40
0.4285714285714286
 40
0.4285714285714286
 40
0.5714285714285714
 40
0.5714285714285714
 40
0.5714285714285714
 40
0.5714285714285714
 40
0.7142857142857142
 40
0.7142857142857142
 40
0.7142857142857142
 40
0.7142857142857142
 40
0.857142857142857
 40
0.857142857142857
 40
0.857142857142857
 40
0.857142857142857
 40
1.0
 40
1.0
 40
1.0
 40
1.0
 10
2.7408000000000001
 20
-2.3221200000000004
 30
0.0
 10
2.5630000000000002
 20
-2.2967200000000001
 30
0.0
 10
2.6646000000000001
 20
-2.52278
 30
0.0
 10
2.6620600000000003
 20
-2.6218400000000002
 30
0.0
 10
2.6620600000000003
 20
-2.6218400000000002
 30
0.0
 10
2.6620600000000003
 20
-2.6218400000000002
 30
0.0
 10
2.7408000000000001
 20
-2.8529800000000001
 30
0.0
 10
2.7408000000000001
 20
-2.8529800000000001
 30
0.0
 10
2.7408000000000001
 20
-2.8529800000000001
 30
0.0
 10
2.7408000000000001
 20
-2.8529800000000001
 30
0.0
 10
2.7890600000000001
 20
-2.9977600000000004
 30
0.0
 10
2.7890600000000001
 20
-2.9977600000000004
 30
0.0
 10
2.7890600000000001
 20
-2.9977600000000004
 30
0.0
 10
2.8373200000000001
 20
-2.8225000000000002
 30
0.0
 10
3.1497400000000004
 20
-2.6142200000000004
 30
0.0
 10
2.9694000000000003
 20
-2.4542000000000002
 30
0.0
 10
2.9694000000000003
 20
-2.4542000000000002
 30
0.0
 10
2.9694000000000003
 20
-2.5202400000000003
 30
0.0
 10
2.9440000000000004
 20
-2.5786600000000002
 30
0.0
 10
2.9059000000000004
 20
-2.6294600000000004
 30
0.0
 10
2.9059000000000004
 20
-2.6294600000000004
 30
0.0
 10
2.8703400000000001
 20
-2.6650200000000002
 30
0.0
 10
2.8170000000000002
 20
-2.8504400000000003
 30
0.0
 10
2.7890600000000001
 20
-2.73868
 30
0.0
 10
2.7890600000000001
 20
-2.73868
 30
0.0
 10
2.8119200000000002
 20
-2.5939000000000001
 30
0.0
 10
2.9541600000000003
 20
-2.36022
 30
0.0
 10
2.7408000000000001
 20
-2.3221200000000004
 30
0.0
  0
SPLINE
  5
3B
100
AcDbEntity
  8
Ebene 1
 62
     7
100
AcDbSpline
210
0.0
220
0.0
230
1.0
 70
     1
 71
     3
 72
    20
 73
    16
 74
     0
 42
0.0000000001
 43
0.0000000001
 40
0.0
 40
0.0
 40
0.0
 40
0.0
 40
0.25
 40
0.25
 40
0.25
 40
0.25
 40
0.5
 40
0.5
 40
0.5
 40
0.5
 40
0.75
 40
0.75
 40
0.75
 40
0.75
 40
1.0
 40
1.0
 40
1.0
 40
1.0
 10
0.5183000000000001
 20
-2.4694400000000001
 30
0.0
 10
0.37352
 20
-2.7615400000000001
 30
0.0
 10
0.35828
 20
-3.1654000000000004
 30
0.0
 10
0.6478400000000001
 20
-3.3787600000000002
 30
0.0
 10
0.6478400000000001
 20
-3.3787600000000002
 30
0.0
 10
0.59958
 20
-3.1755600000000004
 30
0.0
 10
0.55132
 20
-2.9571200000000002
 30
0.0
 10
0.48782
 20
-2.7590000000000003
 30
0.0
 10
0.48782
 20
-2.7590000000000003
 30
0.0
 10
0.6326000000000001
 20
-2.7894800000000002
 30
0.0
 10
0.658
 20
-3.3736800000000002
 30
0.0
 10
0.8383400000000001
 20
-3.3330400000000004
 30
0.0
 10
0.8383400000000001
 20
-3.3330400000000004
 30
0.0
 10
0.7215
 20
-3.1806400000000004
 30
0.0
 10
0.64022
 20
-2.5177
 30
0.0
 10
0.5183000000000001
 20
-2.4694400000000001
 30
0.0
  0
SPLINE
  5
3C
100
AcDbEntity
  8
Ebene 1
 62
     7
100
AcDbSpline
210
0.0
220
0.0
230
1.0
 70
     1
 71
     3
 72
    36
 73
    32
 74
     0
 42
0.0000000001
 43
0.0000000001
 40
0.0
 40
0.0
 40
0.0
 40
0.0
 40
0.125
 40
0.125
 40
0.125
 40
0.125
 40
0.25
 40
0.25
 40
0.25
 40
0.25
 40
0.375
 40
0.375
 40
0.375
 40
0.375
 40
0.5
 40
0.5
 40
0.5
 40
0.5
 40
0.625
 40
0.625
 40
0.625
 40
0.625
 40
0.75
 40
0.75
 40
0.75
 40
0.75
 40
0.875
 40
0.875
 40
0.875
 40
0.875
 40
1.0
 40
1.0
 40
1.0
 40
1.0
 10
1.14568
 20
-2.5786600000000002
 30
0.0
 10
0.8815200000000001
 20
-2.81488
 30
0.0
 10
0.8561200000000001
 20
-3.5743400000000003
 30
0.0
 10
1.3336400000000002
 20
-3.5387800000000005
 30
0.0
 10
1.3336400000000002
 20
-3.5387800000000005
 30
0.0
 10
1.3336400000000002
 20
-3.5387800000000005
 30
0.0
 10
1.2295
 20
-3.2822400000000003
 30
0.0
 10
1.2295
 20
-3.2822400000000003
 30
0.0
 10
1.2295
 20
-3.2822400000000003
 30
0.0
 10
1.2295
 20
-3.2822400000000003
 30
0.0
 10
1.1634600000000002
 20
-3.1095200000000003
 30
0.0
 10
1.1634600000000002
 20
-3.1095200000000003
 30
0.0
 10
1.1634600000000002
 20
-3.1095200000000003
 30
0.0
 10
1.1685400000000001
 20
-3.0460200000000004
 30
0.0
 10
1.0796400000000002
 20
-2.9571200000000002
 30
0.0
 10
1.14568
 20
-2.9164800000000004
 30
0.0
 10
1.14568
 20
-2.9164800000000004
 30
0.0
 10
1.14568
 20
-2.9164800000000004
 30
0.0
 10
1.4225400000000001
 20
-3.4600400000000002
 30
0.0
 10
1.4225400000000001
 20
-3.4600400000000002
 30
0.0
 10
1.4225400000000001
 20
-3.4600400000000002
 30
0.0
 10
1.4784200000000001
 20
-3.4219400000000002
 30
0.0
 10
1.4581000000000002
 20
-3.3076400000000001
 30
0.0
 10
1.4073000000000002
 20
-3.2670000000000003
 30
0.0
 10
1.4073000000000002
 20
-3.2670000000000003
 30
0.0
 10
1.4073000000000002
 20
-3.2670000000000003
 30
0.0
 10
1.3031600000000001
 20
-3.0333200000000002
 30
0.0
 10
1.3031600000000001
 20
-3.0333200000000002
 30
0.0
 10
1.3031600000000001
 20
-3.0333200000000002
 30
0.0
 10
1.3031600000000001
 20
-3.0333200000000002
 30
0.0
 10
1.14568
 20
-2.5786600000000002
 30
0.0
 10
1.14568
 20
-2.5786600000000002
 30
0.0
  0
SPLINE
  5
3D
100
AcDbEntity
  8
Ebene 1
 62
     7
100
AcDbSpline
210
0.0
220
0.0
230
1.0
 70
     1
 71
     3
 72
    36
 73
    32
 74
     0
 42
0.0000000001
 43
0.0000000001
 40
0.0
 40
0.0
 40
0.0
 40
0.0
 40
0.125
 40
0.125
 40
0.125
 40
0.125
 40
0.25
 40
0.25
 40
0.25
 40
0.25
 40
0.375
 40
0.375
 40
0.375
 40
0.375
 40
0.5
 40
0.5
 40
0.5
 40
0.5
 40
0.625
 40
0.625
 40
0.625
 40
0.625
 40
0.75
 40
0.75
 40
0.75
 40
0.75
 40
0.875
 40
0.875
 40
0.875
 40
0.875
 40
1.0
 40
1.0
 40
1.0
 40
1.0
 10
1.8721200000000002
 20
-2.6599400000000002
 30
0.0
 10
1.7679800000000001
 20
-2.8123400000000003
 30
0.0
 10
1.7527400000000002
 20
-3.0206200000000001
 30
0.0
 10
1.7273400000000001
 20
-3.2060400000000002
 30
0.0
 10
1.7273400000000001
 20
-3.2060400000000002
 30
0.0
 10
1.6994000000000002
 20
-3.2797000000000001
 30
0.0
 10
1.7146400000000002
 20
-3.3686000000000003
 30
0.0
 10
1.7095600000000002
 20
-3.4473400000000001
 30
0.0
 10
1.7095600000000002
 20
-3.4473400000000001
 30
0.0
 10
1.7273400000000001
 20
-3.5464000000000002
 30
0.0
 10
1.8111600000000001
 20
-3.6454600000000004
 30
0.0
 10
1.9000600000000001
 20
-3.6530800000000001
 30
0.0
 10
1.9000600000000001
 20
-3.6530800000000001
 30
0.0
 10
1.9457800000000001
 20
-3.4371800000000001
 30
0.0
 10
1.9178400000000002
 20
-3.1908000000000003
 30
0.0
 10
1.8746600000000002
 20
-2.9850600000000003
 30
0.0
 10
1.8746600000000002
 20
-2.9850600000000003
 30
0.0
 10
1.9661000000000002
 20
-2.9545800000000004
 30
0.0
 10
1.9407000000000001
 20
-3.0841200000000004
 30
0.0
 10
1.9788000000000001
 20
-3.1298400000000002
 30
0.0
 10
1.9788000000000001
 20
-3.1298400000000002
 30
0.0
 10
2.0067400000000002
 20
-3.1908000000000003
 30
0.0
 10
2.0245200000000003
 20
-3.2543000000000002
 30
0.0
 10
2.0321400000000001
 20
-3.3203400000000003
 30
0.0
 10
2.0321400000000001
 20
-3.3203400000000003
 30
0.0
 10
2.0575400000000004
 20
-3.4397200000000003
 30
0.0
 10
2.0829400000000002
 20
-3.5591000000000004
 30
0.0
 10
2.0829400000000002
 20
-3.6835600000000004
 30
0.0
 10
2.0829400000000002
 20
-3.6835600000000004
 30
0.0
 10
2.2607400000000002
 20
-3.3609800000000001
 30
0.0
 10
1.9407000000000001
 20
-2.9926800000000005
 30
0.0
 10
1.8721200000000002
 20
-2.6599400000000002
 30
0.0
  0
SPLINE
  5
3E
100
AcDbEntity
  8
Ebene 1
 62
     7
100
AcDbSpline
210
0.0
220
0.0
230
1.0
 70
     1
 71
     3
 72
    24
 73
    20
 74
     0
 42
0.0000000001
 43
0.0000000001
 40
0.0
 40
0.0
 40
0.0
 40
0.0
 40
0.2
 40
0.2
 40
0.2
 40
0.2
 40
0.4
 40
0.4
 40
0.4
 40
0.4
 40
0.6000000000000001
 40
0.6000000000000001
 40
0.6000000000000001
 40
0.6000000000000001
 40
0.8
 40
0.8
 40
0.8
 40
0.8
 40
1.0
 40
1.0
 40
1.0
 40
1.0
 10
2.5299800000000001
 20
-2.8529800000000001
 30
0.0
 10
2.45886
 20
-3.1146000000000003
 30
0.0
 10
2.2683600000000004
 20
-3.4981400000000002
 30
0.0
 10
2.4461600000000003
 20
-3.7496000000000005
 30
0.0
 10
2.4461600000000003
 20
-3.7496000000000005
 30
0.0
 10
2.4563200000000003
 20
-3.5464000000000002
 30
0.0
 10
2.4334600000000002
 20
-3.3203400000000003
 30
0.0
 10
2.5147400000000002
 20
-3.1425400000000003
 30
0.0
 10
2.5147400000000002
 20
-3.1425400000000003
 30
0.0
 10
2.5147400000000002
 20
-3.1425400000000003
 30
0.0
 10
2.5655400000000004
 20
-3.7902400000000003
 30
0.0
 10
2.5655400000000004
 20
-3.7902400000000003
 30
0.0
 10
2.5655400000000004
 20
-3.7902400000000003
 30
0.0
 10
2.6442800000000002
 20
-3.8308800000000005
 30
0.0
 10
2.7331800000000004
 20
-3.8258000000000005
 30
0.0
 10
2.79922
 20
-3.7826200000000001
 30
0.0
 10
2.79922
 20
-3.7826200000000001
 30
0.0
 10
2.8424
 20
-3.4600400000000002
 30
0.0
 10
2.6849200000000004
 20
-3.1196800000000002
 30
0.0
 10
2.5299800000000001
 20
-2.8529800000000001
 30
0.0
  0
SPLINE
  5
3F
100
AcDbEntity
  8
Ebene 1
 62
     7
100
AcDbSpline
210
0.0
220
0.0
230
1.0
 70
     1
 71
     3
 72
    20
 73
    16
 74
     0
 42
0.0000000001
 43
0.0000000001
 40
0.0
 40
0.0
 40
0.0
 40
0.0
 40
0.25
 40
0.25
 40
0.25
 40
0.25
 40
0.5
 40
0.5
 40
0.5
 40
0.5
 40
0.75
 40
0.75
 40
0.75
 40
0.75
 40
1.0
 40
1.0
 40
1.0
 40
1.0
 10
4.2546400000000002
 20
-2.8682200000000004
 30
0.0
 10
4.19876
 20
-3.03078
 30
0.0
 10
4.0336600000000002
 20
-3.7369000000000003
 30
0.0
 10
4.2648000000000001
 20
-3.7318200000000004
 30
0.0
 10
4.2648000000000001
 20
-3.7318200000000004
 30
0.0
 10
4.2648000000000001
 20
-3.7318200000000004
 30
0.0
 10
4.2698800000000006
 20
-3.2695400000000001
 30
0.0
 10
4.2698800000000006
 20
-3.2695400000000001
 30
0.0
 10
4.2698800000000006
 20
-3.2695400000000001
 30
0.0
 10
4.3156000000000008
 20
-3.2746200000000001
 30
0.0
 10
4.3130600000000001
 20
-3.5845000000000002
 30
0.0
 10
4.3206800000000003
 20
-3.6530800000000001
 30
0.0
 10
4.3206800000000003
 20
-3.6530800000000001
 30
0.0
 10
4.4375200000000001
 20
-3.4143200000000005
 30
0.0
 10
4.3486200000000004
 20
-3.1069800000000001
 30
0.0
 10
4.2546400000000002
 20
-2.8682200000000004
 30
0.0
  0
SPLINE
  5
40
100
AcDbEntity
  8
Ebene 1
 62
     7
100
AcDbSpline
210
0.0
220
0.0
230
1.0
 70
     1
 71
     3
 72
    32
 73
    28
 74
     0
 42
0.0000000001
 43
0.0000000001
 40
0.0
 40
0.0
 40
0.0
 40
0.0
 40
0.1428571428571429
 40
0.1428571428571429
 40
0.1428571428571429
 40
0.1428571428571429
 40
0.2857142857142857
 40
0.2857142857142857
 40
0.2857142857142857
 40
0.2857142857142857
 40
0.4285714285714286
 40
0.4285714285714286
 40
0.4285714285714286
 40
0.4285714285714286
 40
0.5714285714285714
 40
0.5714285714285714
 40
0.5714285714285714
 40
0.5714285714285714
 40
0.7142857142857142
 40
0.7142857142857142
 40
0.7142857142857142
 40
0.7142857142857142
 40
0.857142857142857
 40
0.857142857142857
 40
0.857142857142857
 40
0.857142857142857
 40
1.0
 40
1.0
 40
1.0
 40
1.0
 10
3.8025200000000003
 20
-2.90124
 30
0.0
 10
3.6602800000000002
 20
-3.15524
 30
0.0
 10
3.5332800000000004
 20
-3.5692600000000003
 30
0.0
 10
3.8304600000000004
 20
-3.7851600000000003
 30
0.0
 10
3.8304600000000004
 20
-3.7851600000000003
 30
0.0
 10
3.8533200000000005
 20
-3.6226000000000003
 30
0.0
 10
3.8888800000000003
 20
-3.4803600000000001
 30
0.0
 10
3.8279200000000002
 20
-3.3203400000000003
 30
0.0
 10
3.8279200000000002
 20
-3.3203400000000003
 30
0.0
 10
3.8228400000000002
 20
-3.2695400000000001
 30
0.0
 10
3.8126800000000003
 20
-3.2009600000000002
 30
0.0
 10
3.8380800000000002
 20
-3.1603200000000005
 30
0.0
 10
3.8380800000000002
 20
-3.1603200000000005
 30
0.0
 10
3.8380800000000002
 20
-3.1603200000000005
 30
0.0
 10
3.9981000000000004
 20
-3.6429200000000002
 30
0.0
 10
3.9981000000000004
 20
-3.6429200000000002
 30
0.0
 10
3.9981000000000004
 20
-3.6429200000000002
 30
0.0
 10
3.9981000000000004
 20
-3.6429200000000002
 30
0.0
 10
4.0031800000000004
 20
-3.4600400000000002
 30
0.0
 10
4.0031800000000004
 20
-3.4600400000000002
 30
0.0
 10
4.0031800000000004
 20
-3.4600400000000002
 30
0.0
 10
4.0031800000000004
 20
-3.4600400000000002
 30
0.0
 10
3.9650800000000004
 20
-3.2390600000000003
 30
0.0
 10
3.9650800000000004
 20
-3.2390600000000003
 30
0.0
 10
3.9650800000000004
 20
-3.2390600000000003
 30
0.0
 10
3.9498400000000005
 20
-3.11206
 30
0.0
 10
3.8787200000000004
 20
-3.0028400000000004
 30
0.0
 10
3.8025200000000003
 20
-2.90124
 30
0.0
  0
SPLINE
  5
41
100
AcDbEntity
  8
Ebene 1
 62
     7
100
AcDbSpline
210
0.0
220
0.0
230
1.0
 70
     1
 71
     3
 72
    44
 73
    40
 74
     0
 42
0.0000000001
 43
0.0000000001
 40
0.0
 40
0.0
 40
0.0
 40
0.0
 40
0.1
 40
0.1
 40
0.1
 40
0.1
 40
0.2
 40
0.2
 40
0.2
 40
0.2
 40
0.3
 40
0.3
 40
0.3
 40
0.3
 40
0.4
 40
0.4
 40
0.4
 40
0.4
 40
0.5
 40
0.5
 40
0.5
 40
0.5
 40
0.6
 40
0.6
 40
0.6
 40
0.6
 40
0.7
 40
0.7
 40
0.7
 40
0.7
 40
0.7999999999999999
 40
0.7999999999999999
 40
0.7999999999999999
 40
0.7999999999999999
 40
0.8999999999999999
 40
0.8999999999999999
 40
0.8999999999999999
 40
0.8999999999999999
 40
1.0
 40
1.0
 40
1.0
 40
1.0
 10
3.1421200000000002
 20
-2.9799800000000003
 30
0.0
 10
2.9135200000000001
 20
-3.1577800000000003
 30
0.0
 10
2.9211400000000003
 20
-3.4549600000000003
 30
0.0
 10
2.9846400000000002
 20
-3.7242000000000002
 30
0.0
 10
2.9846400000000002
 20
-3.7242000000000002
 30
0.0
 10
3.0659200000000002
 20
-3.7953200000000002
 30
0.0
 10
3.1903800000000002
 20
-3.9070800000000001
 30
0.0
 10
3.2818200000000002
 20
-3.8791400000000005
 30
0.0
 10
3.2818200000000002
 20
-3.8791400000000005
 30
0.0
 10
3.30722
 20
-3.7267400000000004
 30
0.0
 10
3.2462600000000004
 20
-3.5895800000000002
 30
0.0
 10
3.2234000000000003
 20
-3.4473400000000001
 30
0.0
 10
3.2234000000000003
 20
-3.4473400000000001
 30
0.0
 10
3.2234000000000003
 20
-3.4473400000000001
 30
0.0
 10
3.1751400000000003
 20
-3.2543000000000002
 30
0.0
 10
3.1751400000000003
 20
-3.2543000000000002
 30
0.0
 10
3.1751400000000003
 20
-3.2543000000000002
 30
0.0
 10
3.1751400000000003
 20
-3.2543000000000002
 30
0.0
 10
3.1294200000000001
 20
-3.1450800000000001
 30
0.0
 10
3.1294200000000001
 20
-3.1450800000000001
 30
0.0
 10
3.1294200000000001
 20
-3.1450800000000001
 30
0.0
 10
3.1421200000000002
 20
-3.1273000000000004
 30
0.0
 10
3.1675200000000001
 20
-3.1196800000000002
 30
0.0
 10
3.1878400000000005
 20
-3.1298400000000002
 30
0.0
 10
3.1878400000000005
 20
-3.1298400000000002
 30
0.0
 10
3.3402400000000001
 20
-3.3152600000000003
 30
0.0
 10
3.3758000000000004
 20
-3.5591000000000004
 30
0.0
 10
3.4367600000000005
 20
-3.7826200000000001
 30
0.0
 10
3.4367600000000005
 20
-3.7826200000000001
 30
0.0
 10
3.4774000000000003
 20
-3.7191200000000002
 30
0.0
 10
3.5332800000000004
 20
-3.6124400000000003
 30
0.0
 10
3.4977200000000002
 20
-3.5286200000000001
 30
0.0
 10
3.4977200000000002
 20
-3.5286200000000001
 30
0.0
 10
3.4748600000000005
 20
-3.4549600000000003
 30
0.0
 10
3.4316800000000001
 20
-3.3762200000000004
 30
0.0
 10
3.3707200000000004
 20
-3.3305000000000002
 30
0.0
 10
3.3707200000000004
 20
-3.3305000000000002
 30
0.0
 10
3.3707200000000004
 20
-3.3305000000000002
 30
0.0
 10
3.1421200000000002
 20
-2.9799800000000003
 30
0.0
 10
3.1421200000000002
 20
-2.9799800000000003
 30
0.0
  0
ENDSEC
  0
SECTION
  2
OBJECTS
  0
DICTIONARY
  5
19
100
AcDbDictionary
280
     0
281
     1
  3
ACAD_GROUP
350
1A
  3
ACAD_MLINESTYLE
350
1B
  3
ACAD_LAYOUT
350
1E
  3
ACAD_PLOTSETTINGS
350
22
  3
ACAD_PLOTSTYLENAME
350
1F
  3
ACAD_WIPEOUT_VARS
350
23
  0
DICTIONARY
  5
1A
102
{ACAD_REACTORS
330
19
102
}
100
AcDbDictionary
280
     0
281
     1
  0
DICTIONARY
  5
1B
102
{ACAD_REACTORS
330
19
102
}
100
AcDbDictionary
280
     0
281
     1
  3
Standard
350
1C
  0
MLINESTYLE
  5
1C
102
{ACAD_REACTORS
330
1B
102
}
100
AcDbMlineStyle
  2
Standard
 70
     0
  3

 62
     0
 51
90.0
 52
90.0
 71
     2
 49
0.5
 62
   256
  6
BYLAYER
 49
-0.5
 62
   256
  6
BYLAYER
  0
ACDBDICTIONARYWDFLT
  5
1F
102
{ACAD_REACTORS
330
19
102
}
100
AcDbDictionary
281
     1
  3
Normal
350
1D
100
AcDbDictionaryWithDefault
340
1D
  0
ACDBPLACEHOLDER
  5
1D
102
{ACAD_REACTORS
330
1F
102
}
  0
LAYOUT
  5
20
102
{ACAD_REACTORS
330
1E
102
}
100
AcDbPlotSettings
  1

  2

  4

  6

 40
0.0
 41
0.0
 42
0.0
 43
0.0
 44
0.0
 45
0.0
 46
0.0
 47
0.0
 48
0.0
 49
0.0
140
0.0
141
0.0
142
1.0
143
1.0
 70
  1024
 72
     0
 73
     0
 74
     0
  7

 75
     0
147
1.0
148
0.0
149
0.0
100
AcDbLayout
  1
Model
 70
     0
 71
     0
 10
0.0
 20
0.0
 11
0.0
 21
0.0
 12
0.0
 22
0.0
 32
0.0
 14
0.0
 24
0.0
 34
0.0
 15
0.0
 25
0.0
 35
0.0
146
0.0
 13
0.0
 23
0.0
 33
0.0
 16
0.0
 26
0.0
 36
0.0
 17
0.0
 27
0.0
 37
0.0
 76
     0
330
A
331
0
345
0
346
0
  0
LAYOUT
  5
21
102
{ACAD_REACTORS
330
1E
102
}
100
AcDbPlotSettings
  1

  2

  4

  6

 40
0.0
 41
0.0
 42
0.0
 43
0.0
 44
0.0
 45
0.0
 46
0.0
 47
0.0
 48
0.0
 49
0.0
140
0.0
141
0.0
142
1.0
143
1.0
 70
     0
 72
     0
 73
     0
 74
     0
  7

 75
     0
147
1.0
148
0.0
149
0.0
100
AcDbLayout
  1
Layout1
 70
     0
 71
     0
 10
0.0
 20
0.0
 11
0.0
 21
0.0
 12
0.0
 22
0.0
 32
0.0
 14
0.0
 24
0.0
 34
0.0
 15
0.0
 25
0.0
 35
0.0
146
0.0
 13
0.0
 23
0.0
 33
0.0
 16
0.0
 26
0.0
 36
0.0
 17
0.0
 27
0.0
 37
0.0
 76
     0
330
B
331
0
345
0
346
0
  0
DICTIONARY
  5
1E
102
{ACAD_REACTORS
330
19
102
}
100
AcDbDictionary
280
     0
281
     1
  3
Layout1
350
21
  3
Model
350
20
  0
DICTIONARY
  5
22
102
{ACAD_REACTORS
330
19
102
}
100
AcDbDictionary
280
     0
281
     1
  0
WIPEOUTVARIABLES
  5
23
100
AcDbWipeoutVariables
 70
     1
  0
ENDSEC
  0
EOF
