  0
SECTION
  2
HEADER
  9
$ACADVER
  1
AC1015
  9
$ACADMAINTVER
 70
     6
  9
$DWGCODEPAGE
  3
DOS850
  9
$INSBASE
 10
0.0
 20
0.0
 30
0.0
  9
$EXTMIN
 10
-5.31161
 20
-4.79862
 30
1.000000E+20
  9
$EXTMAX
 10
5.31666
 20
4.79186
 30
-1.000000E+20
  9
$LIMMIN
 10
0.0
 20
0.0
  9
$LIMMAX
 10
0.0
 20
0.0
  9
$ORTHOMODE
 70
     0
  9
$REGENMODE
 70
     1
  9
$FILLMODE
 70
     1
  9
$QTEXTMODE
 70
     0
  9
$MIRRTEXT
 70
     1
  9
$LTSCALE
 40
1.0
  9
$ATTMODE
 70
     1
  9
$TEXTSIZE
 40
0.2
  9
$TRACEWID
 40
0.05
  9
$TEXTSTYLE
  7
Standard
  9
$CLAYER
  8
0
  9
$CELTYPE
  6
Continuous
  9
$CECOLOR
 62
   256
  9
$CELTSCALE
 40
1.0
  9
$DISPSILH
 70
     0
  9
$DIMSCALE
 40
1.0
  9
$DIMASZ
 40
0.18
  9
$DIMEXO
 40
0.0625
  9
$DIMDLI
 40
0.38
  9
$DIMRND
 40
0.0
  9
$DIMDLE
 40
0.0
  9
$DIMEXE
 40
0.18
  9
$DIMTP
 40
0.0
  9
$DIMTM
 40
0.0
  9
$DIMTXT
 40
0.18
  9
$DIMCEN
 40
0.09
  9
$DIMTSZ
 40
0.0
  9
$DIMTOL
 70
     0
  9
$DIMLIM
 70
     0
  9
$DIMTIH
 70
     1
  9
$DIMTOH
 70
     1
  9
$DIMSE1
 70
     0
  9
$DIMSE2
 70
     0
  9
$DIMTAD
 70
     0
  9
$DIMZIN
 70
     0
  9
$DIMBLK
  1

  9
$DIMASO
 70
     1
  9
$DIMSHO
 70
     1
  9
$DIMPOST
  1

  9
$DIMAPOST
  1

  9
$DIMALT
 70
     0
  9
$DIMALTD
 70
     2
  9
$DIMALTF
 40
25.4
  9
$DIMLFAC
 40
1.0
  9
$DIMTOFL
 70
     0
  9
$DIMTVP
 40
0.0
  9
$DIMTIX
 70
     0
  9
$DIMSOXD
 70
     0
  9
$DIMSAH
 70
     0
  9
$DIMBLK1
  1

  9
$DIMBLK2
  1

  9
$DIMSTYLE
  2
Standard
  9
$DIMCLRD
 70
     0
  9
$DIMCLRE
 70
     0
  9
$DIMCLRT
 70
     0
  9
$DIMTFAC
 40
1.0
  9
$DIMGAP
 40
0.09
  9
$DIMJUST
 70
     0
  9
$DIMSD1
 70
     0
  9
$DIMSD2
 70
     0
  9
$DIMTOLJ
 70
     1
  9
$DIMTZIN
 70
     0
  9
$DIMALTZ
 70
     0
  9
$DIMALTTZ
 70
     0
  9
$DIMUPT
 70
     0
  9
$DIMDEC
 70
     4
  9
$DIMTDEC
 70
     4
  9
$DIMALTU
 70
     2
  9
$DIMALTTD
 70
     2
  9
$DIMTXSTY
  7
Standard
  9
$DIMAUNIT
 70
     0
  9
$DIMADEC
 70
     0
  9
$DIMALTRND
 40
0.0
  9
$DIMAZIN
 70
     0
  9
$DIMDSEP
 70
     0
  9
$DIMATFIT
 70
     3
  9
$DIMFRAC
 70
     0
  9
$DIMLDRBLK
  1

  9
$DIMLUNIT
 70
     2
  9
$DIMLWD
 70
     0
  9
$DIMLWE
 70
     0
  9
$DIMTMOVE
 70
     0
  9
$LUNITS
 70
     2
  9
$LUPREC
 70
     4
  9
$SKETCHINC
 40
0.1
  9
$FILLETRAD
 40
0.0
  9
$AUNITS
 70
     0
  9
$AUPREC
 70
     0
  9
$MENU
  1
acad
  9
$ELEVATION
 40
0.0
  9
$PELEVATION
 40
0.0
  9
$THICKNESS
 40
0.0
  9
$LIMCHECK
 70
     0
  9
$CHAMFERA
 40
0.0
  9
$CHAMFERB
 40
0.0
  9
$CHAMFERC
 40
0.0
  9
$CHAMFERD
 40
0.0
  9
$SKPOLY
 70
     0
  9
$TDCREATE
 40
0.000000000
  9
$TDUCREATE
 40
0.000000000
  9
$TDUPDATE
 40
0.000000000
  9
$TDUUPDATE
 40
0.000000000
  9
$TDINDWG
 40
0.0000000000
  9
$TDUSRTIMER
 40
0.0000000000
  9
$USRTIMER
 70
     1
  9
$ANGBASE
 50
0.0
  9
$ANGDIR
 70
     0
  9
$PDMODE
 70
     0
  9
$PDSIZE
 40
0.0
  9
$PLINEWID
 40
0.0
  9
$SPLFRAME
 70
     0
  9
$SPLINETYPE
 70
     6
  9
$SPLINESEGS
 70
     8
  9
$HANDSEED
  5
37
  9
$SURFTAB1
 70
     6
  9
$SURFTAB2
 70
     6
  9
$SURFTYPE
 70
     6
  9
$SURFU
 70
     6
  9
$SURFV
 70
     6
  9
$UCSBASE
  2

  9
$UCSNAME
  2

  9
$UCSORG
 10
0.0
 20
0.0
 30
0.0
  9
$UCSXDIR
 10
1.0
 20
0.0
 30
0.0
  9
$UCSYDIR
 10
0.0
 20
1.0
 30
0.0
  9
$UCSORTHOREF
  2

  9
$UCSORTHOVIEW
 70
     0
  9
$UCSORGTOP
 10
0.0
 20
0.0
 30
0.0
  9
$UCSORGBOTTOM
 10
0.0
 20
0.0
 30
0.0
  9
$UCSORGLEFT
 10
0.0
 20
0.0
 30
0.0
  9
$UCSORGRIGHT
 10
0.0
 20
0.0
 30
0.0
  9
$UCSORGFRONT
 10
0.0
 20
0.0
 30
0.0
  9
$UCSORGBACK
 10
0.0
 20
0.0
 30
0.0
  9
$PUCSBASE
  2

  9
$PUCSNAME
  2

  9
$PUCSORG
 10
0.0
 20
0.0
 30
0.0
  9
$PUCSXDIR
 10
1.0
 20
0.0
 30
0.0
  9
$PUCSYDIR
 10
0.0
 20
1.0
 30
0.0
  9
$PUCSORTHOREF
  2

  9
$PUCSORTHOVIEW
 70
     0
  9
$PUCSORGTOP
 10
0.0
 20
0.0
 30
0.0
  9
$PUCSORGBOTTOM
 10
0.0
 20
0.0
 30
0.0
  9
$PUCSORGLEFT
 10
0.0
 20
0.0
 30
0.0
  9
$PUCSORGRIGHT
 10
0.0
 20
0.0
 30
0.0
  9
$PUCSORGFRONT
 10
0.0
 20
0.0
 30
0.0
  9
$PUCSORGBACK
 10
0.0
 20
0.0
 30
0.0
  9
$USERI1
 70
     0
  9
$USERI2
 70
     0
  9
$USERI3
 70
     0
  9
$USERI4
 70
     0
  9
$USERI5
 70
     0
  9
$USERR1
 40
0.0
  9
$USERR2
 40
0.0
  9
$USERR3
 40
0.0
  9
$USERR4
 40
0.0
  9
$USERR5
 40
0.0
  9
$WORLDVIEW
 70
     1
  9
$SHADEDGE
 70
     3
  9
$SHADEDIF
 70
    70
  9
$TILEMODE
 70
     1
  9
$MAXACTVP
 70
    16
  9
$PINSBASE
 10
0.0
 20
0.0
 30
0.0
  9
$PLIMCHECK
 70
     0
  9
$PEXTMIN
 10
1.000000E+20
 20
1.000000E+20
 30
1.000000E+20
  9
$PEXTMAX
 10
-1.000000E+20
 20
-1.000000E+20
 30
-1.000000E+20
  9
$PLIMMIN
 10
0.0
 20
0.0
  9
$PLIMMAX
 10
12.0
 20
9.0
  9
$UNITMODE
 70
     0
  9
$VISRETAIN
 70
     0
  9
$PLINEGEN
 70
     1
  9
$PSLTSCALE
 70
     0
  9
$TREEDEPTH
 70
  3020
  9
$CMLSTYLE
  2
Standard
  9
$CMLJUST
 70
     0
  9
$CMLSCALE
 40
1.0
  9
$PROXYGRAPHICS
 70
     0
  9
$MEASUREMENT
 70
     0
  9
$CELWEIGHT
370
     0
  9
$ENDCAPS
280
     0
  9
$JOINSTYLE
280
     0
  9
$LWDISPLAY
290
     0
  9
$INSUNITS
 70
     5
  9
$HYPERLINKBASE
  1

  9
$XEDIT
290
     1
  9
$CEPSNTYPE
380
     0
  9
$PSTYLEMODE
290
     1
  9
$FINGERPRINTGUID
  2

  9
$VERSIONGUID
  2

  9
$EXTNAMES
290
     1
  9
$PSVPSCALE
 40
0.0
  0
ENDSEC
  0
SECTION
  2
CLASSES
  0
CLASS
  1
LWPOLYLINE
  2
AcDbPolyline
  3
AutoCAD 2000
 90
    32768
280
     0
281
     1
  0
CLASS
  1
IMAGE
  2
AcDbRasterImage
  3
ISM
 90
    32895
280
     0
281
     1
  0
CLASS
  1
OLE2FRAME
  2
AcDbOle2Frame
  3
AutoCAD 2000
 90
    32768
280
     0
281
     1
  0
CLASS
  1
HATCH
  2
AcDbHatch
  3
AutoCAD 2000
 90
    32768
280
     0
281
     1
  0
CLASS
  1
DICTIONARYVAR
  2
AcDbDictionaryVar
  3
AutoCAD 2000
 90
    32768
280
     0
281
     0
  0
CLASS
  1
RASTERVARIABLES
  2
AcDbRasterVariables
  3
ISM
 90
    32768
280
     0
281
     0
  0
CLASS
  1
IMAGEDEF
  2
AcDbRasterImageDef
  3
ISM
 90
    32768
280
     0
281
     0
  0
CLASS
  1
IMAGEDEF_REACTOR
  2
AcDbRasterImageDefReactor
  3
ISM
 90
    32769
280
     0
281
     0
  0
CLASS
  1
IDBUFFER
  2
AcDbIdBuffer
  3
AutoCAD 2000
 90
    32768
280
     0
281
     0
  0
CLASS
  1
SPATIAL_FILTER
  2
AcDbSpatialFilter
  3
AutoCAD 2000
 90
    32768
280
     0
281
     0
  0
CLASS
  1
XRECORD
  2
AcDbXrecord
  3
AutoCAD 2000
 90
    32768
280
     0
281
     0
  0
CLASS
  1
SORTENTSTABLE
  2
AcDbSortentsTable
  3
AutoCAD 2000
 90
    32768
280
     0
281
     0
  0
CLASS
  1
LAYER_INDEX
  2
AcDbLayerIndex
  3
AutoCAD 2000
 90
    32768
280
     0
281
     0
  0
CLASS
  1
SPATIAL_INDEX
  2
AcDbSpatialIndex
  3
AutoCAD 2000
 90
    32768
280
     0
281
     0
  0
CLASS
  1
OBJECT_PTR
  2
CAseDLPNTableRecord
  3
"ASE-LPNTableRecord"
 90
    32769
280
     0
281
     0
  0
CLASS
  1
LAYOUT
  2
AcDbLayout
  3
AutoCAD 2000
 90
        0
280
     0
281
     0
  0
CLASS
  1
PLOTSETTINGS
  2
AcDbPlotSettings
  3
AutoCAD 2000
 90
    32768
280
     0
281
     0
  0
CLASS
  1
ACDBDICTIONARYWDFLT
  2
AcDbDictionaryWithDefault
  3
AutoCAD 2000
 90
        0
280
     0
281
     0
  0
CLASS
  1
ACDBPLACEHOLDER
  2
AcDbPlaceHolder
  3
AutoCAD 2000
 90
        0
280
     0
281
     0
  0
CLASS
  1
VBA_PROJECT
  2
AcDbVbaProject
  3
acadvba
 90
    32768
280
     0
281
     0
  0
CLASS
  1
WIPEOUT
  2
AcDbWipeout
  3
WipeOut|AutoCAD Express Tool|expresstools@autodesk.com
 90
    32895
280
     0
281
     1
  0
CLASS
  1
WIPEOUTVARIABLES
  2
AcDbWipeoutVariables
  3
WipeOut|AutoCAD Express Tool|expresstools@autodesk.com
 90
        0
280
     0
281
     0
  0
CLASS
  1
RTEXT
  2
RText
  3
RText|AutoCAD Express Tool|expresstools@autodesk.com
 90
    32768
280
     0
281
     1
  0
CLASS
  1
ARCALIGNEDTEXT
  2
AcDbArcAlignedText
  3
ATEXT|AutoCAD Express Tool|expresstools@autodesk.com
 90
    32768
280
     0
281
     1
  0
ENDSEC
  0
SECTION
  2
TABLES
  0
TABLE
  2
VPORT
  5
7
100
AcDbSymbolTable
 70
     1
  0
VPORT
  5
15
100
AcDbSymbolTableRecord
100
AcDbViewportTableRecord
  2
*ACTIVE
 70
     0
 10
0.0
 20
0.0
 11
1.0
 21
1.0
 12
6.591288
 22
4.579184
 13
0.0
 23
0.0
 14
1.0
 24
1.0
 15
0.0
 25
0.0
 16
0.0
 26
0.0
 36
1.0
 17
0.0
 27
0.0
 37
0.0
 40
9.158369
 41
0.688564
 42
50.0
 43
0.0
 44
0.0
 50
0.0
 51
0.0
 71
     0
 72
   100
 73
     1
 74
     1
 75
     0
 76
     0
 77
     0
 78
     0
281
     0
 65
     0
110
0.0
120
0.0
130
0.0
111
1.0
121
0.0
131
0.0
112
0.0
122
1.0
132
0.0
345
0
346
0
 79
     0
146
0.0
  0
ENDTAB
  0
TABLE
  2
LTYPE
  5
4
100
AcDbSymbolTable
 70
     3
  0
LTYPE
  5
11
100
AcDbSymbolTableRecord
100
AcDbLinetypeTableRecord
  2
ByBlock
 70
    64
  3

 72
    65
 73
     0
 40
0.0
  0
LTYPE
  5
12
100
AcDbSymbolTableRecord
100
AcDbLinetypeTableRecord
  2
ByLayer
 70
    64
  3

 72
    65
 73
     0
 40
0.0
  0
LTYPE
  5
13
100
AcDbSymbolTableRecord
100
AcDbLinetypeTableRecord
  2
Continuous
 70
    64
  3
Solid line
 72
    65
 73
     0
 40
0.0
  0
ENDTAB
  0
TABLE
  2
LAYER
  5
2
100
AcDbSymbolTable
 70
     2
  0
LAYER
  5
14
100
AcDbSymbolTableRecord
100
AcDbLayerTableRecord
  2
0
 70
     0
 62
     7
  6
Continuous
290
     1
370
    -3
390
1D
  0
LAYER
  5
24
100
AcDbSymbolTableRecord
100
AcDbLayerTableRecord
  2
Ebene 1
 70
     0
 62
     7
  6
Continuous
290
     1
370
    -3
390
1F
  0
ENDTAB
  0
TABLE
  2
STYLE
  5
3
100
AcDbSymbolTable
 70
     1
  0
STYLE
  5
17
100
AcDbSymbolTableRecord
100
AcDbTextStyleTableRecord
  2
Standard
 70
     0
 40
0.0
 41
1.0
 50
0.0
 71
     0
 42
0.0
  3
txt
  4

  0
ENDTAB
  0
TABLE
  2
VIEW
  5
5
100
AcDbSymbolTable
 70
     0
  0
ENDTAB
  0
TABLE
  2
UCS
  5
6
100
AcDbSymbolTable
 70
     0
  0
ENDTAB
  0
TABLE
  2
APPID
  5
8
100
AcDbSymbolTable
 70
     1
  0
APPID
  5
16
100
AcDbSymbolTableRecord
100
AcDbRegAppTableRecord
  2
ACAD
 70
     0
  0
ENDTAB
  0
TABLE
  2
DIMSTYLE
  5
9
100
AcDbSymbolTable
 70
     1
100
AcDbDimStyleTable
 71
     0
  0
DIMSTYLE
105
18
100
AcDbSymbolTableRecord
100
AcDbDimStyleTableRecord
  2
Standard
 70
     0
  3

  4

 40
1.0
 41
0.18
 42
0.0625
 43
0.38
 44
0.18
 45
0.0
 46
0.0
 47
0.0
 48
0.0
 71
     0
 72
     0
 73
     1
 74
     1
 75
     0
 76
     0
 77
     0
 78
     0
 79
     0
140
0.18
141
0.09
142
0.0
143
25.4
144
1.0
145
0.0
146
1.0
147
0.09
148
0.0
170
     0
171
     2
172
     0
173
     0
174
     0
175
     0
176
     0
177
     0
178
     0
179
     0
271
     4
272
     4
273
     2
274
     2
275
     0
276
     0
277
     2
278
    46
279
     0
280
     0
281
     0
282
     0
283
     1
284
     0
285
     0
286
     0
288
     0
340
17
341
0
342
0
343
0
344
0
371
    -2
372
    -2
  0
ENDTAB
  0
TABLE
  2
BLOCK_RECORD
  5
1
100
AcDbSymbolTable
 70
     0
  0
BLOCK_RECORD
  5
A
100
AcDbSymbolTableRecord
100
AcDbBlockTableRecord
  2
*MODEL_SPACE
340
20
  0
BLOCK_RECORD
  5
B
100
AcDbSymbolTableRecord
100
AcDbBlockTableRecord
  2
*PAPER_SPACE
340
21
  0
ENDTAB
  0
ENDSEC
  0
SECTION
  2
BLOCKS
  0
BLOCK
  5
D
100
AcDbEntity
  8
0
100
AcDbBlockBegin
  2
*MODEL_SPACE
 70
     0
 10
0.0
 20
0.0
 30
0.0
  3
*MODEL_SPACE
  1

  0
ENDBLK
  5
E
100
AcDbEntity
  8
0
100
AcDbBlockEnd
  0
BLOCK
  5
F
100
AcDbEntity
 67
     1
  8
0
100
AcDbBlockBegin
  2
*PAPER_SPACE
 70
     0
 10
0.0
 20
0.0
 30
0.0
  3
*PAPER_SPACE
  1

  0
ENDBLK
  5
10
100
AcDbEntity
 67
     1
  8
0
100
AcDbBlockEnd
  0
ENDSEC
  0
SECTION
  2
ENTITIES
  0
SPLINE
  5
25
100
AcDbEntity
  8
Ebene 1
100
AcDbSpline
210
0.0
220
0.0
230
1.0
 70
     1
 71
     3
 72
   148
 73
   144
 74
     0
 42
0.0000000001
 43
0.0000000001
 40
0.0
 40
0.0
 40
0.0
 40
0.0
 40
0.0277777777777778
 40
0.0277777777777778
 40
0.0277777777777778
 40
0.0277777777777778
 40
0.0555555555555556
 40
0.0555555555555556
 40
0.0555555555555556
 40
0.0555555555555556
 40
0.0833333333333333
 40
0.0833333333333333
 40
0.0833333333333333
 40
0.0833333333333333
 40
0.1111111111111111
 40
0.1111111111111111
 40
0.1111111111111111
 40
0.1111111111111111
 40
0.1388888888888889
 40
0.1388888888888889
 40
0.1388888888888889
 40
0.1388888888888889
 40
0.1666666666666667
 40
0.1666666666666667
 40
0.1666666666666667
 40
0.1666666666666667
 40
0.1944444444444445
 40
0.1944444444444445
 40
0.1944444444444445
 40
0.1944444444444445
 40
0.2222222222222223
 40
0.2222222222222223
 40
0.2222222222222223
 40
0.2222222222222223
 40
0.2500000000000001
 40
0.2500000000000001
 40
0.2500000000000001
 40
0.2500000000000001
 40
0.2777777777777779
 40
0.2777777777777779
 40
0.2777777777777779
 40
0.2777777777777779
 40
0.3055555555555556
 40
0.3055555555555556
 40
0.3055555555555556
 40
0.3055555555555556
 40
0.3333333333333334
 40
0.3333333333333334
 40
0.3333333333333334
 40
0.3333333333333334
 40
0.3611111111111112
 40
0.3611111111111112
 40
0.3611111111111112
 40
0.3611111111111112
 40
0.388888888888889
 40
0.388888888888889
 40
0.388888888888889
 40
0.388888888888889
 40
0.4166666666666668
 40
0.4166666666666668
 40
0.4166666666666668
 40
0.4166666666666668
 40
0.4444444444444446
 40
0.4444444444444446
 40
0.4444444444444446
 40
0.4444444444444446
 40
0.4722222222222224
 40
0.4722222222222224
 40
0.4722222222222224
 40
0.4722222222222224
 40
0.5000000000000001
 40
0.5000000000000001
 40
0.5000000000000001
 40
0.5000000000000001
 40
0.5277777777777779
 40
0.5277777777777779
 40
0.5277777777777779
 40
0.5277777777777779
 40
0.5555555555555557
 40
0.5555555555555557
 40
0.5555555555555557
 40
0.5555555555555557
 40
0.5833333333333335
 40
0.5833333333333335
 40
0.5833333333333335
 40
0.5833333333333335
 40
0.6111111111111113
 40
0.6111111111111113
 40
0.6111111111111113
 40
0.6111111111111113
 40
0.6388888888888891
 40
0.6388888888888891
 40
0.6388888888888891
 40
0.6388888888888891
 40
0.6666666666666669
 40
0.6666666666666669
 40
0.6666666666666669
 40
0.6666666666666669
 40
0.6944444444444446
 40
0.6944444444444446
 40
0.6944444444444446
 40
0.6944444444444446
 40
0.7222222222222224
 40
0.7222222222222224
 40
0.7222222222222224
 40
0.7222222222222224
 40
0.7500000000000002
 40
0.7500000000000002
 40
0.7500000000000002
 40
0.7500000000000002
 40
0.777777777777778
 40
0.777777777777778
 40
0.777777777777778
 40
0.777777777777778
 40
0.8055555555555558
 40
0.8055555555555558
 40
0.8055555555555558
 40
0.8055555555555558
 40
0.8333333333333336
 40
0.8333333333333336
 40
0.8333333333333336
 40
0.8333333333333336
 40
0.8611111111111114
 40
0.8611111111111114
 40
0.8611111111111114
 40
0.8611111111111114
 40
0.8888888888888892
 40
0.8888888888888892
 40
0.8888888888888892
 40
0.8888888888888892
 40
0.916666666666667
 40
0.916666666666667
 40
0.916666666666667
 40
0.916666666666667
 40
0.9444444444444448
 40
0.9444444444444448
 40
0.9444444444444448
 40
0.9444444444444448
 40
0.9722222222222225
 40
0.9722222222222225
 40
0.9722222222222225
 40
0.9722222222222225
 40
1.0
 40
1.0
 40
1.0
 40
1.0
 10
2.29122
 20
4.7720900000000004
 30
0.0
 10
3.9854000000000003
 20
5.0311700000000004
 30
0.0
 10
6.3857000000000008
 20
2.76295
 30
0.0
 10
4.7982000000000005
 20
1.2872100000000002
 30
0.0
 10
4.7982000000000005
 20
1.2872100000000002
 30
0.0
 10
4.8718600000000007
 20
0.8985900000000001
 30
0.0
 10
4.6153200000000005
 20
0.6953900000000001
 30
0.0
 10
4.3917999999999999
 20
0.45663
 30
0.0
 10
4.3917999999999999
 20
0.45663
 30
0.0
 10
5.5729000000000006
 20
-1.1816600000000002
 30
0.0
 10
3.7669600000000001
 20
-2.6574000000000004
 30
0.0
 10
3.3961200000000002
 20
-4.1712400000000001
 30
0.0
 10
3.3961200000000002
 20
-4.1712400000000001
 30
0.0
 10
3.0456000000000003
 20
-4.2449000000000003
 30
0.0
 10
2.9897200000000002
 20
-4.6487600000000002
 30
0.0
 10
2.6773000000000002
 20
-4.7986200000000006
 30
0.0
 10
2.6773000000000002
 20
-4.7986200000000006
 30
0.0
 10
2.4004400000000001
 20
-4.7808400000000004
 30
0.0
 10
2.1058000000000003
 20
-4.7605200000000005
 30
0.0
 10
1.8086200000000001
 20
-4.7808400000000004
 30
0.0
 10
1.8086200000000001
 20
-4.7808400000000004
 30
0.0
 10
-0.19797
 20
-3.8943800000000004
 30
0.0
 10
-2.4661900000000001
 20
-3.5438600000000005
 30
0.0
 10
-4.6556700000000006
 20
-3.5819600000000005
 30
0.0
 10
-4.6556700000000006
 20
-3.5819600000000005
 30
0.0
 10
-5.0950900000000008
 20
-3.3787600000000002
 30
0.0
 10
-5.3440100000000008
 20
-1.8649200000000001
 30
0.0
 10
-4.8309300000000004
 20
-2.7132800000000001
 30
0.0
 10
-4.8309300000000004
 20
-2.7132800000000001
 30
0.0
 10
-4.81569
 20
-2.5481800000000003
 30
0.0
 10
-4.8690300000000004
 20
-2.3449800000000001
 30
0.0
 10
-4.7191700000000001
 20
-2.2332200000000002
 30
0.0
 10
-4.7191700000000001
 20
-2.2332200000000002
 30
0.0
 10
-4.5972500000000007
 20
-2.43642
 30
0.0
 10
-4.5870900000000008
 20
-2.9164800000000004
 30
0.0
 10
-4.2187900000000003
 20
-2.9342600000000001
 30
0.0
 10
-4.2187900000000003
 20
-2.9342600000000001
 30
0.0
 10
-3.8555700000000002
 20
-2.8783800000000004
 30
0.0
 10
-3.8174700000000001
 20
-2.5100800000000003
 30
0.0
 10
-3.6244300000000003
 20
-2.2891000000000004
 30
0.0
 10
-3.6244300000000003
 20
-2.2891000000000004
 30
0.0
 10
-3.3704300000000003
 20
-2.7869400000000004
 30
0.0
 10
-3.0021300000000002
 20
-2.6396200000000003
 30
0.0
 10
-2.4103100000000004
 20
-2.6955
 30
0.0
 10
-2.4103100000000004
 20
-2.6955
 30
0.0
 10
-2.4103100000000004
 20
-2.4567400000000004
 30
0.0
 10
-2.48651
 20
-2.1595600000000004
 30
0.0
 10
-2.3010900000000003
 20
-1.9766800000000002
 30
0.0
 10
-2.3010900000000003
 20
-1.9766800000000002
 30
0.0
 10
-2.0064500000000001
 20
-2.2713200000000002
 30
0.0
 10
-1.3409700000000002
 20
-3.0460200000000004
 30
0.0
 10
-0.97267
 20
-2.3805400000000003
 30
0.0
 10
-0.97267
 20
-2.3805400000000003
 30
0.0
 10
-0.8609100000000001
 20
-2.0782800000000003
 30
0.0
 10
-0.65263
 20
-1.6363200000000002
 30
0.0
 10
-0.61199
 20
-1.7379200000000001
 30
0.0
 10
-0.61199
 20
-1.7379200000000001
 30
0.0
 10
-0.55103
 20
-1.8928600000000002
 30
0.0
 10
-0.4291100000000001
 20
-2.0859000000000001
 30
0.0
 10
-0.41895
 20
-2.43642
 30
0.0
 10
-0.41895
 20
-2.43642
 30
0.0
 10
-0.36307
 20
-2.3246600000000002
 30
0.0
 10
-0.27163
 20
-2.2154400000000001
 30
0.0
 10
-0.16241
 20
-2.1773400000000001
 30
0.0
 10
-0.16241
 20
-2.1773400000000001
 30
0.0
 10
-0.16241
 20
-3.0815800000000002
 30
0.0
 10
1.1837800000000001
 20
-2.7132800000000001
 30
0.0
 10
0.88914
 20
-1.9030200000000002
 30
0.0
 10
0.88914
 20
-1.9030200000000002
 30
0.0
 10
0.6300600000000001
 20
-1.1816600000000002
 30
0.0
 10
0.29732
 20
-0.59238
 30
0.0
 10
-0.40117
 20
-0.11232
 30
0.0
 10
-0.40117
 20
-0.11232
 30
0.0
 10
-0.6043700000000001
 20
-0.20376
 30
0.0
 10
-0.38085
 20
-0.4984000000000001
 30
0.0
 10
-0.38085
 20
-0.6660400000000001
 30
0.0
 10
-0.38085
 20
-0.6660400000000001
 30
0.0
 10
-0.38085
 20
-0.6660400000000001
 30
0.0
 10
-0.7516900000000001
 20
-0.8514600000000001
 30
0.0
 10
-0.7516900000000001
 20
-0.8514600000000001
 30
0.0
 10
-0.7516900000000001
 20
-0.8514600000000001
 30
0.0
 10
-1.4146300000000001
 20
-0.4272800000000001
 30
0.0
 10
-2.05979
 20
-1.0546600000000002
 30
0.0
 10
-2.7252700000000001
 20
-1.0165600000000001
 30
0.0
 10
-2.7252700000000001
 20
-1.0165600000000001
 30
0.0
 10
-2.7430500000000002
 20
-1.2197600000000002
 30
0.0
 10
-2.8725900000000002
 20
-1.3670800000000001
 30
0.0
 10
-3.0199100000000003
 20
-1.5144000000000002
 30
0.0
 10
-3.0199100000000003
 20
-1.5144000000000002
 30
0.0
 10
-3.1850100000000001
 20
-0.9429000000000001
 30
0.0
 10
-3.4771100000000001
 20
-1.3493000000000002
 30
0.0
 10
-3.7793700000000001
 20
-1.6998200000000001
 30
0.0
 10
-3.7793700000000001
 20
-1.6998200000000001
 30
0.0
 10
-3.8581100000000004
 20
-1.5321800000000001
 30
0.0
 10
-3.7768300000000004
 20
-1.2756400000000001
 30
0.0
 10
-3.8352500000000003
 20
-1.0902200000000002
 30
0.0
 10
-3.8352500000000003
 20
-1.0902200000000002
 30
0.0
 10
-4.3483300000000007
 20
-1.2756400000000001
 30
0.0
 10
-4.8334700000000002
 20
-1.2578600000000002
 30
0.0
 10
-4.8309300000000004
 20
-1.9030200000000002
 30
0.0
 10
-4.8309300000000004
 20
-1.9030200000000002
 30
0.0
 10
-4.9147500000000006
 20
-1.8268200000000001
 30
0.0
 10
-4.95031
 20
-1.7176000000000002
 30
0.0
 10
-4.9604700000000008
 20
-1.6083800000000001
 30
0.0
 10
-4.9604700000000008
 20
-1.6083800000000001
 30
0.0
 10
-4.9909500000000007
 20
-1.5525000000000002
 30
0.0
 10
-5.0671500000000007
 20
-1.2375400000000001
 30
0.0
 10
-5.0722300000000002
 20
-1.4407400000000001
 30
0.0
 10
-5.0722300000000002
 20
-1.4407400000000001
 30
0.0
 10
-5.1738300000000006
 20
-1.5093200000000002
 30
0.0
 10
-5.1331900000000008
 20
-1.7074400000000001
 30
0.0
 10
-5.24749
 20
-1.9208000000000001
 30
0.0
 10
-5.24749
 20
-1.9208000000000001
 30
0.0
 10
-5.5649900000000008
 20
-0.9048000000000001
 30
0.0
 10
-4.6455100000000007
 20
0.19755
 30
0.0
 10
-4.0333700000000006
 20
0.95447
 30
0.0
 10
-4.0333700000000006
 20
0.95447
 30
0.0
 10
-4.0003500000000001
 20
0.8427100000000001
 30
0.0
 10
-4.0790900000000008
 20
0.65983
 30
0.0
 10
-3.8123900000000002
 20
0.6776100000000001
 30
0.0
 10
-3.8123900000000002
 20
0.6776100000000001
 30
0.0
 10
-3.6853900000000004
 20
0.6953900000000001
 30
0.0
 10
-3.5736300000000001
 20
0.76905
 30
0.0
 10
-3.4847300000000003
 20
0.8604900000000001
 30
0.0
 10
-3.4847300000000003
 20
0.8604900000000001
 30
0.0
 10
-3.4263100000000004
 20
1.0459100000000001
 30
0.0
 10
-3.1494500000000003
 20
1.32277
 30
0.0
 10
-3.2586700000000004
 20
1.4700900000000001
 30
0.0
 10
-3.2586700000000004
 20
1.4700900000000001
 30
0.0
 10
-3.4542500000000005
 20
1.5437500000000002
 30
0.0
 10
-3.6117300000000001
 20
1.36087
 30
0.0
 10
-3.7895300000000005
 20
1.32277
 30
0.0
 10
-3.7895300000000005
 20
1.32277
 30
0.0
 10
-3.4948900000000003
 20
1.82315
 30
0.0
 10
-2.81671
 20
1.8587100000000001
 30
0.0
 10
-2.3747500000000001
 20
2.1889100000000004
 30
0.0
 10
-2.3747500000000001
 20
2.1889100000000004
 30
0.0
 10
-2.5576300000000001
 20
2.9280500000000003
 30
0.0
 10
-1.9505700000000001
 20
3.4639900000000003
 30
0.0
 10
-1.2673100000000002
 20
3.5173300000000003
 30
0.0
 10
-1.2673100000000002
 20
3.5173300000000003
 30
0.0
 10
-0.38085
 20
4.6069900000000006
 30
0.0
 10
1.0923400000000001
 20
4.45967
 30
0.0
 10
2.29122
 20
4.7720900000000004
 30
0.0
  0
SPLINE
  5
26
100
AcDbEntity
  8
Ebene 1
100
AcDbSpline
210
0.0
220
0.0
230
1.0
 70
     1
 71
     3
 72
    20
 73
    16
 74
     0
 42
0.0000000001
 43
0.0000000001
 40
0.0
 40
0.0
 40
0.0
 40
0.0
 40
0.25
 40
0.25
 40
0.25
 40
0.25
 40
0.5
 40
0.5
 40
0.5
 40
0.5
 40
0.75
 40
0.75
 40
0.75
 40
0.75
 40
1.0
 40
1.0
 40
1.0
 40
1.0
 10
2.9363800000000002
 20
-0.46284
 30
0.0
 10
2.4004400000000001
 20
-0.7041400000000001
 30
0.0
 10
1.3311000000000002
 20
-1.4407400000000001
 30
0.0
 10
2.0499200000000002
 20
-2.0503400000000003
 30
0.0
 10
2.0499200000000002
 20
-2.0503400000000003
 30
0.0
 10
2.6036400000000004
 20
-1.9030200000000002
 30
0.0
 10
2.5096600000000002
 20
-1.16388
 30
0.0
 10
2.9897200000000002
 20
-0.9251200000000001
 30
0.0
 10
2.9897200000000002
 20
-0.9251200000000001
 30
0.0
 10
2.9897200000000002
 20
-0.9251200000000001
 30
0.0
 10
3.0659200000000002
 20
-0.7955800000000001
 30
0.0
 10
3.0659200000000002
 20
-0.7955800000000001
 30
0.0
 10
3.0659200000000002
 20
-0.7955800000000001
 30
0.0
 10
3.0456000000000003
 20
-0.6838200000000001
 30
0.0
 10
3.0278200000000002
 20
-0.5187200000000001
 30
0.0
 10
2.9363800000000002
 20
-0.46284
 30
0.0
  0
SPLINE
  5
27
100
AcDbEntity
  8
Ebene 1
 62
     7
100
AcDbSpline
210
0.0
220
0.0
230
1.0
 70
     1
 71
     3
 72
   180
 73
   176
 74
     0
 42
0.0000000001
 43
0.0000000001
 40
0.0
 40
0.0
 40
0.0
 40
0.0
 40
0.0227272727272727
 40
0.0227272727272727
 40
0.0227272727272727
 40
0.0227272727272727
 40
0.0454545454545455
 40
0.0454545454545455
 40
0.0454545454545455
 40
0.0454545454545455
 40
0.0681818181818182
 40
0.0681818181818182
 40
0.0681818181818182
 40
0.0681818181818182
 40
0.0909090909090909
 40
0.0909090909090909
 40
0.0909090909090909
 40
0.0909090909090909
 40
0.1136363636363637
 40
0.1136363636363637
 40
0.1136363636363637
 40
0.1136363636363637
 40
0.1363636363636364
 40
0.1363636363636364
 40
0.1363636363636364
 40
0.1363636363636364
 40
0.1590909090909091
 40
0.1590909090909091
 40
0.1590909090909091
 40
0.1590909090909091
 40
0.1818181818181819
 40
0.1818181818181819
 40
0.1818181818181819
 40
0.1818181818181819
 40
0.2045454545454546
 40
0.2045454545454546
 40
0.2045454545454546
 40
0.2045454545454546
 40
0.2272727272727273
 40
0.2272727272727273
 40
0.2272727272727273
 40
0.2272727272727273
 40
0.2500000000000001
 40
0.2500000000000001
 40
0.2500000000000001
 40
0.2500000000000001
 40
0.2727272727272728
 40
0.2727272727272728
 40
0.2727272727272728
 40
0.2727272727272728
 40
0.2954545454545455
 40
0.2954545454545455
 40
0.2954545454545455
 40
0.2954545454545455
 40
0.3181818181818182
 40
0.3181818181818182
 40
0.3181818181818182
 40
0.3181818181818182
 40
0.3409090909090909
 40
0.3409090909090909
 40
0.3409090909090909
 40
0.3409090909090909
 40
0.3636363636363636
 40
0.3636363636363636
 40
0.3636363636363636
 40
0.3636363636363636
 40
0.3863636363636363
 40
0.3863636363636363
 40
0.3863636363636363
 40
0.3863636363636363
 40
0.409090909090909
 40
0.409090909090909
 40
0.409090909090909
 40
0.409090909090909
 40
0.4318181818181817
 40
0.4318181818181817
 40
0.4318181818181817
 40
0.4318181818181817
 40
0.4545454545454544
 40
0.4545454545454544
 40
0.4545454545454544
 40
0.4545454545454544
 40
0.4772727272727271
 40
0.4772727272727271
 40
0.4772727272727271
 40
0.4772727272727271
 40
0.4999999999999998
 40
0.4999999999999998
 40
0.4999999999999998
 40
0.4999999999999998
 40
0.5227272727272726
 40
0.5227272727272726
 40
0.5227272727272726
 40
0.5227272727272726
 40
0.5454545454545453
 40
0.5454545454545453
 40
0.5454545454545453
 40
0.5454545454545453
 40
0.568181818181818
 40
0.568181818181818
 40
0.568181818181818
 40
0.568181818181818
 40
0.5909090909090907
 40
0.5909090909090907
 40
0.5909090909090907
 40
0.5909090909090907
 40
0.6136363636363634
 40
0.6136363636363634
 40
0.6136363636363634
 40
0.6136363636363634
 40
0.6363636363636361
 40
0.6363636363636361
 40
0.6363636363636361
 40
0.6363636363636361
 40
0.6590909090909088
 40
0.6590909090909088
 40
0.6590909090909088
 40
0.6590909090909088
 40
0.6818181818181816
 40
0.6818181818181816
 40
0.6818181818181816
 40
0.6818181818181816
 40
0.7045454545454543
 40
0.7045454545454543
 40
0.7045454545454543
 40
0.7045454545454543
 40
0.727272727272727
 40
0.727272727272727
 40
0.727272727272727
 40
0.727272727272727
 40
0.7499999999999997
 40
0.7499999999999997
 40
0.7499999999999997
 40
0.7499999999999997
 40
0.7727272727272724
 40
0.7727272727272724
 40
0.7727272727272724
 40
0.7727272727272724
 40
0.7954545454545451
 40
0.7954545454545451
 40
0.7954545454545451
 40
0.7954545454545451
 40
0.8181818181818178
 40
0.8181818181818178
 40
0.8181818181818178
 40
0.8181818181818178
 40
0.8409090909090905
 40
0.8409090909090905
 40
0.8409090909090905
 40
0.8409090909090905
 40
0.8636363636363632
 40
0.8636363636363632
 40
0.8636363636363632
 40
0.8636363636363632
 40
0.8863636363636359
 40
0.8863636363636359
 40
0.8863636363636359
 40
0.8863636363636359
 40
0.9090909090909086
 40
0.9090909090909086
 40
0.9090909090909086
 40
0.9090909090909086
 40
0.9318181818181813
 40
0.9318181818181813
 40
0.9318181818181813
 40
0.9318181818181813
 40
0.954545454545454
 40
0.954545454545454
 40
0.954545454545454
 40
0.954545454545454
 40
0.9772727272727267
 40
0.9772727272727267
 40
0.9772727272727267
 40
0.9772727272727267
 40
1.0
 40
1.0
 40
1.0
 40
1.0
 10
2.3623400000000001
 20
4.6603300000000001
 30
0.0
 10
3.8025200000000003
 20
4.8838500000000007
 30
0.0
 10
5.1487200000000009
 20
3.5554300000000003
 30
0.0
 10
5.1131600000000006
 20
2.1533500000000001
 30
0.0
 10
5.1131600000000006
 20
2.1533500000000001
 30
0.0
 10
5.0369600000000005
 20
1.8587100000000001
 30
0.0
 10
4.8363000000000005
 20
1.5437500000000002
 30
0.0
 10
4.5594400000000004
 20
1.4167500000000002
 30
0.0
 10
4.5594400000000004
 20
1.4167500000000002
 30
0.0
 10
4.5213400000000004
 20
1.23133
 30
0.0
 10
4.6508800000000008
 20
1.0459100000000001
 30
0.0
 10
4.5772200000000005
 20
0.8604900000000001
 30
0.0
 10
4.5772200000000005
 20
0.8604900000000001
 30
0.0
 10
3.6729800000000004
 20
0.5480700000000001
 30
0.0
 10
2.7509600000000001
 20
-0.13264
 30
0.0
 10
1.7933800000000002
 20
-0.02088
 30
0.0
 10
1.7933800000000002
 20
-0.02088
 30
0.0
 10
1.8645
 20
0.19755
 30
0.0
 10
2.1413600000000002
 20
0.29153
 30
0.0
 10
2.3623400000000001
 20
0.34487
 30
0.0
 10
2.3623400000000001
 20
0.34487
 30
0.0
 10
2.8627200000000004
 20
0.5480700000000001
 30
0.0
 10
1.8848200000000002
 20
0.41853
 30
0.0
 10
1.6994000000000002
 20
0.38297
 30
0.0
 10
1.6994000000000002
 20
0.38297
 30
0.0
 10
1.2574400000000001
 20
0.30931
 30
0.0
 10
1.2396600000000002
 20
-0.20376
 30
0.0
 10
1.5520800000000001
 20
-0.46284
 30
0.0
 10
1.5520800000000001
 20
-0.46284
 30
0.0
 10
1.4784200000000001
 20
-0.8311400000000001
 30
0.0
 10
0.88914
 20
-0.9606800000000001
 30
0.0
 10
0.6859400000000001
 20
-0.6482600000000001
 30
0.0
 10
0.6859400000000001
 20
-0.6482600000000001
 30
0.0
 10
0.70372
 20
-0.5187200000000001
 30
0.0
 10
1.1253600000000001
 20
-0.4907800000000001
 30
0.0
 10
1.01614
 20
-0.34092
 30
0.0
 10
1.01614
 20
-0.34092
 30
0.0
 10
0.13222
 20
-0.8387600000000001
 30
0.0
 10
0.29732
 20
0.4007500000000001
 30
0.0
 10
-0.41895
 20
0.34487
 30
0.0
 10
-0.41895
 20
0.34487
 30
0.0
 10
-0.6043700000000001
 20
0.27121
 30
0.0
 10
-0.7313700000000001
 20
0.12389
 30
0.0
 10
-0.8431300000000001
 20
-0.03866
 30
0.0
 10
-0.8431300000000001
 20
-0.03866
 30
0.0
 10
-0.9345700000000001
 20
-0.5365000000000001
 30
0.0
 10
-0.8431300000000001
 20
-0.44506
 30
0.0
 10
-0.7135900000000001
 20
-0.03866
 30
0.0
 10
-0.7135900000000001
 20
-0.03866
 30
0.0
 10
-0.7135900000000001
 20
-0.03866
 30
0.0
 10
-0.47483
 20
0.14421
 30
0.0
 10
-0.47483
 20
0.14421
 30
0.0
 10
-0.47483
 20
0.14421
 30
0.0
 10
-0.47483
 20
0.14421
 30
0.0
 10
-0.6043700000000001
 20
-0.20376
 30
0.0
 10
-0.6043700000000001
 20
-0.20376
 30
0.0
 10
-0.6043700000000001
 20
-0.20376
 30
0.0
 10
-0.21575
 20
-0.88702
 30
0.0
 10
-1.5086100000000002
 20
-0.6482600000000001
 30
0.0
 10
-1.4146300000000001
 20
-0.55428
 30
0.0
 10
-1.4146300000000001
 20
-0.55428
 30
0.0
 10
-1.3587500000000001
 20
-0.55428
 30
0.0
 10
-1.2292100000000001
 20
-0.44506
 30
0.0
 10
-1.37653
 20
-0.46284
 30
0.0
 10
-1.37653
 20
-0.46284
 30
0.0
 10
-2.0242300000000002
 20
-0.9606800000000001
 30
0.0
 10
-2.9640300000000002
 20
-1.0165600000000001
 30
0.0
 10
-2.7811500000000002
 20
0.03245
 30
0.0
 10
-2.7811500000000002
 20
0.03245
 30
0.0
 10
-2.9818100000000003
 20
-0.29012
 30
0.0
 10
-2.8522700000000003
 20
-0.4907800000000001
 30
0.0
 10
-2.86497
 20
-0.7701800000000001
 30
0.0
 10
-2.86497
 20
-0.7701800000000001
 30
0.0
 10
-3.3856700000000002
 20
-1.12832
 30
0.0
 10
-3.1469100000000001
 20
0.05023
 30
0.0
 10
-3.2358100000000003
 20
-0.0539
 30
0.0
 10
-3.2358100000000003
 20
-0.0539
 30
0.0
 10
-3.4009100000000001
 20
-0.24694
 30
0.0
 10
-3.3399500000000004
 20
-0.41966
 30
0.0
 10
-3.3424900000000002
 20
-0.6457200000000001
 30
0.0
 10
-3.3424900000000002
 20
-0.6457200000000001
 30
0.0
 10
-3.3450300000000004
 20
-0.8692400000000001
 30
0.0
 10
-3.7793700000000001
 20
-0.7498600000000001
 30
0.0
 10
-3.8631900000000003
 20
-0.10216
 30
0.0
 10
-3.8631900000000003
 20
-0.10216
 30
0.0
 10
-3.8631900000000003
 20
-0.10216
 30
0.0
 10
-3.9114500000000003
 20
0.01975
 30
0.0
 10
-3.9114500000000003
 20
0.01975
 30
0.0
 10
-3.9114500000000003
 20
0.01975
 30
0.0
 10
-3.9114500000000003
 20
0.01975
 30
0.0
 10
-3.9190700000000005
 20
-0.41966
 30
0.0
 10
-3.9190700000000005
 20
-0.41966
 30
0.0
 10
-3.9190700000000005
 20
-0.41966
 30
0.0
 10
-3.6015700000000002
 20
-1.2858000000000001
 30
0.0
 10
-4.98841
 20
-1.2858000000000001
 30
0.0
 10
-4.7979100000000008
 20
-0.6812800000000001
 30
0.0
 10
-4.7979100000000008
 20
-0.6812800000000001
 30
0.0
 10
-4.7801300000000007
 20
-0.63048
 30
0.0
 10
-4.6328100000000001
 20
-0.4222
 30
0.0
 10
-4.7547300000000003
 20
-0.5009400000000001
 30
0.0
 10
-4.7547300000000003
 20
-0.5009400000000001
 30
0.0
 10
-4.9274500000000003
 20
-0.6127
 30
0.0
 10
-4.9096700000000002
 20
-1.03434
 30
0.0
 10
-5.1001700000000003
 20
-1.0546600000000002
 30
0.0
 10
-5.1001700000000003
 20
-1.0546600000000002
 30
0.0
 10
-4.9553900000000004
 20
-0.4272800000000001
 30
0.0
 10
-4.6861500000000005
 20
-0.10216
 30
0.0
 10
-4.3508700000000005
 20
0.46679
 30
0.0
 10
-4.3508700000000005
 20
0.46679
 30
0.0
 10
-4.2645100000000005
 20
0.39313
 30
0.0
 10
-4.52867
 20
0.21025
 30
0.0
 10
-4.4702500000000001
 20
-0.0031
 30
0.0
 10
-4.4702500000000001
 20
-0.0031
 30
0.0
 10
-4.4702500000000001
 20
-0.0031
 30
0.0
 10
-4.1222700000000003
 20
0.65983
 30
0.0
 10
-4.1222700000000003
 20
0.65983
 30
0.0
 10
-4.1222700000000003
 20
0.65983
 30
0.0
 10
-3.6396700000000002
 20
0.5861700000000001
 30
0.0
 10
-3.6930100000000001
 20
0.5861700000000001
 30
0.0
 10
-3.9190700000000005
 20
0.21533
 30
0.0
 10
-3.9190700000000005
 20
0.21533
 30
0.0
 10
-3.5812500000000003
 20
0.53029
 30
0.0
 10
-3.2231100000000001
 20
1.1398900000000001
 30
0.0
 10
-3.0376900000000004
 20
1.36087
 30
0.0
 10
-3.0376900000000004
 20
1.36087
 30
0.0
 10
-3.0376900000000004
 20
1.36087
 30
0.0
 10
-3.0554700000000001
 20
1.0459100000000001
 30
0.0
 10
-3.0554700000000001
 20
1.0459100000000001
 30
0.0
 10
-3.0554700000000001
 20
1.0459100000000001
 30
0.0
 10
-3.2408900000000003
 20
0.36265
 30
0.0
 10
-2.5779500000000004
 20
1.8383900000000002
 30
0.0
 10
-3.2408900000000003
 20
1.6377300000000001
 30
0.0
 10
-3.2408900000000003
 20
1.6377300000000001
 30
0.0
 10
-2.8522700000000003
 20
1.8764900000000002
 30
0.0
 10
-2.4306300000000003
 20
2.0796900000000003
 30
0.0
 10
-1.9683500000000003
 20
2.1711300000000002
 30
0.0
 10
-1.9683500000000003
 20
2.1711300000000002
 30
0.0
 10
-2.4103100000000004
 20
2.2651100000000004
 30
0.0
 10
-2.1537700000000002
 20
2.7985100000000003
 30
0.0
 10
-2.0064500000000001
 20
3.0931500000000001
 30
0.0
 10
-2.0064500000000001
 20
3.0931500000000001
 30
0.0
 10
-1.5797300000000001
 20
3.3344500000000004
 30
0.0
 10
-1.08189
 20
3.4081100000000002
 30
0.0
 10
-0.6221500000000001
 20
3.5376500000000002
 30
0.0
 10
-0.6221500000000001
 20
3.5376500000000002
 30
0.0
 10
-0.7872500000000001
 20
3.4081100000000002
 30
0.0
 10
-1.5797300000000001
 20
2.8543900000000004
 30
0.0
 10
-1.0260100000000001
 20
3.1490300000000002
 30
0.0
 10
-1.0260100000000001
 20
3.1490300000000002
 30
0.0
 10
-0.5662700000000001
 20
3.4639900000000003
 30
0.0
 10
-0.03033
 20
3.7027500000000004
 30
0.0
 10
0.46496
 20
3.9237300000000004
 30
0.0
 10
0.46496
 20
3.9237300000000004
 30
0.0
 10
0.03824
 20
3.8500700000000001
 30
0.0
 10
-0.6043700000000001
 20
3.5909900000000001
 30
0.0
 10
-0.9345700000000001
 20
3.6113100000000005
 30
0.0
 10
-0.9345700000000001
 20
3.6113100000000005
 30
0.0
 10
-0.9345700000000001
 20
3.6113100000000005
 30
0.0
 10
-0.6043700000000001
 20
3.9440500000000003
 30
0.0
 10
-0.6043700000000001
 20
3.9440500000000003
 30
0.0
 10
-0.6043700000000001
 20
3.9440500000000003
 30
0.0
 10
0.04332
 20
4.2818700000000005
 30
0.0
 10
0.9272400000000001
 20
4.1929700000000008
 30
0.0
 10
1.6613000000000002
 20
4.2437700000000005
 30
0.0
 10
1.6613000000000002
 20
4.2437700000000005
 30
0.0
 10
1.9280000000000002
 20
4.2615500000000006
 30
0.0
 10
2.17692
 20
4.2767900000000001
 30
0.0
 10
2.3090000000000002
 20
4.45967
 30
0.0
 10
2.3090000000000002
 20
4.45967
 30
0.0
 10
2.1794600000000002
 20
4.4774500000000002
 30
0.0
 10
1.6435200000000001
 20
4.42157
 30
0.0
 10
1.8289400000000002
 20
4.4952300000000003
 30
0.0
 10
1.8289400000000002
 20
4.4952300000000003
 30
0.0
 10
1.8289400000000002
 20
4.4952300000000003
 30
0.0
 10
2.3623400000000001
 20
4.6603300000000001
 30
0.0
 10
2.3623400000000001
 20
4.6603300000000001
 30
0.0
  0
SPLINE
  5
28
100
AcDbEntity
  8
Ebene 1
100
AcDbSpline
210
0.0
220
0.0
230
1.0
 70
     1
 71
     3
 72
    52
 73
    48
 74
     0
 42
0.0000000001
 43
0.0000000001
 40
0.0
 40
0.0
 40
0.0
 40
0.0
 40
0.0833333333333333
 40
0.0833333333333333
 40
0.0833333333333333
 40
0.0833333333333333
 40
0.1666666666666667
 40
0.1666666666666667
 40
0.1666666666666667
 40
0.1666666666666667
 40
0.25
 40
0.25
 40
0.25
 40
0.25
 40
0.3333333333333333
 40
0.3333333333333333
 40
0.3333333333333333
 40
0.3333333333333333
 40
0.4166666666666666
 40
0.4166666666666666
 40
0.4166666666666666
 40
0.4166666666666666
 40
0.4999999999999999
 40
0.4999999999999999
 40
0.4999999999999999
 40
0.4999999999999999
 40
0.5833333333333333
 40
0.5833333333333333
 40
0.5833333333333333
 40
0.5833333333333333
 40
0.6666666666666666
 40
0.6666666666666666
 40
0.6666666666666666
 40
0.6666666666666666
 40
0.75
 40
0.75
 40
0.75
 40
0.75
 40
0.8333333333333334
 40
0.8333333333333334
 40
0.8333333333333334
 40
0.8333333333333334
 40
0.9166666666666667
 40
0.9166666666666667
 40
0.9166666666666667
 40
0.9166666666666667
 40
1.0
 40
1.0
 40
1.0
 40
1.0
 10
0.85104
 20
3.4817700000000005
 30
0.0
 10
1.2193400000000001
 20
3.5173300000000003
 30
0.0
 10
1.5139800000000001
 20
3.3700100000000002
 30
0.0
 10
1.8086200000000001
 20
3.1845900000000005
 30
0.0
 10
1.8086200000000001
 20
3.1845900000000005
 30
0.0
 10
1.9762600000000001
 20
3.2049100000000004
 30
0.0
 10
2.5655400000000004
 20
3.2049100000000004
 30
0.0
 10
2.1413600000000002
 20
3.1134700000000004
 30
0.0
 10
2.1413600000000002
 20
3.1134700000000004
 30
0.0
 10
1.56986
 20
3.0017100000000001
 30
0.0
 10
0.6859400000000001
 20
3.4817700000000005
 30
0.0
 10
0.46496
 20
2.6867500000000004
 30
0.0
 10
0.46496
 20
2.6867500000000004
 30
0.0
 10
0.5564
 20
2.0796900000000003
 30
0.0
 10
1.14568
 20
1.5081900000000001
 30
0.0
 10
0.74182
 20
0.8985900000000001
 30
0.0
 10
0.74182
 20
0.8985900000000001
 30
0.0
 10
0.74182
 20
0.8985900000000001
 30
0.0
 10
0.7773800000000001
 20
0.80715
 30
0.0
 10
0.7773800000000001
 20
0.80715
 30
0.0
 10
0.7773800000000001
 20
0.80715
 30
0.0
 10
0.7773800000000001
 20
0.80715
 30
0.0
 10
0.9983600000000001
 20
0.64205
 30
0.0
 10
0.9983600000000001
 20
0.64205
 30
0.0
 10
0.9983600000000001
 20
0.64205
 30
0.0
 10
0.74182
 20
0.4744100000000001
 30
0.0
 10
0.3913
 20
0.95447
 30
0.0
 10
0.6656200000000001
 20
1.1754500000000001
 30
0.0
 10
0.6656200000000001
 20
1.1754500000000001
 30
0.0
 10
0.8332600000000001
 20
1.5081900000000001
 30
0.0
 10
0.57418
 20
1.82315
 30
0.0
 10
0.4827400000000001
 20
2.13557
 30
0.0
 10
0.4827400000000001
 20
2.13557
 30
0.0
 10
0.4827400000000001
 20
2.13557
 30
0.0
 10
0.37098
 20
2.3209900000000001
 30
0.0
 10
0.37098
 20
2.3209900000000001
 30
0.0
 10
0.37098
 20
2.3209900000000001
 30
0.0
 10
0.37098
 20
2.3209900000000001
 30
0.0
 10
0.37098
 20
2.1533500000000001
 30
0.0
 10
0.37098
 20
2.1533500000000001
 30
0.0
 10
0.37098
 20
2.1533500000000001
 30
0.0
 10
0.24144
 20
2.4479900000000003
 30
0.0
 10
0.29732
 20
2.8721700000000001
 30
0.0
 10
0.24144
 20
3.2049100000000004
 30
0.0
 10
0.24144
 20
3.2049100000000004
 30
0.0
 10
0.42686
 20
3.3166700000000002
 30
0.0
 10
0.6478400000000001
 20
3.4258900000000003
 30
0.0
 10
0.85104
 20
3.4817700000000005
 30
0.0
  0
SPLINE
  5
29
100
AcDbEntity
  8
Ebene 1
100
AcDbSpline
210
0.0
220
0.0
230
1.0
 70
     1
 71
     3
 72
    48
 73
    44
 74
     0
 42
0.0000000001
 43
0.0000000001
 40
0.0
 40
0.0
 40
0.0
 40
0.0
 40
0.0909090909090909
 40
0.0909090909090909
 40
0.0909090909090909
 40
0.0909090909090909
 40
0.1818181818181818
 40
0.1818181818181818
 40
0.1818181818181818
 40
0.1818181818181818
 40
0.2727272727272727
 40
0.2727272727272727
 40
0.2727272727272727
 40
0.2727272727272727
 40
0.3636363636363637
 40
0.3636363636363637
 40
0.3636363636363637
 40
0.3636363636363637
 40
0.4545454545454546
 40
0.4545454545454546
 40
0.4545454545454546
 40
0.4545454545454546
 40
0.5454545454545455
 40
0.5454545454545455
 40
0.5454545454545455
 40
0.5454545454545455
 40
0.6363636363636365
 40
0.6363636363636365
 40
0.6363636363636365
 40
0.6363636363636365
 40
0.7272727272727274
 40
0.7272727272727274
 40
0.7272727272727274
 40
0.7272727272727274
 40
0.8181818181818183
 40
0.8181818181818183
 40
0.8181818181818183
 40
0.8181818181818183
 40
0.9090909090909093
 40
0.9090909090909093
 40
0.9090909090909093
 40
0.9090909090909093
 40
1.0
 40
1.0
 40
1.0
 40
1.0
 10
-0.18019
 20
2.7807300000000001
 30
0.0
 10
-0.05065
 20
2.7807300000000001
 30
0.0
 10
0.09412
 20
2.7985100000000003
 30
0.0
 10
0.13222
 20
2.6511900000000002
 30
0.0
 10
0.13222
 20
2.6511900000000002
 30
0.0
 10
0.3354200000000001
 20
2.4860900000000004
 30
0.0
 10
-0.18019
 20
2.7807300000000001
 30
0.0
 10
-0.30973
 20
2.59531
 30
0.0
 10
-0.30973
 20
2.59531
 30
0.0
 10
-0.38085
 20
2.4479900000000003
 30
0.0
 10
-0.05065
 20
2.1889100000000004
 30
0.0
 10
0.00268
 20
2.00603
 30
0.0
 10
0.00268
 20
2.00603
 30
0.0
 10
0.11444
 20
2.0238100000000001
 30
0.0
 10
0.27954
 20
2.0974700000000004
 30
0.0
 10
0.37098
 20
1.9882500000000001
 30
0.0
 10
0.37098
 20
1.9882500000000001
 30
0.0
 10
0.3532
 20
1.9145900000000002
 30
0.0
 10
0.24144
 20
2.0238100000000001
 30
0.0
 10
0.16778
 20
1.9704700000000002
 30
0.0
 10
0.16778
 20
1.9704700000000002
 30
0.0
 10
-0.40117
 20
1.5996300000000001
 30
0.0
 10
-1.1377700000000002
 20
1.8587100000000001
 30
0.0
 10
-1.7270500000000002
 20
1.5081900000000001
 30
0.0
 10
-1.7270500000000002
 20
1.5081900000000001
 30
0.0
 10
-1.7270500000000002
 20
1.5081900000000001
 30
0.0
 10
-1.54417
 20
1.7469500000000002
 30
0.0
 10
-1.54417
 20
1.7469500000000002
 30
0.0
 10
-1.54417
 20
1.7469500000000002
 30
0.0
 10
-1.4882900000000001
 20
1.9145900000000002
 30
0.0
 10
-1.1580900000000001
 20
2.1533500000000001
 30
0.0
 10
-1.21143
 20
2.2651100000000004
 30
0.0
 10
-1.21143
 20
2.2651100000000004
 30
0.0
 10
-1.5619500000000002
 20
2.0974700000000004
 30
0.0
 10
-1.7270500000000002
 20
1.6910700000000001
 30
0.0
 10
-2.0064500000000001
 20
1.4523100000000002
 30
0.0
 10
-2.0064500000000001
 20
1.4523100000000002
 30
0.0
 10
-1.9505700000000001
 20
1.6732900000000002
 30
0.0
 10
-1.4146300000000001
 20
2.0974700000000004
 30
0.0
 10
-1.8388100000000001
 20
2.1889100000000004
 30
0.0
 10
-1.8388100000000001
 20
2.1889100000000004
 30
0.0
 10
-1.2673100000000002
 20
2.2651100000000004
 30
0.0
 10
-0.7135900000000001
 20
2.59531
 30
0.0
 10
-0.18019
 20
2.7807300000000001
 30
0.0
  0
SPLINE
  5
2A
100
AcDbEntity
  8
Ebene 1
100
AcDbSpline
210
0.0
220
0.0
230
1.0
 70
     1
 71
     3
 72
    32
 73
    28
 74
     0
 42
0.0000000001
 43
0.0000000001
 40
0.0
 40
0.0
 40
0.0
 40
0.0
 40
0.1428571428571429
 40
0.1428571428571429
 40
0.1428571428571429
 40
0.1428571428571429
 40
0.2857142857142857
 40
0.2857142857142857
 40
0.2857142857142857
 40
0.2857142857142857
 40
0.4285714285714286
 40
0.4285714285714286
 40
0.4285714285714286
 40
0.4285714285714286
 40
0.5714285714285714
 40
0.5714285714285714
 40
0.5714285714285714
 40
0.5714285714285714
 40
0.7142857142857142
 40
0.7142857142857142
 40
0.7142857142857142
 40
0.7142857142857142
 40
0.857142857142857
 40
0.857142857142857
 40
0.857142857142857
 40
0.857142857142857
 40
1.0
 40
1.0
 40
1.0
 40
1.0
 10
-0.4926100000000001
 20
1.65551
 30
0.0
 10
-0.19797
 20
1.65551
 30
0.0
 10
-0.52817
 20
1.52597
 30
0.0
 10
-0.63993
 20
1.5081900000000001
 30
0.0
 10
-0.63993
 20
1.5081900000000001
 30
0.0
 10
-0.63993
 20
1.4345300000000001
 30
0.0
 10
-0.28941
 20
1.4345300000000001
 30
0.0
 10
-0.23353
 20
1.2668900000000001
 30
0.0
 10
-0.23353
 20
1.2668900000000001
 30
0.0
 10
-0.12431
 20
1.19323
 30
0.0
 10
-0.06843
 20
1.10179
 30
0.0
 10
0.02046
 20
1.0103500000000001
 30
0.0
 10
0.02046
 20
1.0103500000000001
 30
0.0
 10
0.16778
 20
0.93669
 30
0.0
 10
0.22366
 20
0.7334900000000001
 30
0.0
 10
0.03824
 20
0.8985900000000001
 30
0.0
 10
0.03824
 20
0.8985900000000001
 30
0.0
 10
-0.47483
 20
1.4167500000000002
 30
0.0
 10
-1.24953
 20
1.5437500000000002
 30
0.0
 10
-1.9124700000000001
 20
1.3049900000000001
 30
0.0
 10
-1.9124700000000001
 20
1.3049900000000001
 30
0.0
 10
-1.8032500000000002
 20
1.52597
 30
0.0
 10
-1.4527300000000001
 20
1.4700900000000001
 30
0.0
 10
-1.2292100000000001
 20
1.5640700000000001
 30
0.0
 10
-1.2292100000000001
 20
1.5640700000000001
 30
0.0
 10
-0.97267
 20
1.5640700000000001
 30
0.0
 10
-0.7313700000000001
 20
1.6199500000000002
 30
0.0
 10
-0.4926100000000001
 20
1.65551
 30
0.0
  0
SPLINE
  5
2B
100
AcDbEntity
  8
Ebene 1
100
AcDbSpline
210
0.0
220
0.0
230
1.0
 70
     1
 71
     3
 72
    32
 73
    28
 74
     0
 42
0.0000000001
 43
0.0000000001
 40
0.0
 40
0.0
 40
0.0
 40
0.0
 40
0.1428571428571429
 40
0.1428571428571429
 40
0.1428571428571429
 40
0.1428571428571429
 40
0.2857142857142857
 40
0.2857142857142857
 40
0.2857142857142857
 40
0.2857142857142857
 40
0.4285714285714286
 40
0.4285714285714286
 40
0.4285714285714286
 40
0.4285714285714286
 40
0.5714285714285714
 40
0.5714285714285714
 40
0.5714285714285714
 40
0.5714285714285714
 40
0.7142857142857142
 40
0.7142857142857142
 40
0.7142857142857142
 40
0.7142857142857142
 40
0.857142857142857
 40
0.857142857142857
 40
0.857142857142857
 40
0.857142857142857
 40
1.0
 40
1.0
 40
1.0
 40
1.0
 10
2.97194
 20
1.10179
 30
0.0
 10
3.3046800000000003
 20
1.1195700000000002
 30
0.0
 10
3.5993200000000001
 20
1.0459100000000001
 30
0.0
 10
3.8939600000000003
 20
0.95447
 30
0.0
 10
3.8939600000000003
 20
0.95447
 30
0.0
 10
3.8939600000000003
 20
0.95447
 30
0.0
 10
3.3783400000000001
 20
0.8427100000000001
 30
0.0
 10
3.3783400000000001
 20
0.8427100000000001
 30
0.0
 10
3.3783400000000001
 20
0.8427100000000001
 30
0.0
 10
3.2488000000000001
 20
0.8249300000000001
 30
0.0
 10
3.1192600000000001
 20
0.76905
 30
0.0
 10
3.01004
 20
0.7131700000000001
 30
0.0
 10
3.01004
 20
0.7131700000000001
 30
0.0
 10
2.97194
 20
0.8249300000000001
 30
0.0
 10
3.1573600000000002
 20
0.8604900000000001
 30
0.0
 10
3.2132400000000003
 20
0.95447
 30
0.0
 10
3.2132400000000003
 20
0.95447
 30
0.0
 10
2.5655400000000004
 20
1.02813
 30
0.0
 10
1.9584800000000002
 20
0.27121
 30
0.0
 10
1.27522
 20
0.62173
 30
0.0
 10
1.27522
 20
0.62173
 30
0.0
 10
1.5139800000000001
 20
0.64205
 30
0.0
 10
1.7933800000000002
 20
0.6953900000000001
 30
0.0
 10
2.0118200000000002
 20
0.78937
 30
0.0
 10
2.0118200000000002
 20
0.78937
 30
0.0
 10
2.3267800000000003
 20
0.9163700000000001
 30
0.0
 10
2.6392000000000002
 20
1.0840100000000001
 30
0.0
 10
2.97194
 20
1.10179
 30
0.0
  0
SPLINE
  5
2C
100
AcDbEntity
  8
Ebene 1
 62
     7
100
AcDbSpline
210
0.0
220
0.0
230
1.0
 70
     1
 71
     3
 72
   192
 73
   188
 74
     0
 42
0.0000000001
 43
0.0000000001
 40
0.0
 40
0.0
 40
0.0
 40
0.0
 40
0.0212765957446809
 40
0.0212765957446809
 40
0.0212765957446809
 40
0.0212765957446809
 40
0.0425531914893617
 40
0.0425531914893617
 40
0.0425531914893617
 40
0.0425531914893617
 40
0.0638297872340425
 40
0.0638297872340425
 40
0.0638297872340425
 40
0.0638297872340425
 40
0.0851063829787234
 40
0.0851063829787234
 40
0.0851063829787234
 40
0.0851063829787234
 40
0.1063829787234043
 40
0.1063829787234043
 40
0.1063829787234043
 40
0.1063829787234043
 40
0.1276595744680851
 40
0.1276595744680851
 40
0.1276595744680851
 40
0.1276595744680851
 40
0.148936170212766
 40
0.148936170212766
 40
0.148936170212766
 40
0.148936170212766
 40
0.1702127659574468
 40
0.1702127659574468
 40
0.1702127659574468
 40
0.1702127659574468
 40
0.1914893617021277
 40
0.1914893617021277
 40
0.1914893617021277
 40
0.1914893617021277
 40
0.2127659574468085
 40
0.2127659574468085
 40
0.2127659574468085
 40
0.2127659574468085
 40
0.2340425531914894
 40
0.2340425531914894
 40
0.2340425531914894
 40
0.2340425531914894
 40
0.2553191489361702
 40
0.2553191489361702
 40
0.2553191489361702
 40
0.2553191489361702
 40
0.276595744680851
 40
0.276595744680851
 40
0.276595744680851
 40
0.276595744680851
 40
0.2978723404255319
 40
0.2978723404255319
 40
0.2978723404255319
 40
0.2978723404255319
 40
0.3191489361702127
 40
0.3191489361702127
 40
0.3191489361702127
 40
0.3191489361702127
 40
0.3404255319148935
 40
0.3404255319148935
 40
0.3404255319148935
 40
0.3404255319148935
 40
0.3617021276595743
 40
0.3617021276595743
 40
0.3617021276595743
 40
0.3617021276595743
 40
0.3829787234042552
 40
0.3829787234042552
 40
0.3829787234042552
 40
0.3829787234042552
 40
0.404255319148936
 40
0.404255319148936
 40
0.404255319148936
 40
0.404255319148936
 40
0.4255319148936168
 40
0.4255319148936168
 40
0.4255319148936168
 40
0.4255319148936168
 40
0.4468085106382976
 40
0.4468085106382976
 40
0.4468085106382976
 40
0.4468085106382976
 40
0.4680851063829785
 40
0.4680851063829785
 40
0.4680851063829785
 40
0.4680851063829785
 40
0.4893617021276593
 40
0.4893617021276593
 40
0.4893617021276593
 40
0.4893617021276593
 40
0.5106382978723402
 40
0.5106382978723402
 40
0.5106382978723402
 40
0.5106382978723402
 40
0.5319148936170211
 40
0.5319148936170211
 40
0.5319148936170211
 40
0.5319148936170211
 40
0.5531914893617019
 40
0.5531914893617019
 40
0.5531914893617019
 40
0.5531914893617019
 40
0.5744680851063828
 40
0.5744680851063828
 40
0.5744680851063828
 40
0.5744680851063828
 40
0.5957446808510637
 40
0.5957446808510637
 40
0.5957446808510637
 40
0.5957446808510637
 40
0.6170212765957446
 40
0.6170212765957446
 40
0.6170212765957446
 40
0.6170212765957446
 40
0.6382978723404255
 40
0.6382978723404255
 40
0.6382978723404255
 40
0.6382978723404255
 40
0.6595744680851063
 40
0.6595744680851063
 40
0.6595744680851063
 40
0.6595744680851063
 40
0.6808510638297872
 40
0.6808510638297872
 40
0.6808510638297872
 40
0.6808510638297872
 40
0.7021276595744681
 40
0.7021276595744681
 40
0.7021276595744681
 40
0.7021276595744681
 40
0.723404255319149
 40
0.723404255319149
 40
0.723404255319149
 40
0.723404255319149
 40
0.7446808510638299
 40
0.7446808510638299
 40
0.7446808510638299
 40
0.7446808510638299
 40
0.7659574468085107
 40
0.7659574468085107
 40
0.7659574468085107
 40
0.7659574468085107
 40
0.7872340425531916
 40
0.7872340425531916
 40
0.7872340425531916
 40
0.7872340425531916
 40
0.8085106382978725
 40
0.8085106382978725
 40
0.8085106382978725
 40
0.8085106382978725
 40
0.8297872340425534
 40
0.8297872340425534
 40
0.8297872340425534
 40
0.8297872340425534
 40
0.8510638297872343
 40
0.8510638297872343
 40
0.8510638297872343
 40
0.8510638297872343
 40
0.8723404255319152
 40
0.8723404255319152
 40
0.8723404255319152
 40
0.8723404255319152
 40
0.893617021276596
 40
0.893617021276596
 40
0.893617021276596
 40
0.893617021276596
 40
0.9148936170212769
 40
0.9148936170212769
 40
0.9148936170212769
 40
0.9148936170212769
 40
0.9361702127659578
 40
0.9361702127659578
 40
0.9361702127659578
 40
0.9361702127659578
 40
0.9574468085106387
 40
0.9574468085106387
 40
0.9574468085106387
 40
0.9574468085106387
 40
0.9787234042553196
 40
0.9787234042553196
 40
0.9787234042553196
 40
0.9787234042553196
 40
1.0
 40
1.0
 40
1.0
 40
1.0
 10
3.3224600000000004
 20
-3.8943800000000004
 30
0.0
 10
3.3046800000000003
 20
-3.7089600000000003
 30
0.0
 10
3.3961200000000002
 20
-3.5057600000000004
 30
0.0
 10
3.4342200000000003
 20
-3.3051000000000004
 30
0.0
 10
3.4342200000000003
 20
-3.3051000000000004
 30
0.0
 10
3.1370400000000003
 20
-3.6734000000000004
 30
0.0
 10
3.1192600000000001
 20
-4.3363400000000007
 30
0.0
 10
2.6773000000000002
 20
-4.6690800000000001
 30
0.0
 10
2.6773000000000002
 20
-4.6690800000000001
 30
0.0
 10
2.6773000000000002
 20
-4.6690800000000001
 30
0.0
 10
2.4918800000000001
 20
-4.6335200000000007
 30
0.0
 10
2.4918800000000001
 20
-4.6335200000000007
 30
0.0
 10
2.4918800000000001
 20
-4.6335200000000007
 30
0.0
 10
2.7154000000000003
 20
-4.4658800000000003
 30
0.0
 10
2.7509600000000001
 20
-4.1712400000000001
 30
0.0
 10
2.7687400000000002
 20
-3.9502600000000001
 30
0.0
 10
2.7687400000000002
 20
-3.9502600000000001
 30
0.0
 10
2.6595200000000001
 20
-4.2626800000000005
 30
0.0
 10
2.4385400000000002
 20
-4.6335200000000007
 30
0.0
 10
2.0321400000000001
 20
-4.6335200000000007
 30
0.0
 10
2.0321400000000001
 20
-4.6335200000000007
 30
0.0
 10
1.6079600000000001
 20
-4.6335200000000007
 30
0.0
 10
1.2193400000000001
 20
-4.43032
 30
0.0
 10
0.85104
 20
-4.2626800000000005
 30
0.0
 10
0.85104
 20
-4.2626800000000005
 30
0.0
 10
0.9069200000000001
 20
-4.2449000000000003
 30
0.0
 10
1.11012
 20
-4.3007800000000005
 30
0.0
 10
1.0542400000000001
 20
-4.2068000000000003
 30
0.0
 10
1.0542400000000001
 20
-4.2068000000000003
 30
0.0
 10
-0.01255
 20
-4.0798000000000005
 30
0.0
 10
-1.0641100000000001
 20
-3.7292800000000002
 30
0.0
 10
-2.1334500000000003
 20
-3.5997400000000002
 30
0.0
 10
-2.1334500000000003
 20
-3.5997400000000002
 30
0.0
 10
-1.7473700000000001
 20
-3.4524200000000005
 30
0.0
 10
-1.11999
 20
-3.6911800000000001
 30
0.0
 10
-0.8609100000000001
 20
-3.5057600000000004
 30
0.0
 10
-0.8609100000000001
 20
-3.5057600000000004
 30
0.0
 10
-2.0242300000000002
 20
-3.3965400000000003
 30
0.0
 10
-3.2027900000000002
 20
-3.4879800000000003
 30
0.0
 10
-4.40421
 20
-3.5260800000000003
 30
0.0
 10
-4.40421
 20
-3.5260800000000003
 30
0.0
 10
-4.6226500000000001
 20
-3.5438600000000005
 30
0.0
 10
-4.8360100000000008
 20
-3.2670000000000003
 30
0.0
 10
-4.64297
 20
-3.1374600000000004
 30
0.0
 10
-4.64297
 20
-3.1374600000000004
 30
0.0
 10
-4.26959
 20
-3.0460200000000004
 30
0.0
 10
-4.0562300000000002
 20
-2.9241000000000001
 30
0.0
 10
-3.7895300000000005
 20
-3.2746200000000001
 30
0.0
 10
-3.7895300000000005
 20
-3.2746200000000001
 30
0.0
 10
-3.6599900000000005
 20
-3.1831800000000001
 30
0.0
 10
-4.0333700000000006
 20
-2.9901400000000002
 30
0.0
 10
-3.8250900000000003
 20
-2.8072600000000003
 30
0.0
 10
-3.8250900000000003
 20
-2.8072600000000003
 30
0.0
 10
-3.7057100000000003
 20
-3.0815800000000002
 30
0.0
 10
-3.2332700000000001
 20
-2.7539200000000004
 30
0.0
 10
-3.2535900000000004
 20
-3.1247600000000002
 30
0.0
 10
-3.2535900000000004
 20
-3.1247600000000002
 30
0.0
 10
-3.1672300000000004
 20
-3.1933400000000001
 30
0.0
 10
-3.1545300000000003
 20
-3.03078
 30
0.0
 10
-3.1596100000000003
 20
-2.9799800000000003
 30
0.0
 10
-3.1596100000000003
 20
-2.9799800000000003
 30
0.0
 10
-3.2129500000000002
 20
-2.4694400000000001
 30
0.0
 10
-2.56779
 20
-2.8656800000000002
 30
0.0
 10
-2.27061
 20
-3.1425400000000003
 30
0.0
 10
-2.27061
 20
-3.1425400000000003
 30
0.0
 10
-2.23759
 20
-3.1730200000000002
 30
0.0
 10
-2.0877300000000001
 20
-3.2771600000000003
 30
0.0
 10
-2.1182100000000004
 20
-3.2060400000000002
 30
0.0
 10
-2.1182100000000004
 20
-3.2060400000000002
 30
0.0
 10
-2.4509500000000002
 20
-2.7615400000000001
 30
0.0
 10
-1.04633
 20
-2.4186400000000003
 30
0.0
 10
-1.0107700000000002
 20
-3.1755600000000004
 30
0.0
 10
-1.0107700000000002
 20
-3.1755600000000004
 30
0.0
 10
-0.9548900000000001
 20
-3.2111200000000002
 30
0.0
 10
-0.8786900000000001
 20
-3.2289000000000003
 30
0.0
 10
-0.82535
 20
-3.2492200000000002
 30
0.0
 10
-0.82535
 20
-3.2492200000000002
 30
0.0
 10
-0.82535
 20
-3.2492200000000002
 30
0.0
 10
-1.0107700000000002
 20
-2.6955
 30
0.0
 10
-1.0107700000000002
 20
-2.6955
 30
0.0
 10
-1.0107700000000002
 20
-2.6955
 30
0.0
 10
-0.63993
 20
-2.8072600000000003
 30
0.0
 10
-0.41895
 20
-2.7132800000000001
 30
0.0
 10
-0.4926100000000001
 20
-3.1933400000000001
 30
0.0
 10
-0.4926100000000001
 20
-3.1933400000000001
 30
0.0
 10
-0.37831
 20
-3.2238200000000004
 30
0.0
 10
-0.3960900000000001
 20
-3.0003000000000002
 30
0.0
 10
-0.36307
 20
-2.94442
 30
0.0
 10
-0.36307
 20
-2.94442
 30
0.0
 10
-0.26401
 20
-2.7818600000000004
 30
0.0
 10
-0.16749
 20
-2.8453600000000003
 30
0.0
 10
-0.15733
 20
-3.1628600000000002
 30
0.0
 10
-0.15733
 20
-3.1628600000000002
 30
0.0
 10
-0.07097
 20
-3.3330400000000004
 30
0.0
 10
-0.04557
 20
-3.0714200000000003
 30
0.0
 10
-0.01509
 20
-3.0282400000000003
 30
0.0
 10
-0.01509
 20
-3.0282400000000003
 30
0.0
 10
0.2897
 20
-2.5939000000000001
 30
0.0
 10
1.06186
 20
-2.9266400000000004
 30
0.0
 10
1.1279000000000001
 20
-2.1417800000000002
 30
0.0
 10
1.1279000000000001
 20
-2.1417800000000002
 30
0.0
 10
1.3107800000000001
 20
-2.4186400000000003
 30
0.0
 10
1.2193400000000001
 20
-2.8072600000000003
 30
0.0
 10
1.2955400000000001
 20
-3.0638000000000001
 30
0.0
 10
1.2955400000000001
 20
-3.0638000000000001
 30
0.0
 10
1.56986
 20
-2.4008600000000002
 30
0.0
 10
1.01614
 20
-1.8115800000000002
 30
0.0
 10
0.9983600000000001
 20
-1.12832
 30
0.0
 10
0.9983600000000001
 20
-1.12832
 30
0.0
 10
1.0542400000000001
 20
-1.03434
 30
0.0
 10
1.1837800000000001
 20
-1.12832
 30
0.0
 10
1.2574400000000001
 20
-1.0546600000000002
 30
0.0
 10
1.2574400000000001
 20
-1.0546600000000002
 30
0.0
 10
1.5901800000000001
 20
-0.9251200000000001
 30
0.0
 10
1.7730600000000001
 20
-0.5187200000000001
 30
0.0
 10
1.6994000000000002
 20
-0.18598
 30
0.0
 10
1.6994000000000002
 20
-0.18598
 30
0.0
 10
1.9762600000000001
 20
-0.20376
 30
0.0
 10
2.4385400000000002
 20
-0.11232
 30
0.0
 10
2.5655400000000004
 20
-0.40696
 30
0.0
 10
2.5655400000000004
 20
-0.40696
 30
0.0
 10
2.3267800000000003
 20
-0.7778000000000001
 30
0.0
 10
1.9026000000000001
 20
-1.03434
 30
0.0
 10
1.6816200000000001
 20
-1.4229600000000002
 30
0.0
 10
1.6816200000000001
 20
-1.4229600000000002
 30
0.0
 10
1.5901800000000001
 20
-1.4788400000000002
 30
0.0
 10
1.6613000000000002
 20
-1.6083800000000001
 30
0.0
 10
1.6613000000000002
 20
-1.6795000000000002
 30
0.0
 10
1.6613000000000002
 20
-1.6795000000000002
 30
0.0
 10
1.6613000000000002
 20
-2.0503400000000003
 30
0.0
 10
1.9203800000000002
 20
-2.43642
 30
0.0
 10
2.2709000000000001
 20
-2.0859000000000001
 30
0.0
 10
2.2709000000000001
 20
-2.0859000000000001
 30
0.0
 10
2.2709000000000001
 20
-2.0859000000000001
 30
0.0
 10
2.0880200000000002
 20
-2.6751800000000001
 30
0.0
 10
2.0880200000000002
 20
-2.6751800000000001
 30
0.0
 10
2.0880200000000002
 20
-2.6751800000000001
 30
0.0
 10
2.0880200000000002
 20
-2.6751800000000001
 30
0.0
 10
2.3674200000000001
 20
-2.2992600000000003
 30
0.0
 10
2.3674200000000001
 20
-2.2992600000000003
 30
0.0
 10
2.3674200000000001
 20
-2.2992600000000003
 30
0.0
 10
2.3674200000000001
 20
-2.2992600000000003
 30
0.0
 10
2.5299800000000001
 20
-1.7557
 30
0.0
 10
2.5299800000000001
 20
-1.7557
 30
0.0
 10
2.5299800000000001
 20
-1.7557
 30
0.0
 10
2.5299800000000001
 20
-1.7557
 30
0.0
 10
2.7331800000000004
 20
-1.4229600000000002
 30
0.0
 10
2.7331800000000004
 20
-1.4229600000000002
 30
0.0
 10
2.7331800000000004
 20
-1.4229600000000002
 30
0.0
 10
2.8424
 20
-1.3289800000000001
 30
0.0
 10
3.2488000000000001
 20
-0.9429000000000001
 30
0.0
 10
3.1370400000000003
 20
-1.2756400000000001
 30
0.0
 10
3.1370400000000003
 20
-1.2756400000000001
 30
0.0
 10
3.1192600000000001
 20
-1.7912600000000001
 30
0.0
 10
2.6595200000000001
 20
-2.1417800000000002
 30
0.0
 10
2.6392000000000002
 20
-2.6396200000000003
 30
0.0
 10
2.6392000000000002
 20
-2.6396200000000003
 30
0.0
 10
2.6950800000000004
 20
-2.8987000000000003
 30
0.0
 10
2.5299800000000001
 20
-3.2492200000000002
 30
0.0
 10
2.6950800000000004
 20
-3.4321000000000002
 30
0.0
 10
2.6950800000000004
 20
-3.4321000000000002
 30
0.0
 10
2.4741000000000004
 20
-2.2891000000000004
 30
0.0
 10
4.0793800000000005
 20
-1.0165600000000001
 30
0.0
 10
2.8982800000000002
 20
-0.13264
 30
0.0
 10
2.8982800000000002
 20
-0.13264
 30
0.0
 10
2.8982800000000002
 20
-0.07676
 30
0.0
 10
2.8805000000000001
 20
-0.02088
 30
0.0
 10
2.8982800000000002
 20
0.03245
 30
0.0
 10
2.8982800000000002
 20
0.03245
 30
0.0
 10
3.5434400000000004
 20
0.43377
 30
0.0
 10
4.4146600000000005
 20
0.47949
 30
0.0
 10
4.4832400000000003
 20
-0.29774
 30
0.0
 10
4.4832400000000003
 20
-0.29774
 30
0.0
 10
4.4298999999999999
 20
-0.38918
 30
0.0
 10
4.2825800000000003
 20
-0.27996
 30
0.0
 10
4.2648000000000001
 20
-0.35108
 30
0.0
 10
4.2648000000000001
 20
-0.35108
 30
0.0
 10
4.3740200000000007
 20
-0.61016
 30
0.0
 10
4.4654600000000002
 20
-0.88702
 30
0.0
 10
4.5594400000000004
 20
-1.16388
 30
0.0
 10
4.5594400000000004
 20
-1.16388
 30
0.0
 10
4.5213400000000004
 20
-1.7557
 30
0.0
 10
4.1327199999999999
 20
-2.3449800000000001
 30
0.0
 10
3.6552000000000002
 20
-2.6751800000000001
 30
0.0
 10
3.6552000000000002
 20
-2.6751800000000001
 30
0.0
 10
3.5815400000000004
 20
-3.0815800000000002
 30
0.0
 10
3.6552000000000002
 20
-3.5997400000000002
 30
0.0
 10
3.3224600000000004
 20
-3.8943800000000004
 30
0.0
  0
SPLINE
  5
2D
100
AcDbEntity
  8
Ebene 1
 62
     7
100
AcDbSpline
210
0.0
220
0.0
230
1.0
 70
     1
 71
     3
 72
    12
 73
     8
 74
     0
 42
0.0000000001
 43
0.0000000001
 40
0.0
 40
0.0
 40
0.0
 40
0.0
 40
0.5
 40
0.5
 40
0.5
 40
0.5
 40
1.0
 40
1.0
 40
1.0
 40
1.0
 10
-3.5355300000000005
 20
-0.8692400000000001
 30
0.0
 10
-3.2231100000000001
 20
-0.9606800000000001
 30
0.0
 10
-3.5228300000000004
 20
-1.3289800000000001
 30
0.0
 10
-3.6777700000000002
 20
-1.4407400000000001
 30
0.0
 10
-3.6777700000000002
 20
-1.4407400000000001
 30
0.0
 10
-3.6650700000000005
 20
-1.2578600000000002
 30
0.0
 10
-3.7793700000000001
 20
-0.9048000000000001
 30
0.0
 10
-3.5355300000000005
 20
-0.8692400000000001
 30
0.0
  0
SPLINE
  5
2E
100
AcDbEntity
  8
Ebene 1
 62
     7
100
AcDbSpline
210
0.0
220
0.0
230
1.0
 70
     1
 71
     3
 72
    20
 73
    16
 74
     0
 42
0.0000000001
 43
0.0000000001
 40
0.0
 40
0.0
 40
0.0
 40
0.0
 40
0.25
 40
0.25
 40
0.25
 40
0.25
 40
0.5
 40
0.5
 40
0.5
 40
0.5
 40
0.75
 40
0.75
 40
0.75
 40
0.75
 40
1.0
 40
1.0
 40
1.0
 40
1.0
 10
-2.9640300000000002
 20
-0.8692400000000001
 30
0.0
 10
-2.9081500000000005
 20
-0.8692400000000001
 30
0.0
 10
-2.8370300000000004
 20
-0.8514600000000001
 30
0.0
 10
-2.7811500000000002
 20
-0.88702
 30
0.0
 10
-2.7811500000000002
 20
-0.88702
 30
0.0
 10
-2.7608300000000003
 20
-1.0724400000000001
 30
0.0
 10
-2.9081500000000005
 20
-1.1816600000000002
 30
0.0
 10
-2.9843500000000001
 20
-1.3289800000000001
 30
0.0
 10
-2.9843500000000001
 20
-1.3289800000000001
 30
0.0
 10
-3.0554700000000001
 20
-1.2197600000000002
 30
0.0
 10
-3.1494500000000003
 20
-1.1080000000000001
 30
0.0
 10
-3.1494500000000003
 20
-0.9810000000000001
 30
0.0
 10
-3.1494500000000003
 20
-0.9810000000000001
 30
0.0
 10
-3.1494500000000003
 20
-0.9810000000000001
 30
0.0
 10
-2.9640300000000002
 20
-0.8692400000000001
 30
0.0
 10
-2.9640300000000002
 20
-0.8692400000000001
 30
0.0
  0
SPLINE
  5
2F
100
AcDbEntity
  8
Ebene 1
 62
     7
100
AcDbSpline
210
0.0
220
0.0
230
1.0
 70
     1
 71
     3
 72
    20
 73
    16
 74
     0
 42
0.0000000001
 43
0.0000000001
 40
0.0
 40
0.0
 40
0.0
 40
0.0
 40
0.25
 40
0.25
 40
0.25
 40
0.25
 40
0.5
 40
0.5
 40
0.5
 40
0.5
 40
0.75
 40
0.75
 40
0.75
 40
0.75
 40
1.0
 40
1.0
 40
1.0
 40
1.0
 10
-4.8461700000000008
 20
-1.0165600000000001
 30
0.0
 10
-4.7725100000000005
 20
-0.9987800000000001
 30
0.0
 10
-4.7521900000000006
 20
-1.0902200000000002
 30
0.0
 10
-4.7166300000000003
 20
-1.12832
 30
0.0
 10
-4.7166300000000003
 20
-1.12832
 30
0.0
 10
-4.7852100000000002
 20
-1.29342
 30
0.0
 10
-4.8410900000000003
 20
-1.4788400000000002
 30
0.0
 10
-4.8487100000000005
 20
-1.6617200000000001
 30
0.0
 10
-4.8487100000000005
 20
-1.6617200000000001
 30
0.0
 10
-4.9198300000000001
 20
-1.4788400000000002
 30
0.0
 10
-4.9147500000000006
 20
-1.2375400000000001
 30
0.0
 10
-4.8969700000000005
 20
-1.03434
 30
0.0
 10
-4.8969700000000005
 20
-1.03434
 30
0.0
 10
-4.8969700000000005
 20
-1.03434
 30
0.0
 10
-4.8461700000000008
 20
-1.0165600000000001
 30
0.0
 10
-4.8461700000000008
 20
-1.0165600000000001
 30
0.0
  0
SPLINE
  5
30
100
AcDbEntity
  8
Ebene 1
 62
     7
100
AcDbSpline
210
0.0
220
0.0
230
1.0
 70
     1
 71
     3
 72
    16
 73
    12
 74
     0
 42
0.0000000001
 43
0.0000000001
 40
0.0
 40
0.0
 40
0.0
 40
0.0
 40
0.3333333333333333
 40
0.3333333333333333
 40
0.3333333333333333
 40
0.3333333333333333
 40
0.6666666666666666
 40
0.6666666666666666
 40
0.6666666666666666
 40
0.6666666666666666
 40
1.0
 40
1.0
 40
1.0
 40
1.0
 10
-5.2144700000000004
 20
-1.1080000000000001
 30
0.0
 10
-5.2144700000000004
 20
-1.1080000000000001
 30
0.0
 10
-5.1255700000000006
 20
-1.12832
 30
0.0
 10
-5.1255700000000006
 20
-1.12832
 30
0.0
 10
-5.1255700000000006
 20
-1.12832
 30
0.0
 10
-5.1255700000000006
 20
-1.12832
 30
0.0
 10
-5.2322500000000005
 20
-1.5702800000000001
 30
0.0
 10
-5.2322500000000005
 20
-1.5702800000000001
 30
0.0
 10
-5.2322500000000005
 20
-1.5702800000000001
 30
0.0
 10
-5.2982900000000006
 20
-1.4407400000000001
 30
0.0
 10
-5.2601900000000006
 20
-1.2578600000000002
 30
0.0
 10
-5.2144700000000004
 20
-1.1080000000000001
 30
0.0
  0
SPLINE
  5
31
100
AcDbEntity
  8
Ebene 1
 62
     7
100
AcDbSpline
210
0.0
220
0.0
230
1.0
 70
     1
 71
     3
 72
    16
 73
    12
 74
     0
 42
0.0000000001
 43
0.0000000001
 40
0.0
 40
0.0
 40
0.0
 40
0.0
 40
0.3333333333333333
 40
0.3333333333333333
 40
0.3333333333333333
 40
0.3333333333333333
 40
0.6666666666666666
 40
0.6666666666666666
 40
0.6666666666666666
 40
0.6666666666666666
 40
1.0
 40
1.0
 40
1.0
 40
1.0
 10
-0.63993
 20
-1.9106400000000001
 30
0.0
 10
-0.4926100000000001
 20
-2.0757400000000001
 30
0.0
 10
-0.54849
 20
-2.52786
 30
0.0
 10
-0.51293
 20
-2.6751800000000001
 30
0.0
 10
-0.51293
 20
-2.6751800000000001
 30
0.0
 10
-0.6221500000000001
 20
-2.7132800000000001
 30
0.0
 10
-0.7364500000000001
 20
-2.6650200000000002
 30
0.0
 10
-0.84821
 20
-2.60914
 30
0.0
 10
-0.84821
 20
-2.60914
 30
0.0
 10
-0.9040900000000001
 20
-2.3703800000000004
 30
0.0
 10
-0.7694700000000001
 20
-2.0935200000000003
 30
0.0
 10
-0.63993
 20
-1.9106400000000001
 30
0.0
  0
SPLINE
  5
32
100
AcDbEntity
  8
Ebene 1
 62
     7
100
AcDbSpline
210
0.0
220
0.0
230
1.0
 70
     1
 71
     3
 72
    16
 73
    12
 74
     0
 42
0.0000000001
 43
0.0000000001
 40
0.0
 40
0.0
 40
0.0
 40
0.0
 40
0.3333333333333333
 40
0.3333333333333333
 40
0.3333333333333333
 40
0.3333333333333333
 40
0.6666666666666666
 40
0.6666666666666666
 40
0.6666666666666666
 40
0.6666666666666666
 40
1.0
 40
1.0
 40
1.0
 40
1.0
 10
-2.2858500000000004
 20
-2.0859000000000001
 30
0.0
 10
-2.2858500000000004
 20
-2.0859000000000001
 30
0.0
 10
-1.8565900000000002
 20
-2.6218400000000002
 30
0.0
 10
-1.8565900000000002
 20
-2.6218400000000002
 30
0.0
 10
-1.8565900000000002
 20
-2.6218400000000002
 30
0.0
 10
-1.9505700000000001
 20
-2.7310600000000003
 30
0.0
 10
-2.0877300000000001
 20
-2.7539200000000004
 30
0.0
 10
-2.2731500000000002
 20
-2.6980400000000002
 30
0.0
 10
-2.2731500000000002
 20
-2.6980400000000002
 30
0.0
 10
-2.3061700000000003
 20
-2.3246600000000002
 30
0.0
 10
-2.3061700000000003
 20
-2.3805400000000003
 30
0.0
 10
-2.2858500000000004
 20
-2.0859000000000001
 30
0.0
  0
SPLINE
  5
33
100
AcDbEntity
  8
Ebene 1
 62
     7
100
AcDbSpline
210
0.0
220
0.0
230
1.0
 70
     1
 71
     3
 72
    16
 73
    12
 74
     0
 42
0.0000000001
 43
0.0000000001
 40
0.0
 40
0.0
 40
0.0
 40
0.0
 40
0.3333333333333333
 40
0.3333333333333333
 40
0.3333333333333333
 40
0.3333333333333333
 40
0.6666666666666666
 40
0.6666666666666666
 40
0.6666666666666666
 40
0.6666666666666666
 40
1.0
 40
1.0
 40
1.0
 40
1.0
 10
-0.21575
 20
-2.3449800000000001
 30
0.0
 10
-0.12431
 20
-2.43642
 30
0.0
 10
-0.16241
 20
-2.6396200000000003
 30
0.0
 10
-0.14209
 20
-2.7691600000000003
 30
0.0
 10
-0.14209
 20
-2.7691600000000003
 30
0.0
 10
-0.14209
 20
-2.7691600000000003
 30
0.0
 10
-0.36307
 20
-2.6218400000000002
 30
0.0
 10
-0.36307
 20
-2.6218400000000002
 30
0.0
 10
-0.36307
 20
-2.6218400000000002
 30
0.0
 10
-0.36307
 20
-2.6218400000000002
 30
0.0
 10
-0.21575
 20
-2.3449800000000001
 30
0.0
 10
-0.21575
 20
-2.3449800000000001
 30
0.0
  0
SPLINE
  5
34
100
AcDbEntity
  8
Ebene 1
 62
     7
100
AcDbSpline
210
0.0
220
0.0
230
1.0
 70
     1
 71
     3
 72
    12
 73
     8
 74
     0
 42
0.0000000001
 43
0.0000000001
 40
0.0
 40
0.0
 40
0.0
 40
0.0
 40
0.5
 40
0.5
 40
0.5
 40
0.5
 40
1.0
 40
1.0
 40
1.0
 40
1.0
 10
-3.6295100000000002
 20
-2.4186400000000003
 30
0.0
 10
-3.5406100000000005
 20
-2.52786
 30
0.0
 10
-3.4669500000000002
 20
-2.6955
 30
0.0
 10
-3.4288500000000002
 20
-2.8428200000000001
 30
0.0
 10
-3.4288500000000002
 20
-2.8428200000000001
 30
0.0
 10
-3.6777700000000002
 20
-2.9545800000000004
 30
0.0
 10
-3.6650700000000005
 20
-2.5837400000000001
 30
0.0
 10
-3.6295100000000002
 20
-2.4186400000000003
 30
0.0
  0
SPLINE
  5
35
100
AcDbEntity
  8
Ebene 1
 62
     7
100
AcDbSpline
210
0.0
220
0.0
230
1.0
 70
     1
 71
     3
 72
    12
 73
     8
 74
     0
 42
0.0000000001
 43
0.0000000001
 40
0.0
 40
0.0
 40
0.0
 40
0.0
 40
0.5
 40
0.5
 40
0.5
 40
0.5
 40
1.0
 40
1.0
 40
1.0
 40
1.0
 10
-5.0341300000000002
 20
-2.5761200000000004
 30
0.0
 10
-4.9553900000000004
 20
-2.7082000000000002
 30
0.0
 10
-4.8690300000000004
 20
-2.7869400000000004
 30
0.0
 10
-4.8309300000000004
 20
-2.9545800000000004
 30
0.0
 10
-4.8309300000000004
 20
-2.9545800000000004
 30
0.0
 10
-4.9909500000000007
 20
-2.8783800000000004
 30
0.0
 10
-5.0442900000000002
 20
-2.7437600000000004
 30
0.0
 10
-5.0341300000000002
 20
-2.5761200000000004
 30
0.0
  0
SPLINE
  5
36
100
AcDbEntity
  8
Ebene 1
 62
     7
100
AcDbSpline
210
0.0
220
0.0
230
1.0
 70
     1
 71
     3
 72
    20
 73
    16
 74
     0
 42
0.0000000001
 43
0.0000000001
 40
0.0
 40
0.0
 40
0.0
 40
0.0
 40
0.25
 40
0.25
 40
0.25
 40
0.25
 40
0.5
 40
0.5
 40
0.5
 40
0.5
 40
0.75
 40
0.75
 40
0.75
 40
0.75
 40
1.0
 40
1.0
 40
1.0
 40
1.0
 10
-4.7140900000000006
 20
-2.4415
 30
0.0
 10
-4.7140900000000006
 20
-2.4415
 30
0.0
 10
-4.5108900000000007
 20
-2.9393400000000001
 30
0.0
 10
-4.5108900000000007
 20
-2.9393400000000001
 30
0.0
 10
-4.5108900000000007
 20
-2.9393400000000001
 30
0.0
 10
-4.5108900000000007
 20
-2.9393400000000001
 30
0.0
 10
-4.5337500000000004
 20
-2.9749000000000003
 30
0.0
 10
-4.5337500000000004
 20
-2.9749000000000003
 30
0.0
 10
-4.5337500000000004
 20
-2.9749000000000003
 30
0.0
 10
-4.5337500000000004
 20
-2.9749000000000003
 30
0.0
 10
-4.5997900000000005
 20
-2.9952200000000002
 30
0.0
 10
-4.5997900000000005
 20
-2.9952200000000002
 30
0.0
 10
-4.5997900000000005
 20
-2.9952200000000002
 30
0.0
 10
-4.7471100000000002
 20
-2.8656800000000002
 30
0.0
 10
-4.7166300000000003
 20
-2.6243800000000004
 30
0.0
 10
-4.7140900000000006
 20
-2.4415
 30
0.0
  0
ENDSEC
  0
SECTION
  2
OBJECTS
  0
DICTIONARY
  5
19
100
AcDbDictionary
280
     0
281
     1
  3
ACAD_GROUP
350
1A
  3
ACAD_MLINESTYLE
350
1B
  3
ACAD_LAYOUT
350
1E
  3
ACAD_PLOTSETTINGS
350
22
  3
ACAD_PLOTSTYLENAME
350
1F
  3
ACAD_WIPEOUT_VARS
350
23
  0
DICTIONARY
  5
1A
102
{ACAD_REACTORS
330
19
102
}
100
AcDbDictionary
280
     0
281
     1
  0
DICTIONARY
  5
1B
102
{ACAD_REACTORS
330
19
102
}
100
AcDbDictionary
280
     0
281
     1
  3
Standard
350
1C
  0
MLINESTYLE
  5
1C
102
{ACAD_REACTORS
330
1B
102
}
100
AcDbMlineStyle
  2
Standard
 70
     0
  3

 62
     0
 51
90.0
 52
90.0
 71
     2
 49
0.5
 62
   256
  6
BYLAYER
 49
-0.5
 62
   256
  6
BYLAYER
  0
ACDBDICTIONARYWDFLT
  5
1F
102
{ACAD_REACTORS
330
19
102
}
100
AcDbDictionary
281
     1
  3
Normal
350
1D
100
AcDbDictionaryWithDefault
340
1D
  0
ACDBPLACEHOLDER
  5
1D
102
{ACAD_REACTORS
330
1F
102
}
  0
LAYOUT
  5
20
102
{ACAD_REACTORS
330
1E
102
}
100
AcDbPlotSettings
  1

  2

  4

  6

 40
0.0
 41
0.0
 42
0.0
 43
0.0
 44
0.0
 45
0.0
 46
0.0
 47
0.0
 48
0.0
 49
0.0
140
0.0
141
0.0
142
1.0
143
1.0
 70
  1024
 72
     0
 73
     0
 74
     0
  7

 75
     0
147
1.0
148
0.0
149
0.0
100
AcDbLayout
  1
Model
 70
     0
 71
     0
 10
0.0
 20
0.0
 11
0.0
 21
0.0
 12
0.0
 22
0.0
 32
0.0
 14
0.0
 24
0.0
 34
0.0
 15
0.0
 25
0.0
 35
0.0
146
0.0
 13
0.0
 23
0.0
 33
0.0
 16
0.0
 26
0.0
 36
0.0
 17
0.0
 27
0.0
 37
0.0
 76
     0
330
A
331
0
345
0
346
0
  0
LAYOUT
  5
21
102
{ACAD_REACTORS
330
1E
102
}
100
AcDbPlotSettings
  1

  2

  4

  6

 40
0.0
 41
0.0
 42
0.0
 43
0.0
 44
0.0
 45
0.0
 46
0.0
 47
0.0
 48
0.0
 49
0.0
140
0.0
141
0.0
142
1.0
143
1.0
 70
     0
 72
     0
 73
     0
 74
     0
  7

 75
     0
147
1.0
148
0.0
149
0.0
100
AcDbLayout
  1
Layout1
 70
     0
 71
     0
 10
0.0
 20
0.0
 11
0.0
 21
0.0
 12
0.0
 22
0.0
 32
0.0
 14
0.0
 24
0.0
 34
0.0
 15
0.0
 25
0.0
 35
0.0
146
0.0
 13
0.0
 23
0.0
 33
0.0
 16
0.0
 26
0.0
 36
0.0
 17
0.0
 27
0.0
 37
0.0
 76
     0
330
B
331
0
345
0
346
0
  0
DICTIONARY
  5
1E
102
{ACAD_REACTORS
330
19
102
}
100
AcDbDictionary
280
     0
281
     1
  3
Layout1
350
21
  3
Model
350
20
  0
DICTIONARY
  5
22
102
{ACAD_REACTORS
330
19
102
}
100
AcDbDictionary
280
     0
281
     1
  0
WIPEOUTVARIABLES
  5
23
100
AcDbWipeoutVariables
 70
     1
  0
ENDSEC
  0
EOF
