  0
SECTION
  2
HEADER
  9
$ACADVER
  1
AC1015
  9
$ACADMAINTVER
 70
     6
  9
$DWGCODEPAGE
  3
DOS850
  9
$INSBASE
 10
0.0
 20
0.0
 30
0.0
  9
$EXTMIN
 10
-4.55258
 20
-6.10183
 30
1.000000E+20
  9
$EXTMAX
 10
4.5583
 20
6.09797
 30
-1.000000E+20
  9
$LIMMIN
 10
0.0
 20
0.0
  9
$LIMMAX
 10
0.0
 20
0.0
  9
$ORTHOMODE
 70
     0
  9
$REGENMODE
 70
     1
  9
$FILLMODE
 70
     1
  9
$QTEXTMODE
 70
     0
  9
$MIRRTEXT
 70
     1
  9
$LTSCALE
 40
1.0
  9
$ATTMODE
 70
     1
  9
$TEXTSIZE
 40
0.2
  9
$TRACEWID
 40
0.05
  9
$TEXTSTYLE
  7
Standard
  9
$CLAYER
  8
0
  9
$CELTYPE
  6
Continuous
  9
$CECOLOR
 62
   256
  9
$CELTSCALE
 40
1.0
  9
$DISPSILH
 70
     0
  9
$DIMSCALE
 40
1.0
  9
$DIMASZ
 40
0.18
  9
$DIMEXO
 40
0.0625
  9
$DIMDLI
 40
0.38
  9
$DIMRND
 40
0.0
  9
$DIMDLE
 40
0.0
  9
$DIMEXE
 40
0.18
  9
$DIMTP
 40
0.0
  9
$DIMTM
 40
0.0
  9
$DIMTXT
 40
0.18
  9
$DIMCEN
 40
0.09
  9
$DIMTSZ
 40
0.0
  9
$DIMTOL
 70
     0
  9
$DIMLIM
 70
     0
  9
$DIMTIH
 70
     1
  9
$DIMTOH
 70
     1
  9
$DIMSE1
 70
     0
  9
$DIMSE2
 70
     0
  9
$DIMTAD
 70
     0
  9
$DIMZIN
 70
     0
  9
$DIMBLK
  1

  9
$DIMASO
 70
     1
  9
$DIMSHO
 70
     1
  9
$DIMPOST
  1

  9
$DIMAPOST
  1

  9
$DIMALT
 70
     0
  9
$DIMALTD
 70
     2
  9
$DIMALTF
 40
25.4
  9
$DIMLFAC
 40
1.0
  9
$DIMTOFL
 70
     0
  9
$DIMTVP
 40
0.0
  9
$DIMTIX
 70
     0
  9
$DIMSOXD
 70
     0
  9
$DIMSAH
 70
     0
  9
$DIMBLK1
  1

  9
$DIMBLK2
  1

  9
$DIMSTYLE
  2
Standard
  9
$DIMCLRD
 70
     0
  9
$DIMCLRE
 70
     0
  9
$DIMCLRT
 70
     0
  9
$DIMTFAC
 40
1.0
  9
$DIMGAP
 40
0.09
  9
$DIMJUST
 70
     0
  9
$DIMSD1
 70
     0
  9
$DIMSD2
 70
     0
  9
$DIMTOLJ
 70
     1
  9
$DIMTZIN
 70
     0
  9
$DIMALTZ
 70
     0
  9
$DIMALTTZ
 70
     0
  9
$DIMUPT
 70
     0
  9
$DIMDEC
 70
     4
  9
$DIMTDEC
 70
     4
  9
$DIMALTU
 70
     2
  9
$DIMALTTD
 70
     2
  9
$DIMTXSTY
  7
Standard
  9
$DIMAUNIT
 70
     0
  9
$DIMADEC
 70
     0
  9
$DIMALTRND
 40
0.0
  9
$DIMAZIN
 70
     0
  9
$DIMDSEP
 70
     0
  9
$DIMATFIT
 70
     3
  9
$DIMFRAC
 70
     0
  9
$DIMLDRBLK
  1

  9
$DIMLUNIT
 70
     2
  9
$DIMLWD
 70
     0
  9
$DIMLWE
 70
     0
  9
$DIMTMOVE
 70
     0
  9
$LUNITS
 70
     2
  9
$LUPREC
 70
     4
  9
$SKETCHINC
 40
0.1
  9
$FILLETRAD
 40
0.0
  9
$AUNITS
 70
     0
  9
$AUPREC
 70
     0
  9
$MENU
  1
acad
  9
$ELEVATION
 40
0.0
  9
$PELEVATION
 40
0.0
  9
$THICKNESS
 40
0.0
  9
$LIMCHECK
 70
     0
  9
$CHAMFERA
 40
0.0
  9
$CHAMFERB
 40
0.0
  9
$CHAMFERC
 40
0.0
  9
$CHAMFERD
 40
0.0
  9
$SKPOLY
 70
     0
  9
$TDCREATE
 40
0.000000000
  9
$TDUCREATE
 40
0.000000000
  9
$TDUPDATE
 40
0.000000000
  9
$TDUUPDATE
 40
0.000000000
  9
$TDINDWG
 40
0.0000000000
  9
$TDUSRTIMER
 40
0.0000000000
  9
$USRTIMER
 70
     1
  9
$ANGBASE
 50
0.0
  9
$ANGDIR
 70
     0
  9
$PDMODE
 70
     0
  9
$PDSIZE
 40
0.0
  9
$PLINEWID
 40
0.0
  9
$SPLFRAME
 70
     0
  9
$SPLINETYPE
 70
     6
  9
$SPLINESEGS
 70
     8
  9
$HANDSEED
  5
2F
  9
$SURFTAB1
 70
     6
  9
$SURFTAB2
 70
     6
  9
$SURFTYPE
 70
     6
  9
$SURFU
 70
     6
  9
$SURFV
 70
     6
  9
$UCSBASE
  2

  9
$UCSNAME
  2

  9
$UCSORG
 10
0.0
 20
0.0
 30
0.0
  9
$UCSXDIR
 10
1.0
 20
0.0
 30
0.0
  9
$UCSYDIR
 10
0.0
 20
1.0
 30
0.0
  9
$UCSORTHOREF
  2

  9
$UCSORTHOVIEW
 70
     0
  9
$UCSORGTOP
 10
0.0
 20
0.0
 30
0.0
  9
$UCSORGBOTTOM
 10
0.0
 20
0.0
 30
0.0
  9
$UCSORGLEFT
 10
0.0
 20
0.0
 30
0.0
  9
$UCSORGRIGHT
 10
0.0
 20
0.0
 30
0.0
  9
$UCSORGFRONT
 10
0.0
 20
0.0
 30
0.0
  9
$UCSORGBACK
 10
0.0
 20
0.0
 30
0.0
  9
$PUCSBASE
  2

  9
$PUCSNAME
  2

  9
$PUCSORG
 10
0.0
 20
0.0
 30
0.0
  9
$PUCSXDIR
 10
1.0
 20
0.0
 30
0.0
  9
$PUCSYDIR
 10
0.0
 20
1.0
 30
0.0
  9
$PUCSORTHOREF
  2

  9
$PUCSORTHOVIEW
 70
     0
  9
$PUCSORGTOP
 10
0.0
 20
0.0
 30
0.0
  9
$PUCSORGBOTTOM
 10
0.0
 20
0.0
 30
0.0
  9
$PUCSORGLEFT
 10
0.0
 20
0.0
 30
0.0
  9
$PUCSORGRIGHT
 10
0.0
 20
0.0
 30
0.0
  9
$PUCSORGFRONT
 10
0.0
 20
0.0
 30
0.0
  9
$PUCSORGBACK
 10
0.0
 20
0.0
 30
0.0
  9
$USERI1
 70
     0
  9
$USERI2
 70
     0
  9
$USERI3
 70
     0
  9
$USERI4
 70
     0
  9
$USERI5
 70
     0
  9
$USERR1
 40
0.0
  9
$USERR2
 40
0.0
  9
$USERR3
 40
0.0
  9
$USERR4
 40
0.0
  9
$USERR5
 40
0.0
  9
$WORLDVIEW
 70
     1
  9
$SHADEDGE
 70
     3
  9
$SHADEDIF
 70
    70
  9
$TILEMODE
 70
     1
  9
$MAXACTVP
 70
    16
  9
$PINSBASE
 10
0.0
 20
0.0
 30
0.0
  9
$PLIMCHECK
 70
     0
  9
$PEXTMIN
 10
1.000000E+20
 20
1.000000E+20
 30
1.000000E+20
  9
$PEXTMAX
 10
-1.000000E+20
 20
-1.000000E+20
 30
-1.000000E+20
  9
$PLIMMIN
 10
0.0
 20
0.0
  9
$PLIMMAX
 10
12.0
 20
9.0
  9
$UNITMODE
 70
     0
  9
$VISRETAIN
 70
     0
  9
$PLINEGEN
 70
     1
  9
$PSLTSCALE
 70
     0
  9
$TREEDEPTH
 70
  3020
  9
$CMLSTYLE
  2
Standard
  9
$CMLJUST
 70
     0
  9
$CMLSCALE
 40
1.0
  9
$PROXYGRAPHICS
 70
     0
  9
$MEASUREMENT
 70
     0
  9
$CELWEIGHT
370
     0
  9
$ENDCAPS
280
     0
  9
$JOINSTYLE
280
     0
  9
$LWDISPLAY
290
     0
  9
$INSUNITS
 70
     5
  9
$HYPERLINKBASE
  1

  9
$XEDIT
290
     1
  9
$CEPSNTYPE
380
     0
  9
$PSTYLEMODE
290
     1
  9
$FINGERPRINTGUID
  2

  9
$VERSIONGUID
  2

  9
$EXTNAMES
290
     1
  9
$PSVPSCALE
 40
0.0
  0
ENDSEC
  0
SECTION
  2
CLASSES
  0
CLASS
  1
LWPOLYLINE
  2
AcDbPolyline
  3
AutoCAD 2000
 90
    32768
280
     0
281
     1
  0
CLASS
  1
IMAGE
  2
AcDbRasterImage
  3
ISM
 90
    32895
280
     0
281
     1
  0
CLASS
  1
OLE2FRAME
  2
AcDbOle2Frame
  3
AutoCAD 2000
 90
    32768
280
     0
281
     1
  0
CLASS
  1
HATCH
  2
AcDbHatch
  3
AutoCAD 2000
 90
    32768
280
     0
281
     1
  0
CLASS
  1
DICTIONARYVAR
  2
AcDbDictionaryVar
  3
AutoCAD 2000
 90
    32768
280
     0
281
     0
  0
CLASS
  1
RASTERVARIABLES
  2
AcDbRasterVariables
  3
ISM
 90
    32768
280
     0
281
     0
  0
CLASS
  1
IMAGEDEF
  2
AcDbRasterImageDef
  3
ISM
 90
    32768
280
     0
281
     0
  0
CLASS
  1
IMAGEDEF_REACTOR
  2
AcDbRasterImageDefReactor
  3
ISM
 90
    32769
280
     0
281
     0
  0
CLASS
  1
IDBUFFER
  2
AcDbIdBuffer
  3
AutoCAD 2000
 90
    32768
280
     0
281
     0
  0
CLASS
  1
SPATIAL_FILTER
  2
AcDbSpatialFilter
  3
AutoCAD 2000
 90
    32768
280
     0
281
     0
  0
CLASS
  1
XRECORD
  2
AcDbXrecord
  3
AutoCAD 2000
 90
    32768
280
     0
281
     0
  0
CLASS
  1
SORTENTSTABLE
  2
AcDbSortentsTable
  3
AutoCAD 2000
 90
    32768
280
     0
281
     0
  0
CLASS
  1
LAYER_INDEX
  2
AcDbLayerIndex
  3
AutoCAD 2000
 90
    32768
280
     0
281
     0
  0
CLASS
  1
SPATIAL_INDEX
  2
AcDbSpatialIndex
  3
AutoCAD 2000
 90
    32768
280
     0
281
     0
  0
CLASS
  1
OBJECT_PTR
  2
CAseDLPNTableRecord
  3
"ASE-LPNTableRecord"
 90
    32769
280
     0
281
     0
  0
CLASS
  1
LAYOUT
  2
AcDbLayout
  3
AutoCAD 2000
 90
        0
280
     0
281
     0
  0
CLASS
  1
PLOTSETTINGS
  2
AcDbPlotSettings
  3
AutoCAD 2000
 90
    32768
280
     0
281
     0
  0
CLASS
  1
ACDBDICTIONARYWDFLT
  2
AcDbDictionaryWithDefault
  3
AutoCAD 2000
 90
        0
280
     0
281
     0
  0
CLASS
  1
ACDBPLACEHOLDER
  2
AcDbPlaceHolder
  3
AutoCAD 2000
 90
        0
280
     0
281
     0
  0
CLASS
  1
VBA_PROJECT
  2
AcDbVbaProject
  3
acadvba
 90
    32768
280
     0
281
     0
  0
CLASS
  1
WIPEOUT
  2
AcDbWipeout
  3
WipeOut|AutoCAD Express Tool|expresstools@autodesk.com
 90
    32895
280
     0
281
     1
  0
CLASS
  1
WIPEOUTVARIABLES
  2
AcDbWipeoutVariables
  3
WipeOut|AutoCAD Express Tool|expresstools@autodesk.com
 90
        0
280
     0
281
     0
  0
CLASS
  1
RTEXT
  2
RText
  3
RText|AutoCAD Express Tool|expresstools@autodesk.com
 90
    32768
280
     0
281
     1
  0
CLASS
  1
ARCALIGNEDTEXT
  2
AcDbArcAlignedText
  3
ATEXT|AutoCAD Express Tool|expresstools@autodesk.com
 90
    32768
280
     0
281
     1
  0
ENDSEC
  0
SECTION
  2
TABLES
  0
TABLE
  2
VPORT
  5
7
100
AcDbSymbolTable
 70
     1
  0
VPORT
  5
15
100
AcDbSymbolTableRecord
100
AcDbViewportTableRecord
  2
*ACTIVE
 70
     0
 10
0.0
 20
0.0
 11
1.0
 21
1.0
 12
6.591288
 22
4.579184
 13
0.0
 23
0.0
 14
1.0
 24
1.0
 15
0.0
 25
0.0
 16
0.0
 26
0.0
 36
1.0
 17
0.0
 27
0.0
 37
0.0
 40
9.158369
 41
0.688564
 42
50.0
 43
0.0
 44
0.0
 50
0.0
 51
0.0
 71
     0
 72
   100
 73
     1
 74
     1
 75
     0
 76
     0
 77
     0
 78
     0
281
     0
 65
     0
110
0.0
120
0.0
130
0.0
111
1.0
121
0.0
131
0.0
112
0.0
122
1.0
132
0.0
345
0
346
0
 79
     0
146
0.0
  0
ENDTAB
  0
TABLE
  2
LTYPE
  5
4
100
AcDbSymbolTable
 70
     3
  0
LTYPE
  5
11
100
AcDbSymbolTableRecord
100
AcDbLinetypeTableRecord
  2
ByBlock
 70
    64
  3

 72
    65
 73
     0
 40
0.0
  0
LTYPE
  5
12
100
AcDbSymbolTableRecord
100
AcDbLinetypeTableRecord
  2
ByLayer
 70
    64
  3

 72
    65
 73
     0
 40
0.0
  0
LTYPE
  5
13
100
AcDbSymbolTableRecord
100
AcDbLinetypeTableRecord
  2
Continuous
 70
    64
  3
Solid line
 72
    65
 73
     0
 40
0.0
  0
ENDTAB
  0
TABLE
  2
LAYER
  5
2
100
AcDbSymbolTable
 70
     2
  0
LAYER
  5
14
100
AcDbSymbolTableRecord
100
AcDbLayerTableRecord
  2
0
 70
     0
 62
     7
  6
Continuous
290
     1
370
    -3
390
1D
  0
LAYER
  5
24
100
AcDbSymbolTableRecord
100
AcDbLayerTableRecord
  2
Ebene 1
 70
     0
 62
     7
  6
Continuous
290
     1
370
    -3
390
1F
  0
ENDTAB
  0
TABLE
  2
STYLE
  5
3
100
AcDbSymbolTable
 70
     1
  0
STYLE
  5
17
100
AcDbSymbolTableRecord
100
AcDbTextStyleTableRecord
  2
Standard
 70
     0
 40
0.0
 41
1.0
 50
0.0
 71
     0
 42
0.0
  3
txt
  4

  0
ENDTAB
  0
TABLE
  2
VIEW
  5
5
100
AcDbSymbolTable
 70
     0
  0
ENDTAB
  0
TABLE
  2
UCS
  5
6
100
AcDbSymbolTable
 70
     0
  0
ENDTAB
  0
TABLE
  2
APPID
  5
8
100
AcDbSymbolTable
 70
     1
  0
APPID
  5
16
100
AcDbSymbolTableRecord
100
AcDbRegAppTableRecord
  2
ACAD
 70
     0
  0
ENDTAB
  0
TABLE
  2
DIMSTYLE
  5
9
100
AcDbSymbolTable
 70
     1
100
AcDbDimStyleTable
 71
     0
  0
DIMSTYLE
105
18
100
AcDbSymbolTableRecord
100
AcDbDimStyleTableRecord
  2
Standard
 70
     0
  3

  4

 40
1.0
 41
0.18
 42
0.0625
 43
0.38
 44
0.18
 45
0.0
 46
0.0
 47
0.0
 48
0.0
 71
     0
 72
     0
 73
     1
 74
     1
 75
     0
 76
     0
 77
     0
 78
     0
 79
     0
140
0.18
141
0.09
142
0.0
143
25.4
144
1.0
145
0.0
146
1.0
147
0.09
148
0.0
170
     0
171
     2
172
     0
173
     0
174
     0
175
     0
176
     0
177
     0
178
     0
179
     0
271
     4
272
     4
273
     2
274
     2
275
     0
276
     0
277
     2
278
    46
279
     0
280
     0
281
     0
282
     0
283
     1
284
     0
285
     0
286
     0
288
     0
340
17
341
0
342
0
343
0
344
0
371
    -2
372
    -2
  0
ENDTAB
  0
TABLE
  2
BLOCK_RECORD
  5
1
100
AcDbSymbolTable
 70
     0
  0
BLOCK_RECORD
  5
A
100
AcDbSymbolTableRecord
100
AcDbBlockTableRecord
  2
*MODEL_SPACE
340
20
  0
BLOCK_RECORD
  5
B
100
AcDbSymbolTableRecord
100
AcDbBlockTableRecord
  2
*PAPER_SPACE
340
21
  0
ENDTAB
  0
ENDSEC
  0
SECTION
  2
BLOCKS
  0
BLOCK
  5
D
100
AcDbEntity
  8
0
100
AcDbBlockBegin
  2
*MODEL_SPACE
 70
     0
 10
0.0
 20
0.0
 30
0.0
  3
*MODEL_SPACE
  1

  0
ENDBLK
  5
E
100
AcDbEntity
  8
0
100
AcDbBlockEnd
  0
BLOCK
  5
F
100
AcDbEntity
 67
     1
  8
0
100
AcDbBlockBegin
  2
*PAPER_SPACE
 70
     0
 10
0.0
 20
0.0
 30
0.0
  3
*PAPER_SPACE
  1

  0
ENDBLK
  5
10
100
AcDbEntity
 67
     1
  8
0
100
AcDbBlockEnd
  0
ENDSEC
  0
SECTION
  2
ENTITIES
  0
SPLINE
  5
25
100
AcDbEntity
  8
Ebene 1
100
AcDbSpline
210
0.0
220
0.0
230
1.0
 70
     1
 71
     3
 72
   100
 73
    96
 74
     0
 42
0.0000000001
 43
0.0000000001
 40
0.0
 40
0.0
 40
0.0
 40
0.0
 40
0.0416666666666667
 40
0.0416666666666667
 40
0.0416666666666667
 40
0.0416666666666667
 40
0.0833333333333333
 40
0.0833333333333333
 40
0.0833333333333333
 40
0.0833333333333333
 40
0.125
 40
0.125
 40
0.125
 40
0.125
 40
0.1666666666666667
 40
0.1666666666666667
 40
0.1666666666666667
 40
0.1666666666666667
 40
0.2083333333333333
 40
0.2083333333333333
 40
0.2083333333333333
 40
0.2083333333333333
 40
0.25
 40
0.25
 40
0.25
 40
0.25
 40
0.2916666666666666
 40
0.2916666666666666
 40
0.2916666666666666
 40
0.2916666666666666
 40
0.3333333333333333
 40
0.3333333333333333
 40
0.3333333333333333
 40
0.3333333333333333
 40
0.375
 40
0.375
 40
0.375
 40
0.375
 40
0.4166666666666667
 40
0.4166666666666667
 40
0.4166666666666667
 40
0.4166666666666667
 40
0.4583333333333334
 40
0.4583333333333334
 40
0.4583333333333334
 40
0.4583333333333334
 40
0.5
 40
0.5
 40
0.5
 40
0.5
 40
0.5416666666666666
 40
0.5416666666666666
 40
0.5416666666666666
 40
0.5416666666666666
 40
0.5833333333333333
 40
0.5833333333333333
 40
0.5833333333333333
 40
0.5833333333333333
 40
0.6249999999999999
 40
0.6249999999999999
 40
0.6249999999999999
 40
0.6249999999999999
 40
0.6666666666666665
 40
0.6666666666666665
 40
0.6666666666666665
 40
0.6666666666666665
 40
0.7083333333333332
 40
0.7083333333333332
 40
0.7083333333333332
 40
0.7083333333333332
 40
0.7499999999999998
 40
0.7499999999999998
 40
0.7499999999999998
 40
0.7499999999999998
 40
0.7916666666666664
 40
0.7916666666666664
 40
0.7916666666666664
 40
0.7916666666666664
 40
0.833333333333333
 40
0.833333333333333
 40
0.833333333333333
 40
0.833333333333333
 40
0.8749999999999997
 40
0.8749999999999997
 40
0.8749999999999997
 40
0.8749999999999997
 40
0.9166666666666663
 40
0.9166666666666663
 40
0.9166666666666663
 40
0.9166666666666663
 40
0.9583333333333329
 40
0.9583333333333329
 40
0.9583333333333329
 40
0.9583333333333329
 40
1.0
 40
1.0
 40
1.0
 40
1.0
 10
2.3725000000000001
 20
5.4883700000000006
 30
0.0
 10
3.2056200000000001
 20
5.0083100000000007
 30
0.0
 10
4.1098600000000003
 20
3.8678500000000002
 30
0.0
 10
3.5078800000000001
 20
2.8924900000000004
 30
0.0
 10
3.5078800000000001
 20
2.8924900000000004
 30
0.0
 10
3.5078800000000001
 20
2.8924900000000004
 30
0.0
 10
3.5078800000000001
 20
2.5724500000000003
 30
0.0
 10
3.5078800000000001
 20
2.5724500000000003
 30
0.0
 10
3.5078800000000001
 20
2.5724500000000003
 30
0.0
 10
3.5256600000000002
 20
2.4835500000000001
 30
0.0
 10
3.5790000000000002
 20
2.3946500000000004
 30
0.0
 10
3.6679000000000004
 20
2.34131
 30
0.0
 10
3.6679000000000004
 20
2.34131
 30
0.0
 10
4.55436
 20
2.2524100000000002
 30
0.0
 10
4.7677200000000006
 20
1.06369
 30
0.0
 10
4.3587800000000003
 20
0.40837
 30
0.0
 10
4.3587800000000003
 20
0.40837
 30
0.0
 10
3.8787200000000004
 20
-0.1936
 30
0.0
 10
3.0456000000000003
 20
-0.1936
 30
0.0
 10
2.3902800000000002
 20
-0.00056
 30
0.0
 10
2.3902800000000002
 20
-0.00056
 30
0.0
 10
1.9457800000000001
 20
-0.24694
 30
0.0
 10
1.9813400000000001
 20
-1.0089400000000002
 30
0.0
 10
1.39714
 20
-1.2223000000000002
 30
0.0
 10
1.39714
 20
-1.2223000000000002
 30
0.0
 10
0.5437000000000001
 20
-1.2578600000000002
 30
0.0
 10
-0.61707
 20
-1.20452
 30
0.0
 10
-1.0133100000000002
 20
-2.1265400000000003
 30
0.0
 10
-1.0133100000000002
 20
-2.1265400000000003
 30
0.0
 10
-0.9599700000000001
 20
-2.2510000000000003
 30
0.0
 10
-0.7923300000000001
 20
-2.26878
 30
0.0
 10
-0.7516900000000001
 20
-2.39324
 30
0.0
 10
-0.7516900000000001
 20
-2.39324
 30
0.0
 10
-0.7770900000000001
 20
-2.4643600000000001
 30
0.0
 10
-0.82535
 20
-2.4999200000000004
 30
0.0
 10
-0.86599
 20
-2.5507200000000001
 30
0.0
 10
-0.86599
 20
-2.5507200000000001
 30
0.0
 10
-2.2096500000000003
 20
-3.3152600000000003
 30
0.0
 10
-3.1291300000000004
 20
-4.6106600000000002
 30
0.0
 10
-3.4644100000000004
 20
-6.0813200000000007
 30
0.0
 10
-3.4644100000000004
 20
-6.0813200000000007
 30
0.0
 10
-3.5152100000000002
 20
-6.1168800000000001
 30
0.0
 10
-3.5660100000000003
 20
-6.0991000000000009
 30
0.0
 10
-3.6168100000000001
 20
-6.0813200000000007
 30
0.0
 10
-3.6168100000000001
 20
-6.0813200000000007
 30
0.0
 10
-5.0239700000000003
 20
-4.3261799999999999
 30
0.0
 10
-4.6404300000000003
 20
-1.6820400000000002
 30
0.0
 10
-3.7996900000000005
 20
0.21279
 30
0.0
 10
-3.7996900000000005
 20
0.21279
 30
0.0
 10
-3.6142700000000003
 20
0.7080900000000001
 30
0.0
 10
-4.2111700000000001
 20
1.02813
 30
0.0
 10
-4.0232100000000006
 20
1.49041
 30
0.0
 10
-4.0232100000000006
 20
1.49041
 30
0.0
 10
-3.8200100000000003
 20
1.8434700000000002
 30
0.0
 10
-3.3475700000000002
 20
1.4192900000000002
 30
0.0
 10
-3.1469100000000001
 20
1.7571100000000002
 30
0.0
 10
-3.1469100000000001
 20
1.7571100000000002
 30
0.0
 10
-3.1164300000000003
 20
2.1812900000000002
 30
0.0
 10
-3.3069300000000004
 20
2.6257900000000003
 30
0.0
 10
-3.2078700000000002
 20
3.0702900000000004
 30
0.0
 10
-3.2078700000000002
 20
3.0702900000000004
 30
0.0
 10
-3.0300700000000003
 20
3.5122500000000003
 30
0.0
 10
-2.6516100000000002
 20
3.7789500000000005
 30
0.0
 10
-2.22235
 20
3.9567500000000004
 30
0.0
 10
-2.22235
 20
3.9567500000000004
 30
0.0
 10
-2.22235
 20
3.9567500000000004
 30
0.0
 10
-1.2393700000000001
 20
5.3385100000000003
 30
0.0
 10
-1.2393700000000001
 20
5.3385100000000003
 30
0.0
 10
-1.2393700000000001
 20
5.3385100000000003
 30
0.0
 10
-1.1606300000000001
 20
5.4070900000000002
 30
0.0
 10
-1.0133100000000002
 20
5.7372900000000007
 30
0.0
 10
-1.03617
 20
5.5594900000000003
 30
0.0
 10
-1.03617
 20
5.5594900000000003
 30
0.0
 10
-1.03617
 20
5.5594900000000003
 30
0.0
 10
-1.0260100000000001
 20
5.0210100000000004
 30
0.0
 10
-1.0260100000000001
 20
5.0210100000000004
 30
0.0
 10
-1.0260100000000001
 20
5.0210100000000004
 30
0.0
 10
-0.52563
 20
5.2165900000000001
 30
0.0
 10
-0.41895
 20
5.7423700000000002
 30
0.0
 10
-0.04303
 20
6.0979700000000001
 30
0.0
 10
-0.04303
 20
6.0979700000000001
 30
0.0
 10
0.11698
 20
5.8363500000000004
 30
0.0
 10
0.10174
 20
5.6585500000000009
 30
0.0
 10
0.10174
 20
5.4985300000000006
 30
0.0
 10
0.10174
 20
5.4985300000000006
 30
0.0
 10
0.4929000000000001
 20
5.5518700000000001
 30
0.0
 10
0.82818
 20
5.6407700000000007
 30
0.0
 10
1.0415400000000001
 20
5.9608100000000004
 30
0.0
 10
1.0415400000000001
 20
5.9608100000000004
 30
0.0
 10
1.1025
 20
5.8566700000000003
 30
0.0
 10
1.2447400000000002
 20
5.7830100000000009
 30
0.0
 10
1.3184
 20
5.5848900000000006
 30
0.0
 10
1.3184
 20
5.5848900000000006
 30
0.0
 10
1.5749400000000002
 20
5.6280700000000001
 30
0.0
 10
1.8543400000000001
 20
5.5696500000000002
 30
0.0
 10
2.3725000000000001
 20
5.4883700000000006
 30
0.0
  0
SPLINE
  5
26
100
AcDbEntity
  8
Ebene 1
 62
     7
100
AcDbSpline
210
0.0
220
0.0
230
1.0
 70
     1
 71
     3
 72
    28
 73
    24
 74
     0
 42
0.0000000001
 43
0.0000000001
 40
0.0
 40
0.0
 40
0.0
 40
0.0
 40
0.1666666666666667
 40
0.1666666666666667
 40
0.1666666666666667
 40
0.1666666666666667
 40
0.3333333333333333
 40
0.3333333333333333
 40
0.3333333333333333
 40
0.3333333333333333
 40
0.5
 40
0.5
 40
0.5
 40
0.5
 40
0.6666666666666666
 40
0.6666666666666666
 40
0.6666666666666666
 40
0.6666666666666666
 40
0.8333333333333333
 40
0.8333333333333333
 40
0.8333333333333333
 40
0.8333333333333333
 40
1.0
 40
1.0
 40
1.0
 40
1.0
 10
-0.03795
 20
5.9481100000000007
 30
0.0
 10
-0.02779
 20
5.7931700000000008
 30
0.0
 10
0.03824
 20
5.5467900000000006
 30
0.0
 10
0.04078
 20
5.3029500000000001
 30
0.0
 10
0.04078
 20
5.3029500000000001
 30
0.0
 10
0.04332
 20
5.1099100000000002
 30
0.0
 10
0.023
 20
4.9244900000000005
 30
0.0
 10
-0.19797
 20
4.7365300000000001
 30
0.0
 10
-0.19797
 20
4.7365300000000001
 30
0.0
 10
-0.19797
 20
4.7365300000000001
 30
0.0
 10
-0.10907
 20
5.1454700000000004
 30
0.0
 10
-0.10907
 20
5.1454700000000004
 30
0.0
 10
-0.10907
 20
5.1454700000000004
 30
0.0
 10
-0.10907
 20
5.1454700000000004
 30
0.0
 10
-0.12431
 20
5.2927900000000001
 30
0.0
 10
-0.12431
 20
5.2927900000000001
 30
0.0
 10
-0.12431
 20
5.2927900000000001
 30
0.0
 10
-0.28433
 20
5.1353100000000005
 30
0.0
 10
-0.27163
 20
4.6120700000000001
 30
0.0
 10
-0.61707
 20
4.6298500000000002
 30
0.0
 10
-0.61707
 20
4.6298500000000002
 30
0.0
 10
-0.5992900000000001
 20
5.0743500000000008
 30
0.0
 10
-0.26147
 20
5.5569500000000005
 30
0.0
 10
-0.03795
 20
5.9481100000000007
 30
0.0
  0
SPLINE
  5
27
100
AcDbEntity
  8
Ebene 1
 62
     7
100
AcDbSpline
210
0.0
220
0.0
230
1.0
 70
     1
 71
     3
 72
    12
 73
     8
 74
     0
 42
0.0000000001
 43
0.0000000001
 40
0.0
 40
0.0
 40
0.0
 40
0.0
 40
0.5
 40
0.5
 40
0.5
 40
0.5
 40
1.0
 40
1.0
 40
1.0
 40
1.0
 10
1.0466200000000001
 20
5.8414300000000008
 30
0.0
 10
1.2244200000000001
 20
5.6636300000000004
 30
0.0
 10
1.1329800000000001
 20
5.3816900000000008
 30
0.0
 10
0.8332600000000001
 20
5.4350300000000002
 30
0.0
 10
0.8332600000000001
 20
5.4350300000000002
 30
0.0
 10
0.86882
 20
5.6306100000000008
 30
0.0
 10
0.9577200000000001
 20
5.6814100000000005
 30
0.0
 10
1.0466200000000001
 20
5.8414300000000008
 30
0.0
  0
SPLINE
  5
28
100
AcDbEntity
  8
Ebene 1
 62
     7
100
AcDbSpline
210
0.0
220
0.0
230
1.0
 70
     1
 71
     3
 72
   248
 73
   244
 74
     0
 42
0.0000000001
 43
0.0000000001
 40
0.0
 40
0.0
 40
0.0
 40
0.0
 40
0.0163934426229508
 40
0.0163934426229508
 40
0.0163934426229508
 40
0.0163934426229508
 40
0.0327868852459016
 40
0.0327868852459016
 40
0.0327868852459016
 40
0.0327868852459016
 40
0.0491803278688525
 40
0.0491803278688525
 40
0.0491803278688525
 40
0.0491803278688525
 40
0.0655737704918033
 40
0.0655737704918033
 40
0.0655737704918033
 40
0.0655737704918033
 40
0.0819672131147541
 40
0.0819672131147541
 40
0.0819672131147541
 40
0.0819672131147541
 40
0.0983606557377049
 40
0.0983606557377049
 40
0.0983606557377049
 40
0.0983606557377049
 40
0.1147540983606558
 40
0.1147540983606558
 40
0.1147540983606558
 40
0.1147540983606558
 40
0.1311475409836066
 40
0.1311475409836066
 40
0.1311475409836066
 40
0.1311475409836066
 40
0.1475409836065574
 40
0.1475409836065574
 40
0.1475409836065574
 40
0.1475409836065574
 40
0.1639344262295082
 40
0.1639344262295082
 40
0.1639344262295082
 40
0.1639344262295082
 40
0.180327868852459
 40
0.180327868852459
 40
0.180327868852459
 40
0.180327868852459
 40
0.1967213114754098
 40
0.1967213114754098
 40
0.1967213114754098
 40
0.1967213114754098
 40
0.2131147540983606
 40
0.2131147540983606
 40
0.2131147540983606
 40
0.2131147540983606
 40
0.2295081967213114
 40
0.2295081967213114
 40
0.2295081967213114
 40
0.2295081967213114
 40
0.2459016393442622
 40
0.2459016393442622
 40
0.2459016393442622
 40
0.2459016393442622
 40
0.2622950819672131
 40
0.2622950819672131
 40
0.2622950819672131
 40
0.2622950819672131
 40
0.2786885245901639
 40
0.2786885245901639
 40
0.2786885245901639
 40
0.2786885245901639
 40
0.2950819672131148
 40
0.2950819672131148
 40
0.2950819672131148
 40
0.2950819672131148
 40
0.3114754098360656
 40
0.3114754098360656
 40
0.3114754098360656
 40
0.3114754098360656
 40
0.3278688524590164
 40
0.3278688524590164
 40
0.3278688524590164
 40
0.3278688524590164
 40
0.3442622950819673
 40
0.3442622950819673
 40
0.3442622950819673
 40
0.3442622950819673
 40
0.3606557377049181
 40
0.3606557377049181
 40
0.3606557377049181
 40
0.3606557377049181
 40
0.3770491803278689
 40
0.3770491803278689
 40
0.3770491803278689
 40
0.3770491803278689
 40
0.3934426229508198
 40
0.3934426229508198
 40
0.3934426229508198
 40
0.3934426229508198
 40
0.4098360655737706
 40
0.4098360655737706
 40
0.4098360655737706
 40
0.4098360655737706
 40
0.4262295081967215
 40
0.4262295081967215
 40
0.4262295081967215
 40
0.4262295081967215
 40
0.4426229508196723
 40
0.4426229508196723
 40
0.4426229508196723
 40
0.4426229508196723
 40
0.4590163934426231
 40
0.4590163934426231
 40
0.4590163934426231
 40
0.4590163934426231
 40
0.475409836065574
 40
0.475409836065574
 40
0.475409836065574
 40
0.475409836065574
 40
0.4918032786885248
 40
0.4918032786885248
 40
0.4918032786885248
 40
0.4918032786885248
 40
0.5081967213114756
 40
0.5081967213114756
 40
0.5081967213114756
 40
0.5081967213114756
 40
0.5245901639344265
 40
0.5245901639344265
 40
0.5245901639344265
 40
0.5245901639344265
 40
0.5409836065573773
 40
0.5409836065573773
 40
0.5409836065573773
 40
0.5409836065573773
 40
0.5573770491803282
 40
0.5573770491803282
 40
0.5573770491803282
 40
0.5573770491803282
 40
0.573770491803279
 40
0.573770491803279
 40
0.573770491803279
 40
0.573770491803279
 40
0.5901639344262298
 40
0.5901639344262298
 40
0.5901639344262298
 40
0.5901639344262298
 40
0.6065573770491807
 40
0.6065573770491807
 40
0.6065573770491807
 40
0.6065573770491807
 40
0.6229508196721315
 40
0.6229508196721315
 40
0.6229508196721315
 40
0.6229508196721315
 40
0.6393442622950823
 40
0.6393442622950823
 40
0.6393442622950823
 40
0.6393442622950823
 40
0.6557377049180332
 40
0.6557377049180332
 40
0.6557377049180332
 40
0.6557377049180332
 40
0.672131147540984
 40
0.672131147540984
 40
0.672131147540984
 40
0.672131147540984
 40
0.6885245901639349
 40
0.6885245901639349
 40
0.6885245901639349
 40
0.6885245901639349
 40
0.7049180327868857
 40
0.7049180327868857
 40
0.7049180327868857
 40
0.7049180327868857
 40
0.7213114754098365
 40
0.7213114754098365
 40
0.7213114754098365
 40
0.7213114754098365
 40
0.7377049180327874
 40
0.7377049180327874
 40
0.7377049180327874
 40
0.7377049180327874
 40
0.7540983606557382
 40
0.7540983606557382
 40
0.7540983606557382
 40
0.7540983606557382
 40
0.7704918032786891
 40
0.7704918032786891
 40
0.7704918032786891
 40
0.7704918032786891
 40
0.7868852459016399
 40
0.7868852459016399
 40
0.7868852459016399
 40
0.7868852459016399
 40
0.8032786885245907
 40
0.8032786885245907
 40
0.8032786885245907
 40
0.8032786885245907
 40
0.8196721311475416
 40
0.8196721311475416
 40
0.8196721311475416
 40
0.8196721311475416
 40
0.8360655737704924
 40
0.8360655737704924
 40
0.8360655737704924
 40
0.8360655737704924
 40
0.8524590163934432
 40
0.8524590163934432
 40
0.8524590163934432
 40
0.8524590163934432
 40
0.8688524590163941
 40
0.8688524590163941
 40
0.8688524590163941
 40
0.8688524590163941
 40
0.8852459016393449
 40
0.8852459016393449
 40
0.8852459016393449
 40
0.8852459016393449
 40
0.9016393442622958
 40
0.9016393442622958
 40
0.9016393442622958
 40
0.9016393442622958
 40
0.9180327868852466
 40
0.9180327868852466
 40
0.9180327868852466
 40
0.9180327868852466
 40
0.9344262295081974
 40
0.9344262295081974
 40
0.9344262295081974
 40
0.9344262295081974
 40
0.9508196721311483
 40
0.9508196721311483
 40
0.9508196721311483
 40
0.9508196721311483
 40
0.9672131147540991
 40
0.9672131147540991
 40
0.9672131147540991
 40
0.9672131147540991
 40
0.9836065573770499
 40
0.9836065573770499
 40
0.9836065573770499
 40
0.9836065573770499
 40
1.0
 40
1.0
 40
1.0
 40
1.0
 10
-1.1377700000000002
 20
-1.7531600000000001
 30
0.0
 10
-1.1098300000000001
 20
-1.6287
 30
0.0
 10
-0.7923300000000001
 20
-1.2223000000000002
 30
0.0
 10
-1.0183900000000001
 20
-1.3975600000000001
 30
0.0
 10
-1.0183900000000001
 20
-1.3975600000000001
 30
0.0
 10
-1.3917700000000002
 20
-1.8954000000000002
 30
0.0
 10
-1.9073900000000001
 20
-2.3018000000000001
 30
0.0
 10
-2.1207500000000001
 20
-2.9418800000000003
 30
0.0
 10
-2.1207500000000001
 20
-2.9418800000000003
 30
0.0
 10
-2.1207500000000001
 20
-2.9418800000000003
 30
0.0
 10
-1.7321300000000002
 20
-2.4008600000000002
 30
0.0
 10
-1.7321300000000002
 20
-2.4008600000000002
 30
0.0
 10
-1.7321300000000002
 20
-2.4008600000000002
 30
0.0
 10
-1.4400300000000001
 20
-2.1240000000000001
 30
0.0
 10
-1.3231900000000001
 20
-2.1341600000000001
 30
0.0
 10
-1.2444500000000001
 20
-2.2154400000000001
 30
0.0
 10
-1.2444500000000001
 20
-2.2154400000000001
 30
0.0
 10
-1.08951
 20
-2.8301200000000004
 30
0.0
 10
-2.5017500000000004
 20
-3.2949400000000004
 30
0.0
 10
-2.7659100000000003
 20
-3.9528000000000003
 30
0.0
 10
-2.7659100000000003
 20
-3.9528000000000003
 30
0.0
 10
-2.8243300000000002
 20
-3.6175200000000003
 30
0.0
 10
-2.3696700000000002
 20
-2.39324
 30
0.0
 10
-2.73543
 20
-3.1730200000000002
 30
0.0
 10
-2.73543
 20
-3.1730200000000002
 30
0.0
 10
-2.9310100000000001
 20
-4.0417000000000005
 30
0.0
 10
-3.2256500000000004
 20
-4.91038
 30
0.0
 10
-3.5634700000000001
 20
-5.7282600000000006
 30
0.0
 10
-3.5634700000000001
 20
-5.7282600000000006
 30
0.0
 10
-3.9825700000000004
 20
-5.0704000000000002
 30
0.0
 10
-3.8250900000000003
 20
-4.0772600000000008
 30
0.0
 10
-3.6930100000000001
 20
-3.3330400000000004
 30
0.0
 10
-3.6930100000000001
 20
-3.3330400000000004
 30
0.0
 10
-3.9038300000000001
 20
-3.5997400000000002
 30
0.0
 10
-3.8835100000000002
 20
-4.2550600000000003
 30
0.0
 10
-4.0435300000000005
 20
-4.6640000000000006
 30
0.0
 10
-4.0435300000000005
 20
-4.6640000000000006
 30
0.0
 10
-4.3635700000000002
 20
-3.8639000000000001
 30
0.0
 10
-4.10703
 20
-2.9774400000000001
 30
0.0
 10
-4.1019500000000004
 20
-2.14432
 30
0.0
 10
-4.1019500000000004
 20
-2.14432
 30
0.0
 10
-4.1019500000000004
 20
-2.14432
 30
0.0
 10
-4.1197300000000006
 20
-1.7887200000000001
 30
0.0
 10
-4.1197300000000006
 20
-1.7887200000000001
 30
0.0
 10
-4.1197300000000006
 20
-1.7887200000000001
 30
0.0
 10
-4.2518100000000008
 20
-1.7176000000000002
 30
0.0
 10
-4.1730700000000001
 20
-2.6929600000000002
 30
0.0
 10
-4.3432500000000003
 20
-2.9774400000000001
 30
0.0
 10
-4.3432500000000003
 20
-2.9774400000000001
 30
0.0
 10
-4.2848300000000004
 20
-2.14432
 30
0.0
 10
-4.3991300000000004
 20
-1.1511800000000001
 30
0.0
 10
-3.8200100000000003
 20
-0.49332
 30
0.0
 10
-3.8200100000000003
 20
-0.49332
 30
0.0
 10
-3.7285700000000004
 20
-0.61778
 30
0.0
 10
-3.8149300000000004
 20
-0.88448
 30
0.0
 10
-3.6777700000000002
 20
-0.9733800000000001
 30
0.0
 10
-3.6777700000000002
 20
-0.9733800000000001
 30
0.0
 10
-3.5202900000000001
 20
-0.29774
 30
0.0
 10
-3.8987500000000002
 20
0.55061
 30
0.0
 10
-3.5279100000000003
 20
1.0814700000000002
 30
0.0
 10
-3.5279100000000003
 20
1.0814700000000002
 30
0.0
 10
-2.6414500000000003
 20
1.15259
 30
0.0
 10
-3.1291300000000004
 20
-0.0158
 30
0.0
 10
-3.0351500000000002
 20
-0.52888
 30
0.0
 10
-3.0351500000000002
 20
-0.52888
 30
0.0
 10
-2.94625
 20
0.05277
 30
0.0
 10
-2.7481300000000002
 20
0.85033
 30
0.0
 10
-1.9759700000000002
 20
0.8858900000000001
 30
0.0
 10
-1.9759700000000002
 20
0.8858900000000001
 30
0.0
 10
-2.2147300000000003
 20
1.6504300000000001
 30
0.0
 10
-2.2096500000000003
 20
0.8173100000000001
 30
0.0
 10
-2.7481300000000002
 20
0.7080900000000001
 30
0.0
 10
-2.7481300000000002
 20
0.7080900000000001
 30
0.0
 10
-2.8065500000000001
 20
0.8757300000000001
 30
0.0
 10
-2.6820900000000001
 20
1.02559
 30
0.0
 10
-2.5931900000000003
 20
1.1830700000000001
 30
0.0
 10
-2.5931900000000003
 20
1.1830700000000001
 30
0.0
 10
-2.5398500000000004
 20
1.27705
 30
0.0
 10
-2.4534900000000004
 20
1.40151
 30
0.0
 10
-2.4915900000000004
 20
1.4726300000000001
 30
0.0
 10
-2.4915900000000004
 20
1.4726300000000001
 30
0.0
 10
-2.8268700000000004
 20
1.0459100000000001
 30
0.0
 10
-3.4872700000000001
 20
1.06369
 30
0.0
 10
-3.8708100000000005
 20
1.3481700000000001
 30
0.0
 10
-3.8708100000000005
 20
1.3481700000000001
 30
0.0
 10
-3.6015700000000002
 20
1.7926700000000002
 30
0.0
 10
-2.77861
 20
1.2592700000000001
 30
0.0
 10
-2.4153900000000004
 20
1.7926700000000002
 30
0.0
 10
-2.4153900000000004
 20
1.7926700000000002
 30
0.0
 10
-3.0757900000000005
 20
1.6326500000000002
 30
0.0
 10
-3.2739100000000003
 20
2.9991700000000003
 30
0.0
 10
-2.82179
 20
3.4258900000000003
 30
0.0
 10
-2.82179
 20
3.4258900000000003
 30
0.0
 10
-2.2985500000000001
 20
3.9110300000000002
 30
0.0
 10
-2.3595100000000002
 20
3.4766900000000005
 30
0.0
 10
-2.0902700000000003
 20
3.0855300000000003
 30
0.0
 10
-2.0902700000000003
 20
3.0855300000000003
 30
0.0
 10
-2.10805
 20
3.2633300000000003
 30
0.0
 10
-2.1004300000000002
 20
4.0431100000000004
 30
0.0
 10
-1.8845300000000003
 20
3.4233500000000001
 30
0.0
 10
-1.8845300000000003
 20
3.4233500000000001
 30
0.0
 10
-1.4705100000000002
 20
3.7433900000000002
 30
0.0
 10
-1.5111500000000002
 20
3.5122500000000003
 30
0.0
 10
-1.7626100000000002
 20
3.1388700000000003
 30
0.0
 10
-1.7626100000000002
 20
3.1388700000000003
 30
0.0
 10
-1.33081
 20
3.4792300000000003
 30
0.0
 10
-0.7110500000000001
 20
4.1269300000000007
 30
0.0
 10
-0.09129
 20
4.2209099999999999
 30
0.0
 10
-0.09129
 20
4.2209099999999999
 30
0.0
 10
-0.38339
 20
4.2920300000000005
 30
0.0
 10
-0.6424700000000001
 20
4.1751900000000006
 30
0.0
 10
-0.9371100000000001
 20
4.0507300000000006
 30
0.0
 10
-0.9371100000000001
 20
4.0507300000000006
 30
0.0
 10
-0.78217
 20
4.3174300000000008
 30
0.0
 10
-1.0717300000000001
 20
4.6831900000000006
 30
0.0
 10
-0.7491500000000001
 20
4.8609900000000001
 30
0.0
 10
-0.7491500000000001
 20
4.8609900000000001
 30
0.0
 10
-0.8355100000000001
 20
4.2031300000000007
 30
0.0
 10
0.33288
 20
4.7365300000000001
 30
0.0
 10
0.11952
 20
5.2699300000000004
 30
0.0
 10
0.11952
 20
5.2699300000000004
 30
0.0
 10
0.29732
 20
5.3385100000000003
 30
0.0
 10
0.47512
 20
5.4655100000000001
 30
0.0
 10
0.6681600000000001
 20
5.4655100000000001
 30
0.0
 10
0.6681600000000001
 20
5.4655100000000001
 30
0.0
 10
0.6529200000000001
 20
5.3207300000000002
 30
0.0
 10
0.5437000000000001
 20
5.2343700000000002
 30
0.0
 10
0.42178
 20
5.1607100000000008
 30
0.0
 10
0.42178
 20
5.1607100000000008
 30
0.0
 10
0.24398
 20
5.0387900000000005
 30
0.0
 10
0.3151000000000001
 20
4.8787700000000003
 30
0.0
 10
0.3151000000000001
 20
4.7365300000000001
 30
0.0
 10
0.3151000000000001
 20
4.7365300000000001
 30
0.0
 10
0.70372
 20
5.3740700000000006
 30
0.0
 10
1.5571600000000001
 20
5.7830100000000009
 30
0.0
 10
2.3547200000000004
 20
5.3207300000000002
 30
0.0
 10
2.3547200000000004
 20
5.3207300000000002
 30
0.0
 10
3.5967800000000003
 20
4.6831900000000006
 30
0.0
 10
3.6196400000000004
 20
3.2531700000000003
 30
0.0
 10
2.7865200000000003
 20
2.3311500000000001
 30
0.0
 10
2.7865200000000003
 20
2.3311500000000001
 30
0.0
 10
2.9008200000000004
 20
2.24987
 30
0.0
 10
3.01004
 20
2.59023
 30
0.0
 10
3.1878400000000005
 20
2.5546700000000002
 30
0.0
 10
3.1878400000000005
 20
2.5546700000000002
 30
0.0
 10
3.2411800000000004
 20
2.5368900000000001
 30
0.0
 10
3.2945200000000003
 20
2.5191100000000004
 30
0.0
 10
3.2945200000000003
 20
2.4479900000000003
 30
0.0
 10
3.2945200000000003
 20
2.4479900000000003
 30
0.0
 10
2.7966800000000003
 20
1.9171300000000002
 30
0.0
 10
3.1345000000000001
 20
2.1457300000000004
 30
0.0
 10
3.6501200000000003
 20
2.1812900000000002
 30
0.0
 10
3.6501200000000003
 20
2.1812900000000002
 30
0.0
 10
3.8965000000000005
 20
2.0212700000000003
 30
0.0
 10
4.1276400000000004
 20
1.8434700000000002
 30
0.0
 10
4.19876
 20
1.5437500000000002
 30
0.0
 10
4.19876
 20
1.5437500000000002
 30
0.0
 10
4.5899200000000002
 20
0.85033
 30
0.0
 10
3.9142800000000002
 20
-0.26472
 30
0.0
 10
3.0811600000000001
 20
0.08833
 30
0.0
 10
3.0811600000000001
 20
0.08833
 30
0.0
 10
2.8500200000000002
 20
0.47949
 30
0.0
 10
3.2056200000000001
 20
1.06369
 30
0.0
 10
2.5833200000000001
 20
1.27705
 30
0.0
 10
2.5833200000000001
 20
1.27705
 30
0.0
 10
2.6569800000000003
 20
1.7926700000000002
 30
0.0
 10
2.2302600000000004
 20
2.21685
 30
0.0
 10
1.7324200000000001
 20
2.21685
 30
0.0
 10
1.7324200000000001
 20
2.21685
 30
0.0
 10
1.5749400000000002
 20
2.1127100000000003
 30
0.0
 10
2.67476
 20
1.7926700000000002
 30
0.0
 10
2.2124800000000002
 20
1.27705
 30
0.0
 10
2.2124800000000002
 20
1.27705
 30
0.0
 10
1.1837800000000001
 20
1.3837300000000001
 30
0.0
 10
0.50814
 20
0.51505
 30
0.0
 10
-0.4494300000000001
 20
0.3905900000000001
 30
0.0
 10
-0.4494300000000001
 20
0.3905900000000001
 30
0.0
 10
-0.59421
 20
1.02813
 30
0.0
 10
-1.5695700000000001
 20
1.18815
 30
0.0
 10
-1.8057900000000002
 20
0.7817500000000001
 30
0.0
 10
-1.8057900000000002
 20
0.7817500000000001
 30
0.0
 10
-1.8057900000000002
 20
0.7817500000000001
 30
0.0
 10
-1.67371
 20
0.87319
 30
0.0
 10
-1.67371
 20
0.87319
 30
0.0
 10
-1.67371
 20
0.87319
 30
0.0
 10
-1.5162300000000002
 20
0.9265300000000001
 30
0.0
 10
-1.2012700000000001
 20
0.9519300000000001
 30
0.0
 10
-1.0285500000000001
 20
0.8198500000000001
 30
0.0
 10
-1.0285500000000001
 20
0.8198500000000001
 30
0.0
 10
-0.6907300000000001
 20
0.6242700000000001
 30
0.0
 10
-0.6424700000000001
 20
0.28391
 30
0.0
 10
-0.9142500000000001
 20
-0.12248
 30
0.0
 10
-0.9142500000000001
 20
-0.12248
 30
0.0
 10
-1.20635
 20
-0.47554
 30
0.0
 10
-1.6838700000000002
 20
-0.4247400000000001
 30
0.0
 10
-2.05979
 20
-0.49332
 30
0.0
 10
-2.05979
 20
-0.49332
 30
0.0
 10
-2.0521700000000003
 20
-0.6000000000000001
 30
0.0
 10
-1.9073900000000001
 20
-0.5111
 30
0.0
 10
-1.8692900000000001
 20
-0.6000000000000001
 30
0.0
 10
-1.8692900000000001
 20
-0.6000000000000001
 30
0.0
 10
-1.8896100000000002
 20
-0.74224
 30
0.0
 10
-2.0750300000000004
 20
-0.8489200000000001
 30
0.0
 10
-2.0724900000000002
 20
-1.0089400000000002
 30
0.0
 10
-2.0724900000000002
 20
-1.0089400000000002
 30
0.0
 10
-1.4959100000000001
 20
-0.5644400000000001
 30
0.0
 10
-0.7897900000000001
 20
-0.40696
 30
0.0
 10
-0.26401
 20
0.14167
 30
0.0
 10
-0.26401
 20
0.14167
 30
0.0
 10
-0.03795
 20
-0.11994
 30
0.0
 10
0.5437000000000001
 20
-0.4247400000000001
 30
0.0
 10
0.27954
 20
-0.9200400000000001
 30
0.0
 10
0.27954
 20
-0.9200400000000001
 30
0.0
 10
0.27954
 20
-0.9200400000000001
 30
0.0
 10
0.42178
 20
-0.8133600000000001
 30
0.0
 10
0.42178
 20
-0.8133600000000001
 30
0.0
 10
0.42178
 20
-0.8133600000000001
 30
0.0
 10
0.5259200000000001
 20
-0.6889000000000001
 30
0.0
 10
0.4929000000000001
 20
-0.52888
 30
0.0
 10
0.4395600000000001
 20
-0.38918
 30
0.0
 10
0.4395600000000001
 20
-0.38918
 30
0.0
 10
-0.7288300000000001
 20
1.1170300000000002
 30
0.0
 10
3.9498400000000005
 20
1.49041
 30
0.0
 10
2.05246
 20
-0.00056
 30
0.0
 10
2.05246
 20
-0.00056
 30
0.0
 10
1.9280000000000002
 20
0.01721
 30
0.0
 10
1.9102200000000003
 20
0.17723
 30
0.0
 10
1.8391000000000002
 20
0.26613
 30
0.0
 10
1.8391000000000002
 20
0.26613
 30
0.0
 10
1.5393800000000002
 20
0.6903100000000001
 30
0.0
 10
0.9704200000000001
 20
0.62173
 30
0.0
 10
0.7215
 20
0.19501
 30
0.0
 10
0.7215
 20
0.19501
 30
0.0
 10
0.9704200000000001
 20
0.24835
 30
0.0
 10
1.2904600000000002
 20
0.6039500000000001
 30
0.0
 10
1.5216000000000001
 20
0.31947
 30
0.0
 10
1.5216000000000001
 20
0.31947
 30
0.0
 10
2.4283800000000002
 20
-0.92766
 30
0.0
 10
1.2015600000000002
 20
-0.9124200000000001
 30
0.0
 10
0.06872
 20
-1.16388
 30
0.0
 10
0.06872
 20
-1.16388
 30
0.0
 10
-0.38847
 20
-1.2654800000000002
 30
0.0
 10
-0.8939300000000001
 20
-1.5220200000000002
 30
0.0
 10
-1.1377700000000002
 20
-1.7531600000000001
 30
0.0
  0
SPLINE
  5
29
100
AcDbEntity
  8
Ebene 1
 62
     7
100
AcDbSpline
210
0.0
220
0.0
230
1.0
 70
     1
 71
     3
 72
    40
 73
    36
 74
     0
 42
0.0000000001
 43
0.0000000001
 40
0.0
 40
0.0
 40
0.0
 40
0.0
 40
0.1111111111111111
 40
0.1111111111111111
 40
0.1111111111111111
 40
0.1111111111111111
 40
0.2222222222222222
 40
0.2222222222222222
 40
0.2222222222222222
 40
0.2222222222222222
 40
0.3333333333333333
 40
0.3333333333333333
 40
0.3333333333333333
 40
0.3333333333333333
 40
0.4444444444444444
 40
0.4444444444444444
 40
0.4444444444444444
 40
0.4444444444444444
 40
0.5555555555555556
 40
0.5555555555555556
 40
0.5555555555555556
 40
0.5555555555555556
 40
0.6666666666666667
 40
0.6666666666666667
 40
0.6666666666666667
 40
0.6666666666666667
 40
0.7777777777777779
 40
0.7777777777777779
 40
0.7777777777777779
 40
0.7777777777777779
 40
0.8888888888888891
 40
0.8888888888888891
 40
0.8888888888888891
 40
0.8888888888888891
 40
1.0
 40
1.0
 40
1.0
 40
1.0
 10
-1.67117
 20
4.3987100000000003
 30
0.0
 10
-1.58989
 20
4.7009700000000008
 30
0.0
 10
-1.3612900000000001
 20
4.96767
 30
0.0
 10
-1.1555500000000001
 20
5.1988100000000008
 30
0.0
 10
-1.1555500000000001
 20
5.1988100000000008
 30
0.0
 10
-1.12253
 20
4.9143300000000005
 30
0.0
 10
-1.1784100000000002
 20
4.5663500000000008
 30
0.0
 10
-1.2800100000000001
 20
4.2844100000000003
 30
0.0
 10
-1.2800100000000001
 20
4.2844100000000003
 30
0.0
 10
-1.29525
 20
4.1421700000000001
 30
0.0
 10
-1.1885700000000001
 20
4.3123500000000003
 30
0.0
 10
-1.1885700000000001
 20
4.3631500000000001
 30
0.0
 10
-1.1885700000000001
 20
4.3631500000000001
 30
0.0
 10
-1.1428500000000001
 20
4.46983
 30
0.0
 10
-1.11999
 20
4.5511100000000004
 30
0.0
 10
-1.07935
 20
4.6654100000000005
 30
0.0
 10
-1.07935
 20
4.6654100000000005
 30
0.0
 10
-1.03871
 20
4.4520500000000007
 30
0.0
 10
-1.07681
 20
4.2031300000000007
 30
0.0
 10
-1.12253
 20
3.9923100000000002
 30
0.0
 10
-1.12253
 20
3.9923100000000002
 30
0.0
 10
-1.12253
 20
3.9923100000000002
 30
0.0
 10
-1.6991100000000001
 20
3.6544900000000005
 30
0.0
 10
-1.6991100000000001
 20
3.6544900000000005
 30
0.0
 10
-1.6991100000000001
 20
3.6544900000000005
 30
0.0
 10
-1.7067300000000001
 20
3.8145100000000003
 30
0.0
 10
-1.6889500000000002
 20
3.9745300000000001
 30
0.0
 10
-1.6483100000000002
 20
4.1167700000000007
 30
0.0
 10
-1.6483100000000002
 20
4.1167700000000007
 30
0.0
 10
-1.6483100000000002
 20
4.1167700000000007
 30
0.0
 10
-1.3536700000000002
 20
4.7720900000000004
 30
0.0
 10
-1.3536700000000002
 20
4.7720900000000004
 30
0.0
 10
-1.3536700000000002
 20
4.7720900000000004
 30
0.0
 10
-1.3536700000000002
 20
4.7720900000000004
 30
0.0
 10
-1.67117
 20
4.3987100000000003
 30
0.0
 10
-1.67117
 20
4.3987100000000003
 30
0.0
  0
SPLINE
  5
2A
100
AcDbEntity
  8
Ebene 1
100
AcDbSpline
210
0.0
220
0.0
230
1.0
 70
     1
 71
     3
 72
    36
 73
    32
 74
     0
 42
0.0000000001
 43
0.0000000001
 40
0.0
 40
0.0
 40
0.0
 40
0.0
 40
0.125
 40
0.125
 40
0.125
 40
0.125
 40
0.25
 40
0.25
 40
0.25
 40
0.25
 40
0.375
 40
0.375
 40
0.375
 40
0.375
 40
0.5
 40
0.5
 40
0.5
 40
0.5
 40
0.625
 40
0.625
 40
0.625
 40
0.625
 40
0.75
 40
0.75
 40
0.75
 40
0.75
 40
0.875
 40
0.875
 40
0.875
 40
0.875
 40
1.0
 40
1.0
 40
1.0
 40
1.0
 10
1.2904600000000002
 20
4.5409500000000005
 30
0.0
 10
2.0169000000000001
 20
4.3987100000000003
 30
0.0
 10
1.9457800000000001
 20
3.4411300000000002
 30
0.0
 10
1.5012800000000002
 20
3.0347300000000001
 30
0.0
 10
1.5012800000000002
 20
3.0347300000000001
 30
0.0
 10
1.4657200000000001
 20
2.9813900000000002
 30
0.0
 10
1.4657200000000001
 20
2.9255100000000001
 30
0.0
 10
1.4504800000000002
 20
2.8747100000000003
 30
0.0
 10
1.4504800000000002
 20
2.8747100000000003
 30
0.0
 10
1.3438000000000001
 20
2.6613500000000001
 30
0.0
 10
1.4835
 20
2.4302100000000002
 30
0.0
 10
1.4835
 20
2.2346300000000001
 30
0.0
 10
1.4835
 20
2.2346300000000001
 30
0.0
 10
1.39714
 20
2.3235300000000003
 30
0.0
 10
1.3082400000000001
 20
2.4302100000000002
 30
0.0
 10
1.27268
 20
2.5546700000000002
 30
0.0
 10
1.27268
 20
2.5546700000000002
 30
0.0
 10
1.2015600000000002
 20
2.6791300000000002
 30
0.0
 10
1.2549000000000001
 20
2.8213700000000004
 30
0.0
 10
1.27268
 20
2.9432900000000002
 30
0.0
 10
1.27268
 20
2.9432900000000002
 30
0.0
 10
1.27268
 20
2.9432900000000002
 30
0.0
 10
1.36158
 20
3.1744300000000001
 30
0.0
 10
1.36158
 20
3.1744300000000001
 30
0.0
 10
1.36158
 20
3.1744300000000001
 30
0.0
 10
1.9813400000000001
 20
3.7789500000000005
 30
0.0
 10
1.02376
 20
4.6654100000000005
 30
0.0
 10
0.50814
 20
3.9923100000000002
 30
0.0
 10
0.50814
 20
3.9923100000000002
 30
0.0
 10
0.59704
 20
4.3301300000000005
 30
0.0
 10
0.9882000000000001
 20
4.4876100000000001
 30
0.0
 10
1.2904600000000002
 20
4.5409500000000005
 30
0.0
  0
SPLINE
  5
2B
100
AcDbEntity
  8
Ebene 1
100
AcDbSpline
210
0.0
220
0.0
230
1.0
 70
     1
 71
     3
 72
    68
 73
    64
 74
     0
 42
0.0000000001
 43
0.0000000001
 40
0.0
 40
0.0
 40
0.0
 40
0.0
 40
0.0625
 40
0.0625
 40
0.0625
 40
0.0625
 40
0.125
 40
0.125
 40
0.125
 40
0.125
 40
0.1875
 40
0.1875
 40
0.1875
 40
0.1875
 40
0.25
 40
0.25
 40
0.25
 40
0.25
 40
0.3125
 40
0.3125
 40
0.3125
 40
0.3125
 40
0.375
 40
0.375
 40
0.375
 40
0.375
 40
0.4375
 40
0.4375
 40
0.4375
 40
0.4375
 40
0.5
 40
0.5
 40
0.5
 40
0.5
 40
0.5625
 40
0.5625
 40
0.5625
 40
0.5625
 40
0.625
 40
0.625
 40
0.625
 40
0.625
 40
0.6875
 40
0.6875
 40
0.6875
 40
0.6875
 40
0.75
 40
0.75
 40
0.75
 40
0.75
 40
0.8125
 40
0.8125
 40
0.8125
 40
0.8125
 40
0.875
 40
0.875
 40
0.875
 40
0.875
 40
0.9375
 40
0.9375
 40
0.9375
 40
0.9375
 40
1.0
 40
1.0
 40
1.0
 40
1.0
 10
0.6859400000000001
 20
3.3344500000000004
 30
0.0
 10
0.8104000000000001
 20
3.2633300000000003
 30
0.0
 10
0.57926
 20
2.9610700000000003
 30
0.0
 10
0.5259200000000001
 20
2.8035900000000002
 30
0.0
 10
0.5259200000000001
 20
2.8035900000000002
 30
0.0
 10
1.0771000000000002
 20
2.2701900000000004
 30
0.0
 10
0.7392800000000001
 20
1.18815
 30
0.0
 10
-0.10907
 20
1.3481700000000001
 30
0.0
 10
-0.10907
 20
1.3481700000000001
 30
0.0
 10
-0.27925
 20
1.27705
 30
0.0
 10
-0.47483
 20
1.1754500000000001
 30
0.0
 10
-0.6704100000000001
 20
1.2059300000000002
 30
0.0
 10
-0.6704100000000001
 20
1.2059300000000002
 30
0.0
 10
-0.55357
 20
1.27705
 30
0.0
 10
-0.6043700000000001
 20
1.3837300000000001
 30
0.0
 10
-0.6272300000000001
 20
1.49041
 30
0.0
 10
-0.6272300000000001
 20
1.49041
 30
0.0
 10
-0.95235
 20
1.2948300000000001
 30
0.0
 10
-1.6000500000000002
 20
1.2237100000000001
 30
0.0
 10
-1.9835900000000002
 20
1.5970900000000001
 30
0.0
 10
-1.9835900000000002
 20
1.5970900000000001
 30
0.0
 10
-2.14615
 20
1.9526900000000003
 30
0.0
 10
-2.0318500000000004
 20
2.4124300000000001
 30
0.0
 10
-1.9353300000000002
 20
2.7502500000000003
 30
0.0
 10
-1.9353300000000002
 20
2.7502500000000003
 30
0.0
 10
-1.8438900000000003
 20
2.7680300000000004
 30
0.0
 10
-1.8896100000000002
 20
2.6435700000000004
 30
0.0
 10
-1.8997700000000002
 20
2.59023
 30
0.0
 10
-1.8997700000000002
 20
2.59023
 30
0.0
 10
-1.8667500000000001
 20
2.2346300000000001
 30
0.0
 10
-1.9124700000000001
 20
1.8256900000000003
 30
0.0
 10
-1.5949700000000002
 20
1.5793100000000002
 30
0.0
 10
-1.5949700000000002
 20
1.5793100000000002
 30
0.0
 10
-1.4806700000000002
 20
1.5107300000000001
 30
0.0
 10
-1.2165100000000002
 20
1.4980300000000002
 30
0.0
 10
-1.13015
 20
1.53105
 30
0.0
 10
-1.13015
 20
1.53105
 30
0.0
 10
-0.86853
 20
1.6301100000000002
 30
0.0
 10
-0.86599
 20
2.0771500000000001
 30
0.0
 10
-0.6704100000000001
 20
2.1863700000000001
 30
0.0
 10
-0.6704100000000001
 20
2.1863700000000001
 30
0.0
 10
-0.70089
 20
2.0796900000000003
 30
0.0
 10
-0.71613
 20
1.9349100000000001
 30
0.0
 10
-0.7262900000000001
 20
1.8256900000000003
 30
0.0
 10
-0.7262900000000001
 20
1.8256900000000003
 30
0.0
 10
-0.6932700000000001
 20
1.7215500000000001
 30
0.0
 10
-0.8380500000000001
 20
1.5970900000000001
 30
0.0
 10
-0.7694700000000001
 20
1.5437500000000002
 30
0.0
 10
-0.7694700000000001
 20
1.5437500000000002
 30
0.0
 10
-0.45705
 20
1.9857100000000001
 30
0.0
 10
-0.32497
 20
2.6613500000000001
 30
0.0
 10
0.01284
 20
3.0702900000000004
 30
0.0
 10
0.01284
 20
3.0702900000000004
 30
0.0
 10
0.01284
 20
2.8747100000000003
 30
0.0
 10
-0.18019
 20
2.6969100000000004
 30
0.0
 10
-0.21575
 20
2.5013300000000003
 30
0.0
 10
-0.21575
 20
2.5013300000000003
 30
0.0
 10
-0.21575
 20
2.5013300000000003
 30
0.0
 10
-0.24623
 20
2.3590900000000001
 30
0.0
 10
-0.24623
 20
2.3590900000000001
 30
0.0
 10
-0.24623
 20
2.3590900000000001
 30
0.0
 10
0.20842
 20
2.5368900000000001
 30
0.0
 10
0.4929000000000001
 20
2.9102700000000001
 30
0.0
 10
0.6859400000000001
 20
3.3344500000000004
 30
0.0
  0
SPLINE
  5
2C
100
AcDbEntity
  8
Ebene 1
 62
     7
100
AcDbSpline
210
0.0
220
0.0
230
1.0
 70
     1
 71
     3
 72
    12
 73
     8
 74
     0
 42
0.0000000001
 43
0.0000000001
 40
0.0
 40
0.0
 40
0.0
 40
0.0
 40
0.5
 40
0.5
 40
0.5
 40
0.5
 40
1.0
 40
1.0
 40
1.0
 40
1.0
 10
0.34812
 20
2.4124300000000001
 30
0.0
 10
0.5259200000000001
 20
2.2701900000000004
 30
0.0
 10
0.19064
 20
2.1457300000000004
 30
0.0
 10
0.06618
 20
2.0746100000000003
 30
0.0
 10
0.06618
 20
2.0746100000000003
 30
0.0
 10
0.10174
 20
2.2346300000000001
 30
0.0
 10
0.24398
 20
2.3057500000000002
 30
0.0
 10
0.34812
 20
2.4124300000000001
 30
0.0
  0
SPLINE
  5
2D
100
AcDbEntity
  8
Ebene 1
100
AcDbSpline
210
0.0
220
0.0
230
1.0
 70
     1
 71
     3
 72
    28
 73
    24
 74
     0
 42
0.0000000001
 43
0.0000000001
 40
0.0
 40
0.0
 40
0.0
 40
0.0
 40
0.1666666666666667
 40
0.1666666666666667
 40
0.1666666666666667
 40
0.1666666666666667
 40
0.3333333333333333
 40
0.3333333333333333
 40
0.3333333333333333
 40
0.3333333333333333
 40
0.5
 40
0.5
 40
0.5
 40
0.5
 40
0.6666666666666666
 40
0.6666666666666666
 40
0.6666666666666666
 40
0.6666666666666666
 40
0.8333333333333333
 40
0.8333333333333333
 40
0.8333333333333333
 40
0.8333333333333333
 40
1.0
 40
1.0
 40
1.0
 40
1.0
 10
-3.4974300000000005
 20
0.63951
 30
0.0
 10
-3.1773900000000004
 20
0.4972700000000001
 30
0.0
 10
-3.2205700000000004
 20
0.05277
 30
0.0
 10
-3.2002500000000005
 20
-0.24694
 30
0.0
 10
-3.2002500000000005
 20
-0.24694
 30
0.0
 10
-3.2713700000000001
 20
-0.1936
 30
0.0
 10
-3.2688300000000003
 20
-0.08692
 30
0.0
 10
-3.2662900000000001
 20
-0.00056
 30
0.0
 10
-3.2662900000000001
 20
-0.00056
 30
0.0
 10
-3.2815300000000001
 20
0.15945
 30
0.0
 10
-3.4974300000000005
 20
0.05277
 30
0.0
 10
-3.3729700000000005
 20
-0.06914
 30
0.0
 10
-3.3729700000000005
 20
-0.06914
 30
0.0
 10
-3.3856700000000002
 20
-0.14026
 30
0.0
 10
-3.2891500000000002
 20
-0.21138
 30
0.0
 10
-3.3678900000000005
 20
-0.26472
 30
0.0
 10
-3.3678900000000005
 20
-0.26472
 30
0.0
 10
-3.3678900000000005
 20
-0.26472
 30
0.0
 10
-3.4085300000000003
 20
-0.21138
 30
0.0
 10
-3.4085300000000003
 20
-0.21138
 30
0.0
 10
-3.4085300000000003
 20
-0.21138
 30
0.0
 10
-3.4009100000000001
 20
0.08833
 30
0.0
 10
-3.7920700000000003
 20
0.37281
 30
0.0
 10
-3.4974300000000005
 20
0.63951
 30
0.0
  0
SPLINE
  5
2E
100
AcDbEntity
  8
Ebene 1
100
AcDbSpline
210
0.0
220
0.0
230
1.0
 70
     1
 71
     3
 72
    32
 73
    28
 74
     0
 42
0.0000000001
 43
0.0000000001
 40
0.0
 40
0.0
 40
0.0
 40
0.0
 40
0.1428571428571429
 40
0.1428571428571429
 40
0.1428571428571429
 40
0.1428571428571429
 40
0.2857142857142857
 40
0.2857142857142857
 40
0.2857142857142857
 40
0.2857142857142857
 40
0.4285714285714286
 40
0.4285714285714286
 40
0.4285714285714286
 40
0.4285714285714286
 40
0.5714285714285714
 40
0.5714285714285714
 40
0.5714285714285714
 40
0.5714285714285714
 40
0.7142857142857142
 40
0.7142857142857142
 40
0.7142857142857142
 40
0.7142857142857142
 40
0.857142857142857
 40
0.857142857142857
 40
0.857142857142857
 40
0.857142857142857
 40
1.0
 40
1.0
 40
1.0
 40
1.0
 10
-1.5289300000000001
 20
0.4972700000000001
 30
0.0
 10
-0.90917
 20
0.51505
 30
0.0
 10
-1.25461
 20
-0.29774
 30
0.0
 10
-1.7245100000000002
 20
-0.21138
 30
0.0
 10
-1.7245100000000002
 20
-0.21138
 30
0.0
 10
-1.7245100000000002
 20
-0.21138
 30
0.0
 10
-1.9531100000000001
 20
-0.22916
 30
0.0
 10
-1.9531100000000001
 20
-0.22916
 30
0.0
 10
-1.9531100000000001
 20
-0.22916
 30
0.0
 10
-1.9531100000000001
 20
-0.22916
 30
0.0
 10
-2.2807700000000004
 20
-0.3307600000000001
 30
0.0
 10
-2.2807700000000004
 20
-0.3307600000000001
 30
0.0
 10
-2.2807700000000004
 20
-0.3307600000000001
 30
0.0
 10
-2.2452100000000002
 20
-0.27742
 30
0.0
 10
-2.1004300000000002
 20
-0.24694
 30
0.0
 10
-2.0775700000000001
 20
-0.17582
 30
0.0
 10
-2.0775700000000001
 20
-0.17582
 30
0.0
 10
-2.22235
 20
-0.17582
 30
0.0
 10
-2.1309100000000001
 20
0.01721
 30
0.0
 10
-2.1969500000000002
 20
0.05277
 30
0.0
 10
-2.1969500000000002
 20
0.05277
 30
0.0
 10
-2.1969500000000002
 20
0.05277
 30
0.0
 10
-2.4280900000000001
 20
-0.15804
 30
0.0
 10
-2.4280900000000001
 20
-0.15804
 30
0.0
 10
-2.4280900000000001
 20
-0.15804
 30
0.0
 10
-2.3341100000000004
 20
0.21279
 30
0.0
 10
-1.84135
 20
0.3372500000000001
 30
0.0
 10
-1.5289300000000001
 20
0.4972700000000001
 30
0.0
  0
ENDSEC
  0
SECTION
  2
OBJECTS
  0
DICTIONARY
  5
19
100
AcDbDictionary
280
     0
281
     1
  3
ACAD_GROUP
350
1A
  3
ACAD_MLINESTYLE
350
1B
  3
ACAD_LAYOUT
350
1E
  3
ACAD_PLOTSETTINGS
350
22
  3
ACAD_PLOTSTYLENAME
350
1F
  3
ACAD_WIPEOUT_VARS
350
23
  0
DICTIONARY
  5
1A
102
{ACAD_REACTORS
330
19
102
}
100
AcDbDictionary
280
     0
281
     1
  0
DICTIONARY
  5
1B
102
{ACAD_REACTORS
330
19
102
}
100
AcDbDictionary
280
     0
281
     1
  3
Standard
350
1C
  0
MLINESTYLE
  5
1C
102
{ACAD_REACTORS
330
1B
102
}
100
AcDbMlineStyle
  2
Standard
 70
     0
  3

 62
     0
 51
90.0
 52
90.0
 71
     2
 49
0.5
 62
   256
  6
BYLAYER
 49
-0.5
 62
   256
  6
BYLAYER
  0
ACDBDICTIONARYWDFLT
  5
1F
102
{ACAD_REACTORS
330
19
102
}
100
AcDbDictionary
281
     1
  3
Normal
350
1D
100
AcDbDictionaryWithDefault
340
1D
  0
ACDBPLACEHOLDER
  5
1D
102
{ACAD_REACTORS
330
1F
102
}
  0
LAYOUT
  5
20
102
{ACAD_REACTORS
330
1E
102
}
100
AcDbPlotSettings
  1

  2

  4

  6

 40
0.0
 41
0.0
 42
0.0
 43
0.0
 44
0.0
 45
0.0
 46
0.0
 47
0.0
 48
0.0
 49
0.0
140
0.0
141
0.0
142
1.0
143
1.0
 70
  1024
 72
     0
 73
     0
 74
     0
  7

 75
     0
147
1.0
148
0.0
149
0.0
100
AcDbLayout
  1
Model
 70
     0
 71
     0
 10
0.0
 20
0.0
 11
0.0
 21
0.0
 12
0.0
 22
0.0
 32
0.0
 14
0.0
 24
0.0
 34
0.0
 15
0.0
 25
0.0
 35
0.0
146
0.0
 13
0.0
 23
0.0
 33
0.0
 16
0.0
 26
0.0
 36
0.0
 17
0.0
 27
0.0
 37
0.0
 76
     0
330
A
331
0
345
0
346
0
  0
LAYOUT
  5
21
102
{ACAD_REACTORS
330
1E
102
}
100
AcDbPlotSettings
  1

  2

  4

  6

 40
0.0
 41
0.0
 42
0.0
 43
0.0
 44
0.0
 45
0.0
 46
0.0
 47
0.0
 48
0.0
 49
0.0
140
0.0
141
0.0
142
1.0
143
1.0
 70
     0
 72
     0
 73
     0
 74
     0
  7

 75
     0
147
1.0
148
0.0
149
0.0
100
AcDbLayout
  1
Layout1
 70
     0
 71
     0
 10
0.0
 20
0.0
 11
0.0
 21
0.0
 12
0.0
 22
0.0
 32
0.0
 14
0.0
 24
0.0
 34
0.0
 15
0.0
 25
0.0
 35
0.0
146
0.0
 13
0.0
 23
0.0
 33
0.0
 16
0.0
 26
0.0
 36
0.0
 17
0.0
 27
0.0
 37
0.0
 76
     0
330
B
331
0
345
0
346
0
  0
DICTIONARY
  5
1E
102
{ACAD_REACTORS
330
19
102
}
100
AcDbDictionary
280
     0
281
     1
  3
Layout1
350
21
  3
Model
350
20
  0
DICTIONARY
  5
22
102
{ACAD_REACTORS
330
19
102
}
100
AcDbDictionary
280
     0
281
     1
  0
WIPEOUTVARIABLES
  5
23
100
AcDbWipeoutVariables
 70
     1
  0
ENDSEC
  0
EOF
