  0
SECTION
  2
HEADER
  9
$ACADVER
  1
AC1015
  9
$ACADMAINTVER
 70
     6
  9
$DWGCODEPAGE
  3
DOS850
  9
$INSBASE
 10
0.0
 20
0.0
 30
0.0
  9
$EXTMIN
 10
-4.89968
 20
-6.15498
 30
1.000000E+20
  9
$EXTMAX
 10
4.90488
 20
6.14877
 30
-1.000000E+20
  9
$LIMMIN
 10
0.0
 20
0.0
  9
$LIMMAX
 10
0.0
 20
0.0
  9
$ORTHOMODE
 70
     0
  9
$REGENMODE
 70
     1
  9
$FILLMODE
 70
     1
  9
$QTEXTMODE
 70
     0
  9
$MIRRTEXT
 70
     1
  9
$LTSCALE
 40
1.0
  9
$ATTMODE
 70
     1
  9
$TEXTSIZE
 40
0.2
  9
$TRACEWID
 40
0.05
  9
$TEXTSTYLE
  7
Standard
  9
$CLAYER
  8
0
  9
$CELTYPE
  6
Continuous
  9
$CECOLOR
 62
   256
  9
$CELTSCALE
 40
1.0
  9
$DISPSILH
 70
     0
  9
$DIMSCALE
 40
1.0
  9
$DIMASZ
 40
0.18
  9
$DIMEXO
 40
0.0625
  9
$DIMDLI
 40
0.38
  9
$DIMRND
 40
0.0
  9
$DIMDLE
 40
0.0
  9
$DIMEXE
 40
0.18
  9
$DIMTP
 40
0.0
  9
$DIMTM
 40
0.0
  9
$DIMTXT
 40
0.18
  9
$DIMCEN
 40
0.09
  9
$DIMTSZ
 40
0.0
  9
$DIMTOL
 70
     0
  9
$DIMLIM
 70
     0
  9
$DIMTIH
 70
     1
  9
$DIMTOH
 70
     1
  9
$DIMSE1
 70
     0
  9
$DIMSE2
 70
     0
  9
$DIMTAD
 70
     0
  9
$DIMZIN
 70
     0
  9
$DIMBLK
  1

  9
$DIMASO
 70
     1
  9
$DIMSHO
 70
     1
  9
$DIMPOST
  1

  9
$DIMAPOST
  1

  9
$DIMALT
 70
     0
  9
$DIMALTD
 70
     2
  9
$DIMALTF
 40
25.4
  9
$DIMLFAC
 40
1.0
  9
$DIMTOFL
 70
     0
  9
$DIMTVP
 40
0.0
  9
$DIMTIX
 70
     0
  9
$DIMSOXD
 70
     0
  9
$DIMSAH
 70
     0
  9
$DIMBLK1
  1

  9
$DIMBLK2
  1

  9
$DIMSTYLE
  2
Standard
  9
$DIMCLRD
 70
     0
  9
$DIMCLRE
 70
     0
  9
$DIMCLRT
 70
     0
  9
$DIMTFAC
 40
1.0
  9
$DIMGAP
 40
0.09
  9
$DIMJUST
 70
     0
  9
$DIMSD1
 70
     0
  9
$DIMSD2
 70
     0
  9
$DIMTOLJ
 70
     1
  9
$DIMTZIN
 70
     0
  9
$DIMALTZ
 70
     0
  9
$DIMALTTZ
 70
     0
  9
$DIMUPT
 70
     0
  9
$DIMDEC
 70
     4
  9
$DIMTDEC
 70
     4
  9
$DIMALTU
 70
     2
  9
$DIMALTTD
 70
     2
  9
$DIMTXSTY
  7
Standard
  9
$DIMAUNIT
 70
     0
  9
$DIMADEC
 70
     0
  9
$DIMALTRND
 40
0.0
  9
$DIMAZIN
 70
     0
  9
$DIMDSEP
 70
     0
  9
$DIMATFIT
 70
     3
  9
$DIMFRAC
 70
     0
  9
$DIMLDRBLK
  1

  9
$DIMLUNIT
 70
     2
  9
$DIMLWD
 70
     0
  9
$DIMLWE
 70
     0
  9
$DIMTMOVE
 70
     0
  9
$LUNITS
 70
     2
  9
$LUPREC
 70
     4
  9
$SKETCHINC
 40
0.1
  9
$FILLETRAD
 40
0.0
  9
$AUNITS
 70
     0
  9
$AUPREC
 70
     0
  9
$MENU
  1
acad
  9
$ELEVATION
 40
0.0
  9
$PELEVATION
 40
0.0
  9
$THICKNESS
 40
0.0
  9
$LIMCHECK
 70
     0
  9
$CHAMFERA
 40
0.0
  9
$CHAMFERB
 40
0.0
  9
$CHAMFERC
 40
0.0
  9
$CHAMFERD
 40
0.0
  9
$SKPOLY
 70
     0
  9
$TDCREATE
 40
0.000000000
  9
$TDUCREATE
 40
0.000000000
  9
$TDUPDATE
 40
0.000000000
  9
$TDUUPDATE
 40
0.000000000
  9
$TDINDWG
 40
0.0000000000
  9
$TDUSRTIMER
 40
0.0000000000
  9
$USRTIMER
 70
     1
  9
$ANGBASE
 50
0.0
  9
$ANGDIR
 70
     0
  9
$PDMODE
 70
     0
  9
$PDSIZE
 40
0.0
  9
$PLINEWID
 40
0.0
  9
$SPLFRAME
 70
     0
  9
$SPLINETYPE
 70
     6
  9
$SPLINESEGS
 70
     8
  9
$HANDSEED
  5
45
  9
$SURFTAB1
 70
     6
  9
$SURFTAB2
 70
     6
  9
$SURFTYPE
 70
     6
  9
$SURFU
 70
     6
  9
$SURFV
 70
     6
  9
$UCSBASE
  2

  9
$UCSNAME
  2

  9
$UCSORG
 10
0.0
 20
0.0
 30
0.0
  9
$UCSXDIR
 10
1.0
 20
0.0
 30
0.0
  9
$UCSYDIR
 10
0.0
 20
1.0
 30
0.0
  9
$UCSORTHOREF
  2

  9
$UCSORTHOVIEW
 70
     0
  9
$UCSORGTOP
 10
0.0
 20
0.0
 30
0.0
  9
$UCSORGBOTTOM
 10
0.0
 20
0.0
 30
0.0
  9
$UCSORGLEFT
 10
0.0
 20
0.0
 30
0.0
  9
$UCSORGRIGHT
 10
0.0
 20
0.0
 30
0.0
  9
$UCSORGFRONT
 10
0.0
 20
0.0
 30
0.0
  9
$UCSORGBACK
 10
0.0
 20
0.0
 30
0.0
  9
$PUCSBASE
  2

  9
$PUCSNAME
  2

  9
$PUCSORG
 10
0.0
 20
0.0
 30
0.0
  9
$PUCSXDIR
 10
1.0
 20
0.0
 30
0.0
  9
$PUCSYDIR
 10
0.0
 20
1.0
 30
0.0
  9
$PUCSORTHOREF
  2

  9
$PUCSORTHOVIEW
 70
     0
  9
$PUCSORGTOP
 10
0.0
 20
0.0
 30
0.0
  9
$PUCSORGBOTTOM
 10
0.0
 20
0.0
 30
0.0
  9
$PUCSORGLEFT
 10
0.0
 20
0.0
 30
0.0
  9
$PUCSORGRIGHT
 10
0.0
 20
0.0
 30
0.0
  9
$PUCSORGFRONT
 10
0.0
 20
0.0
 30
0.0
  9
$PUCSORGBACK
 10
0.0
 20
0.0
 30
0.0
  9
$USERI1
 70
     0
  9
$USERI2
 70
     0
  9
$USERI3
 70
     0
  9
$USERI4
 70
     0
  9
$USERI5
 70
     0
  9
$USERR1
 40
0.0
  9
$USERR2
 40
0.0
  9
$USERR3
 40
0.0
  9
$USERR4
 40
0.0
  9
$USERR5
 40
0.0
  9
$WORLDVIEW
 70
     1
  9
$SHADEDGE
 70
     3
  9
$SHADEDIF
 70
    70
  9
$TILEMODE
 70
     1
  9
$MAXACTVP
 70
    16
  9
$PINSBASE
 10
0.0
 20
0.0
 30
0.0
  9
$PLIMCHECK
 70
     0
  9
$PEXTMIN
 10
1.000000E+20
 20
1.000000E+20
 30
1.000000E+20
  9
$PEXTMAX
 10
-1.000000E+20
 20
-1.000000E+20
 30
-1.000000E+20
  9
$PLIMMIN
 10
0.0
 20
0.0
  9
$PLIMMAX
 10
12.0
 20
9.0
  9
$UNITMODE
 70
     0
  9
$VISRETAIN
 70
     0
  9
$PLINEGEN
 70
     1
  9
$PSLTSCALE
 70
     0
  9
$TREEDEPTH
 70
  3020
  9
$CMLSTYLE
  2
Standard
  9
$CMLJUST
 70
     0
  9
$CMLSCALE
 40
1.0
  9
$PROXYGRAPHICS
 70
     0
  9
$MEASUREMENT
 70
     0
  9
$CELWEIGHT
370
     0
  9
$ENDCAPS
280
     0
  9
$JOINSTYLE
280
     0
  9
$LWDISPLAY
290
     0
  9
$INSUNITS
 70
     5
  9
$HYPERLINKBASE
  1

  9
$XEDIT
290
     1
  9
$CEPSNTYPE
380
     0
  9
$PSTYLEMODE
290
     1
  9
$FINGERPRINTGUID
  2

  9
$VERSIONGUID
  2

  9
$EXTNAMES
290
     1
  9
$PSVPSCALE
 40
0.0
  0
ENDSEC
  0
SECTION
  2
CLASSES
  0
CLASS
  1
LWPOLYLINE
  2
AcDbPolyline
  3
AutoCAD 2000
 90
    32768
280
     0
281
     1
  0
CLASS
  1
IMAGE
  2
AcDbRasterImage
  3
ISM
 90
    32895
280
     0
281
     1
  0
CLASS
  1
OLE2FRAME
  2
AcDbOle2Frame
  3
AutoCAD 2000
 90
    32768
280
     0
281
     1
  0
CLASS
  1
HATCH
  2
AcDbHatch
  3
AutoCAD 2000
 90
    32768
280
     0
281
     1
  0
CLASS
  1
DICTIONARYVAR
  2
AcDbDictionaryVar
  3
AutoCAD 2000
 90
    32768
280
     0
281
     0
  0
CLASS
  1
RASTERVARIABLES
  2
AcDbRasterVariables
  3
ISM
 90
    32768
280
     0
281
     0
  0
CLASS
  1
IMAGEDEF
  2
AcDbRasterImageDef
  3
ISM
 90
    32768
280
     0
281
     0
  0
CLASS
  1
IMAGEDEF_REACTOR
  2
AcDbRasterImageDefReactor
  3
ISM
 90
    32769
280
     0
281
     0
  0
CLASS
  1
IDBUFFER
  2
AcDbIdBuffer
  3
AutoCAD 2000
 90
    32768
280
     0
281
     0
  0
CLASS
  1
SPATIAL_FILTER
  2
AcDbSpatialFilter
  3
AutoCAD 2000
 90
    32768
280
     0
281
     0
  0
CLASS
  1
XRECORD
  2
AcDbXrecord
  3
AutoCAD 2000
 90
    32768
280
     0
281
     0
  0
CLASS
  1
SORTENTSTABLE
  2
AcDbSortentsTable
  3
AutoCAD 2000
 90
    32768
280
     0
281
     0
  0
CLASS
  1
LAYER_INDEX
  2
AcDbLayerIndex
  3
AutoCAD 2000
 90
    32768
280
     0
281
     0
  0
CLASS
  1
SPATIAL_INDEX
  2
AcDbSpatialIndex
  3
AutoCAD 2000
 90
    32768
280
     0
281
     0
  0
CLASS
  1
OBJECT_PTR
  2
CAseDLPNTableRecord
  3
"ASE-LPNTableRecord"
 90
    32769
280
     0
281
     0
  0
CLASS
  1
LAYOUT
  2
AcDbLayout
  3
AutoCAD 2000
 90
        0
280
     0
281
     0
  0
CLASS
  1
PLOTSETTINGS
  2
AcDbPlotSettings
  3
AutoCAD 2000
 90
    32768
280
     0
281
     0
  0
CLASS
  1
ACDBDICTIONARYWDFLT
  2
AcDbDictionaryWithDefault
  3
AutoCAD 2000
 90
        0
280
     0
281
     0
  0
CLASS
  1
ACDBPLACEHOLDER
  2
AcDbPlaceHolder
  3
AutoCAD 2000
 90
        0
280
     0
281
     0
  0
CLASS
  1
VBA_PROJECT
  2
AcDbVbaProject
  3
acadvba
 90
    32768
280
     0
281
     0
  0
CLASS
  1
WIPEOUT
  2
AcDbWipeout
  3
WipeOut|AutoCAD Express Tool|expresstools@autodesk.com
 90
    32895
280
     0
281
     1
  0
CLASS
  1
WIPEOUTVARIABLES
  2
AcDbWipeoutVariables
  3
WipeOut|AutoCAD Express Tool|expresstools@autodesk.com
 90
        0
280
     0
281
     0
  0
CLASS
  1
RTEXT
  2
RText
  3
RText|AutoCAD Express Tool|expresstools@autodesk.com
 90
    32768
280
     0
281
     1
  0
CLASS
  1
ARCALIGNEDTEXT
  2
AcDbArcAlignedText
  3
ATEXT|AutoCAD Express Tool|expresstools@autodesk.com
 90
    32768
280
     0
281
     1
  0
ENDSEC
  0
SECTION
  2
TABLES
  0
TABLE
  2
VPORT
  5
7
100
AcDbSymbolTable
 70
     1
  0
VPORT
  5
15
100
AcDbSymbolTableRecord
100
AcDbViewportTableRecord
  2
*ACTIVE
 70
     0
 10
0.0
 20
0.0
 11
1.0
 21
1.0
 12
6.591288
 22
4.579184
 13
0.0
 23
0.0
 14
1.0
 24
1.0
 15
0.0
 25
0.0
 16
0.0
 26
0.0
 36
1.0
 17
0.0
 27
0.0
 37
0.0
 40
9.158369
 41
0.688564
 42
50.0
 43
0.0
 44
0.0
 50
0.0
 51
0.0
 71
     0
 72
   100
 73
     1
 74
     1
 75
     0
 76
     0
 77
     0
 78
     0
281
     0
 65
     0
110
0.0
120
0.0
130
0.0
111
1.0
121
0.0
131
0.0
112
0.0
122
1.0
132
0.0
345
0
346
0
 79
     0
146
0.0
  0
ENDTAB
  0
TABLE
  2
LTYPE
  5
4
100
AcDbSymbolTable
 70
     3
  0
LTYPE
  5
11
100
AcDbSymbolTableRecord
100
AcDbLinetypeTableRecord
  2
ByBlock
 70
    64
  3

 72
    65
 73
     0
 40
0.0
  0
LTYPE
  5
12
100
AcDbSymbolTableRecord
100
AcDbLinetypeTableRecord
  2
ByLayer
 70
    64
  3

 72
    65
 73
     0
 40
0.0
  0
LTYPE
  5
13
100
AcDbSymbolTableRecord
100
AcDbLinetypeTableRecord
  2
Continuous
 70
    64
  3
Solid line
 72
    65
 73
     0
 40
0.0
  0
ENDTAB
  0
TABLE
  2
LAYER
  5
2
100
AcDbSymbolTable
 70
     2
  0
LAYER
  5
14
100
AcDbSymbolTableRecord
100
AcDbLayerTableRecord
  2
0
 70
     0
 62
     7
  6
Continuous
290
     1
370
    -3
390
1D
  0
LAYER
  5
24
100
AcDbSymbolTableRecord
100
AcDbLayerTableRecord
  2
Ebene 1
 70
     0
 62
     7
  6
Continuous
290
     1
370
    -3
390
1F
  0
ENDTAB
  0
TABLE
  2
STYLE
  5
3
100
AcDbSymbolTable
 70
     1
  0
STYLE
  5
17
100
AcDbSymbolTableRecord
100
AcDbTextStyleTableRecord
  2
Standard
 70
     0
 40
0.0
 41
1.0
 50
0.0
 71
     0
 42
0.0
  3
txt
  4

  0
ENDTAB
  0
TABLE
  2
VIEW
  5
5
100
AcDbSymbolTable
 70
     0
  0
ENDTAB
  0
TABLE
  2
UCS
  5
6
100
AcDbSymbolTable
 70
     0
  0
ENDTAB
  0
TABLE
  2
APPID
  5
8
100
AcDbSymbolTable
 70
     1
  0
APPID
  5
16
100
AcDbSymbolTableRecord
100
AcDbRegAppTableRecord
  2
ACAD
 70
     0
  0
ENDTAB
  0
TABLE
  2
DIMSTYLE
  5
9
100
AcDbSymbolTable
 70
     1
100
AcDbDimStyleTable
 71
     0
  0
DIMSTYLE
105
18
100
AcDbSymbolTableRecord
100
AcDbDimStyleTableRecord
  2
Standard
 70
     0
  3

  4

 40
1.0
 41
0.18
 42
0.0625
 43
0.38
 44
0.18
 45
0.0
 46
0.0
 47
0.0
 48
0.0
 71
     0
 72
     0
 73
     1
 74
     1
 75
     0
 76
     0
 77
     0
 78
     0
 79
     0
140
0.18
141
0.09
142
0.0
143
25.4
144
1.0
145
0.0
146
1.0
147
0.09
148
0.0
170
     0
171
     2
172
     0
173
     0
174
     0
175
     0
176
     0
177
     0
178
     0
179
     0
271
     4
272
     4
273
     2
274
     2
275
     0
276
     0
277
     2
278
    46
279
     0
280
     0
281
     0
282
     0
283
     1
284
     0
285
     0
286
     0
288
     0
340
17
341
0
342
0
343
0
344
0
371
    -2
372
    -2
  0
ENDTAB
  0
TABLE
  2
BLOCK_RECORD
  5
1
100
AcDbSymbolTable
 70
     0
  0
BLOCK_RECORD
  5
A
100
AcDbSymbolTableRecord
100
AcDbBlockTableRecord
  2
*MODEL_SPACE
340
20
  0
BLOCK_RECORD
  5
B
100
AcDbSymbolTableRecord
100
AcDbBlockTableRecord
  2
*PAPER_SPACE
340
21
  0
ENDTAB
  0
ENDSEC
  0
SECTION
  2
BLOCKS
  0
BLOCK
  5
D
100
AcDbEntity
  8
0
100
AcDbBlockBegin
  2
*MODEL_SPACE
 70
     0
 10
0.0
 20
0.0
 30
0.0
  3
*MODEL_SPACE
  1

  0
ENDBLK
  5
E
100
AcDbEntity
  8
0
100
AcDbBlockEnd
  0
BLOCK
  5
F
100
AcDbEntity
 67
     1
  8
0
100
AcDbBlockBegin
  2
*PAPER_SPACE
 70
     0
 10
0.0
 20
0.0
 30
0.0
  3
*PAPER_SPACE
  1

  0
ENDBLK
  5
10
100
AcDbEntity
 67
     1
  8
0
100
AcDbBlockEnd
  0
ENDSEC
  0
SECTION
  2
ENTITIES
  0
SPLINE
  5
25
100
AcDbEntity
  8
Ebene 1
100
AcDbSpline
210
0.0
220
0.0
230
1.0
 70
     1
 71
     3
 72
   136
 73
   132
 74
     0
 42
0.0000000001
 43
0.0000000001
 40
0.0
 40
0.0
 40
0.0
 40
0.0
 40
0.0303030303030303
 40
0.0303030303030303
 40
0.0303030303030303
 40
0.0303030303030303
 40
0.0606060606060606
 40
0.0606060606060606
 40
0.0606060606060606
 40
0.0606060606060606
 40
0.0909090909090909
 40
0.0909090909090909
 40
0.0909090909090909
 40
0.0909090909090909
 40
0.1212121212121212
 40
0.1212121212121212
 40
0.1212121212121212
 40
0.1212121212121212
 40
0.1515151515151515
 40
0.1515151515151515
 40
0.1515151515151515
 40
0.1515151515151515
 40
0.1818181818181818
 40
0.1818181818181818
 40
0.1818181818181818
 40
0.1818181818181818
 40
0.2121212121212121
 40
0.2121212121212121
 40
0.2121212121212121
 40
0.2121212121212121
 40
0.2424242424242424
 40
0.2424242424242424
 40
0.2424242424242424
 40
0.2424242424242424
 40
0.2727272727272727
 40
0.2727272727272727
 40
0.2727272727272727
 40
0.2727272727272727
 40
0.303030303030303
 40
0.303030303030303
 40
0.303030303030303
 40
0.303030303030303
 40
0.3333333333333333
 40
0.3333333333333333
 40
0.3333333333333333
 40
0.3333333333333333
 40
0.3636363636363635
 40
0.3636363636363635
 40
0.3636363636363635
 40
0.3636363636363635
 40
0.3939393939393938
 40
0.3939393939393938
 40
0.3939393939393938
 40
0.3939393939393938
 40
0.4242424242424241
 40
0.4242424242424241
 40
0.4242424242424241
 40
0.4242424242424241
 40
0.4545454545454544
 40
0.4545454545454544
 40
0.4545454545454544
 40
0.4545454545454544
 40
0.4848484848484846
 40
0.4848484848484846
 40
0.4848484848484846
 40
0.4848484848484846
 40
0.5151515151515149
 40
0.5151515151515149
 40
0.5151515151515149
 40
0.5151515151515149
 40
0.5454545454545452
 40
0.5454545454545452
 40
0.5454545454545452
 40
0.5454545454545452
 40
0.5757575757575755
 40
0.5757575757575755
 40
0.5757575757575755
 40
0.5757575757575755
 40
0.6060606060606057
 40
0.6060606060606057
 40
0.6060606060606057
 40
0.6060606060606057
 40
0.636363636363636
 40
0.636363636363636
 40
0.636363636363636
 40
0.636363636363636
 40
0.6666666666666663
 40
0.6666666666666663
 40
0.6666666666666663
 40
0.6666666666666663
 40
0.6969696969696966
 40
0.6969696969696966
 40
0.6969696969696966
 40
0.6969696969696966
 40
0.7272727272727269
 40
0.7272727272727269
 40
0.7272727272727269
 40
0.7272727272727269
 40
0.7575757575757571
 40
0.7575757575757571
 40
0.7575757575757571
 40
0.7575757575757571
 40
0.7878787878787874
 40
0.7878787878787874
 40
0.7878787878787874
 40
0.7878787878787874
 40
0.8181818181818177
 40
0.8181818181818177
 40
0.8181818181818177
 40
0.8181818181818177
 40
0.848484848484848
 40
0.848484848484848
 40
0.848484848484848
 40
0.848484848484848
 40
0.8787878787878782
 40
0.8787878787878782
 40
0.8787878787878782
 40
0.8787878787878782
 40
0.9090909090909085
 40
0.9090909090909085
 40
0.9090909090909085
 40
0.9090909090909085
 40
0.9393939393939388
 40
0.9393939393939388
 40
0.9393939393939388
 40
0.9393939393939388
 40
0.9696969696969691
 40
0.9696969696969691
 40
0.9696969696969691
 40
0.9696969696969691
 40
1.0
 40
1.0
 40
1.0
 40
1.0
 10
3.9904800000000002
 20
-1.6337800000000002
 30
0.0
 10
3.9676200000000001
 20
-1.8369800000000001
 30
0.0
 10
4.0768400000000007
 20
-2.18242
 30
0.0
 10
3.9346000000000005
 20
-2.3094200000000003
 30
0.0
 10
3.9346000000000005
 20
-2.3094200000000003
 30
0.0
 10
3.6704400000000001
 20
-2.0706600000000002
 30
0.0
 10
3.6983800000000002
 20
-1.5931400000000002
 30
0.0
 10
3.3808800000000003
 20
-1.4255000000000002
 30
0.0
 10
3.3808800000000003
 20
-1.4255000000000002
 30
0.0
 10
3.1548200000000004
 20
-1.7760200000000002
 30
0.0
 10
3.01004
 20
-1.7582400000000002
 30
0.0
 10
2.9033600000000002
 20
-1.2604000000000002
 30
0.0
 10
2.9033600000000002
 20
-1.2604000000000002
 30
0.0
 10
2.9033600000000002
 20
-1.2604000000000002
 30
0.0
 10
2.8297000000000003
 20
-1.6668000000000001
 30
0.0
 10
2.8297000000000003
 20
-1.6668000000000001
 30
0.0
 10
2.8297000000000003
 20
-1.6668000000000001
 30
0.0
 10
2.63158
 20
-2.2535400000000001
 30
0.0
 10
2.6163400000000001
 20
-0.8946400000000001
 30
0.0
 10
2.1743800000000002
 20
-1.00386
 30
0.0
 10
2.1743800000000002
 20
-1.00386
 30
0.0
 10
2.0880200000000002
 20
-1.1334000000000002
 30
0.0
 10
2.05246
 20
-1.2604000000000002
 30
0.0
 10
2.09056
 20
-1.4077200000000001
 30
0.0
 10
2.09056
 20
-1.4077200000000001
 30
0.0
 10
2.0346800000000003
 20
-1.5194800000000002
 30
0.0
 10
1.9915000000000003
 20
-1.3162800000000001
 30
0.0
 10
1.9356200000000001
 20
-1.3162800000000001
 30
0.0
 10
1.9356200000000001
 20
-1.3162800000000001
 30
0.0
 10
1.8111600000000001
 20
-1.9970000000000001
 30
0.0
 10
1.8441800000000002
 20
-2.7336
 30
0.0
 10
2.1007200000000004
 20
-3.3762200000000004
 30
0.0
 10
2.1007200000000004
 20
-3.3762200000000004
 30
0.0
 10
2.1743800000000002
 20
-3.3406600000000002
 30
0.0
 10
2.1947000000000001
 20
-2.9495000000000005
 30
0.0
 10
2.2937600000000002
 20
-3.1501600000000001
 30
0.0
 10
2.2937600000000002
 20
-3.1501600000000001
 30
0.0
 10
2.3267800000000003
 20
-3.3279600000000005
 30
0.0
 10
2.3115400000000004
 20
-3.5845000000000002
 30
0.0
 10
2.37758
 20
-3.7038800000000003
 30
0.0
 10
2.37758
 20
-3.7038800000000003
 30
0.0
 10
2.4080600000000003
 20
-3.7572200000000002
 30
0.0
 10
2.4969600000000001
 20
-3.5362400000000003
 30
0.0
 10
2.5350600000000001
 20
-3.6556200000000003
 30
0.0
 10
2.5350600000000001
 20
-3.6556200000000003
 30
0.0
 10
2.42584
 20
-4.4100000000000001
 30
0.0
 10
2.7738200000000002
 20
-5.8781200000000009
 30
0.0
 10
1.8010000000000002
 20
-6.1168800000000001
 30
0.0
 10
1.8010000000000002
 20
-6.1168800000000001
 30
0.0
 10
1.8010000000000002
 20
-6.1168800000000001
 30
0.0
 10
1.56732
 20
-6.1549800000000001
 30
0.0
 10
1.56732
 20
-6.1549800000000001
 30
0.0
 10
1.56732
 20
-6.1549800000000001
 30
0.0
 10
0.12206
 20
-4.5725600000000002
 30
0.0
 10
-0.9802900000000001
 20
-2.4008600000000002
 30
0.0
 10
-3.0834100000000002
 20
-1.5931400000000002
 30
0.0
 10
-3.0834100000000002
 20
-1.5931400000000002
 30
0.0
 10
-3.2408900000000003
 20
-1.4458200000000001
 30
0.0
 10
-3.4212300000000004
 20
-1.3162800000000001
 30
0.0
 10
-3.5431500000000002
 20
-1.1511800000000001
 30
0.0
 10
-3.5431500000000002
 20
-1.1511800000000001
 30
0.0
 10
-3.5964900000000002
 20
-0.6914400000000001
 30
0.0
 10
-3.3882100000000004
 20
-0.24948
 30
0.0
 10
-3.4059900000000001
 20
0.20771
 30
0.0
 10
-3.4059900000000001
 20
0.20771
 30
0.0
 10
-4.2010100000000001
 20
0.06039
 30
0.0
 10
-5.2297100000000007
 20
1.2541900000000001
 30
0.0
 10
-4.5413700000000006
 20
1.9552300000000002
 30
0.0
 10
-4.5413700000000006
 20
1.9552300000000002
 30
0.0
 10
-4.8791900000000004
 20
2.3768700000000003
 30
0.0
 10
-4.9452300000000005
 20
2.9102700000000001
 30
0.0
 10
-4.8741100000000008
 20
3.4436700000000005
 30
0.0
 10
-4.8741100000000008
 20
3.4436700000000005
 30
0.0
 10
-4.7090100000000001
 20
4.0507300000000006
 30
0.0
 10
-4.2924500000000005
 20
4.58413
 30
0.0
 10
-3.7006300000000003
 20
4.8228900000000001
 30
0.0
 10
-3.7006300000000003
 20
4.8228900000000001
 30
0.0
 10
-3.4694900000000004
 20
5.3766100000000003
 30
0.0
 10
-3.0732500000000003
 20
5.9074700000000009
 30
0.0
 10
-2.51953
 20
6.1487700000000007
 30
0.0
 10
-2.51953
 20
6.1487700000000007
 30
0.0
 10
-2.23251
 20
5.9277900000000008
 30
0.0
 10
-2.14107
 20
5.5417100000000001
 30
0.0
 10
-1.9810500000000002
 20
5.2115100000000005
 30
0.0
 10
-1.9810500000000002
 20
5.2115100000000005
 30
0.0
 10
-1.2419100000000001
 20
5.3207300000000002
 30
0.0
 10
-0.45705
 20
5.2470700000000008
 30
0.0
 10
0.21858
 20
4.9905300000000006
 30
0.0
 10
0.21858
 20
4.9905300000000006
 30
0.0
 10
0.42686
 20
5.3766100000000003
 30
0.0
 10
0.7951600000000001
 20
5.8541300000000005
 30
0.0
 10
1.2625200000000001
 20
5.8719100000000006
 30
0.0
 10
1.2625200000000001
 20
5.8719100000000006
 30
0.0
 10
1.6740000000000002
 20
5.4121700000000006
 30
0.0
 10
1.6613000000000002
 20
4.4190300000000002
 30
0.0
 10
2.3674200000000001
 20
4.4926900000000005
 30
0.0
 10
2.3674200000000001
 20
4.4926900000000005
 30
0.0
 10
2.4791800000000004
 20
3.3522300000000005
 30
0.0
 10
3.0329000000000002
 20
2.2676500000000002
 30
0.0
 10
3.7085400000000002
 20
1.3659500000000002
 30
0.0
 10
3.7085400000000002
 20
1.3659500000000002
 30
0.0
 10
4.0539800000000001
 20
0.70555
 30
0.0
 10
4.3562400000000006
 20
-0.0412
 30
0.0
 10
4.6102400000000001
 20
-0.7879600000000001
 30
0.0
 10
4.6102400000000001
 20
-0.7879600000000001
 30
0.0
 10
4.6585000000000001
 20
-0.9352800000000001
 30
0.0
 10
4.7524800000000003
 20
-1.0165600000000001
 30
0.0
 10
4.7982000000000005
 20
-1.16388
 30
0.0
 10
4.7982000000000005
 20
-1.16388
 30
0.0
 10
4.85154
 20
-1.3289800000000001
 30
0.0
 10
4.8566200000000004
 20
-1.5601200000000002
 30
0.0
 10
4.9048800000000004
 20
-1.7226800000000002
 30
0.0
 10
4.9048800000000004
 20
-1.7226800000000002
 30
0.0
 10
4.8134400000000008
 20
-1.7226800000000002
 30
0.0
 10
4.80328
 20
-1.5728200000000001
 30
0.0
 10
4.7296200000000006
 20
-1.5372600000000001
 30
0.0
 10
4.7296200000000006
 20
-1.5372600000000001
 30
0.0
 10
4.6204000000000001
 20
-1.3366
 30
0.0
 10
4.6102400000000001
 20
-1.5194800000000002
 30
0.0
 10
4.7016800000000005
 20
-1.6287
 30
0.0
 10
4.7016800000000005
 20
-1.6287
 30
0.0
 10
4.88964
 20
-2.10622
 30
0.0
 10
4.8286800000000003
 20
-2.4008600000000002
 30
0.0
 10
4.4730800000000004
 20
-1.8877800000000002
 30
0.0
 10
4.4730800000000004
 20
-1.8877800000000002
 30
0.0
 10
4.4222800000000007
 20
-1.8319000000000001
 30
0.0
 10
4.4781600000000008
 20
-2.01478
 30
0.0
 10
4.4908600000000005
 20
-2.0706600000000002
 30
0.0
 10
4.4908600000000005
 20
-2.0706600000000002
 30
0.0
 10
4.6432600000000006
 20
-3.1095200000000003
 30
0.0
 10
4.0692200000000005
 20
-1.6210800000000001
 30
0.0
 10
3.9904800000000002
 20
-1.6337800000000002
 30
0.0
  0
SPLINE
  5
26
100
AcDbEntity
  8
Ebene 1
100
AcDbSpline
210
0.0
220
0.0
230
1.0
 70
     1
 71
     3
 72
    24
 73
    20
 74
     0
 42
0.0000000001
 43
0.0000000001
 40
0.0
 40
0.0
 40
0.0
 40
0.0
 40
0.2
 40
0.2
 40
0.2
 40
0.2
 40
0.4
 40
0.4
 40
0.4
 40
0.4
 40
0.6000000000000001
 40
0.6000000000000001
 40
0.6000000000000001
 40
0.6000000000000001
 40
0.8
 40
0.8
 40
0.8
 40
0.8
 40
1.0
 40
1.0
 40
1.0
 40
1.0
 10
-2.3341100000000004
 20
0.59379
 30
0.0
 10
-2.3341100000000004
 20
0.59379
 30
0.0
 10
-2.5500100000000003
 20
0.53791
 30
0.0
 10
-2.5500100000000003
 20
0.53791
 30
0.0
 10
-2.5500100000000003
 20
0.53791
 30
0.0
 10
-2.6439900000000001
 20
0.09595
 30
0.0
 10
-2.5957300000000001
 20
-0.52634
 30
0.0
 10
-2.2071100000000001
 20
-0.78288
 30
0.0
 10
-2.2071100000000001
 20
-0.78288
 30
0.0
 10
-2.0013700000000001
 20
-0.45268
 30
0.0
 10
-1.67117
 20
-0.0285
 30
0.0
 10
-1.9683500000000003
 20
0.33471
 30
0.0
 10
-1.9683500000000003
 20
0.33471
 30
0.0
 10
-1.9683500000000003
 20
0.33471
 30
0.0
 10
-1.9531100000000001
 20
0.57601
 30
0.0
 10
-1.9531100000000001
 20
0.57601
 30
0.0
 10
-1.9531100000000001
 20
0.57601
 30
0.0
 10
-2.0775700000000001
 20
0.59379
 30
0.0
 10
-2.2045700000000004
 20
0.59379
 30
0.0
 10
-2.3341100000000004
 20
0.59379
 30
0.0
  0
SPLINE
  5
27
100
AcDbEntity
  8
Ebene 1
 62
     7
100
AcDbSpline
210
0.0
220
0.0
230
1.0
 70
     1
 71
     3
 72
   276
 73
   272
 74
     0
 42
0.0000000001
 43
0.0000000001
 40
0.0
 40
0.0
 40
0.0
 40
0.0
 40
0.0147058823529412
 40
0.0147058823529412
 40
0.0147058823529412
 40
0.0147058823529412
 40
0.0294117647058824
 40
0.0294117647058824
 40
0.0294117647058824
 40
0.0294117647058824
 40
0.0441176470588235
 40
0.0441176470588235
 40
0.0441176470588235
 40
0.0441176470588235
 40
0.0588235294117647
 40
0.0588235294117647
 40
0.0588235294117647
 40
0.0588235294117647
 40
0.0735294117647059
 40
0.0735294117647059
 40
0.0735294117647059
 40
0.0735294117647059
 40
0.0882352941176471
 40
0.0882352941176471
 40
0.0882352941176471
 40
0.0882352941176471
 40
0.1029411764705882
 40
0.1029411764705882
 40
0.1029411764705882
 40
0.1029411764705882
 40
0.1176470588235294
 40
0.1176470588235294
 40
0.1176470588235294
 40
0.1176470588235294
 40
0.1323529411764706
 40
0.1323529411764706
 40
0.1323529411764706
 40
0.1323529411764706
 40
0.1470588235294118
 40
0.1470588235294118
 40
0.1470588235294118
 40
0.1470588235294118
 40
0.161764705882353
 40
0.161764705882353
 40
0.161764705882353
 40
0.161764705882353
 40
0.1764705882352941
 40
0.1764705882352941
 40
0.1764705882352941
 40
0.1764705882352941
 40
0.1911764705882353
 40
0.1911764705882353
 40
0.1911764705882353
 40
0.1911764705882353
 40
0.2058823529411765
 40
0.2058823529411765
 40
0.2058823529411765
 40
0.2058823529411765
 40
0.2205882352941177
 40
0.2205882352941177
 40
0.2205882352941177
 40
0.2205882352941177
 40
0.2352941176470589
 40
0.2352941176470589
 40
0.2352941176470589
 40
0.2352941176470589
 40
0.25
 40
0.25
 40
0.25
 40
0.25
 40
0.2647058823529412
 40
0.2647058823529412
 40
0.2647058823529412
 40
0.2647058823529412
 40
0.2794117647058824
 40
0.2794117647058824
 40
0.2794117647058824
 40
0.2794117647058824
 40
0.2941176470588235
 40
0.2941176470588235
 40
0.2941176470588235
 40
0.2941176470588235
 40
0.3088235294117647
 40
0.3088235294117647
 40
0.3088235294117647
 40
0.3088235294117647
 40
0.3235294117647059
 40
0.3235294117647059
 40
0.3235294117647059
 40
0.3235294117647059
 40
0.3382352941176471
 40
0.3382352941176471
 40
0.3382352941176471
 40
0.3382352941176471
 40
0.3529411764705883
 40
0.3529411764705883
 40
0.3529411764705883
 40
0.3529411764705883
 40
0.3676470588235294
 40
0.3676470588235294
 40
0.3676470588235294
 40
0.3676470588235294
 40
0.3823529411764706
 40
0.3823529411764706
 40
0.3823529411764706
 40
0.3823529411764706
 40
0.3970588235294118
 40
0.3970588235294118
 40
0.3970588235294118
 40
0.3970588235294118
 40
0.411764705882353
 40
0.411764705882353
 40
0.411764705882353
 40
0.411764705882353
 40
0.4264705882352942
 40
0.4264705882352942
 40
0.4264705882352942
 40
0.4264705882352942
 40
0.4411764705882353
 40
0.4411764705882353
 40
0.4411764705882353
 40
0.4411764705882353
 40
0.4558823529411765
 40
0.4558823529411765
 40
0.4558823529411765
 40
0.4558823529411765
 40
0.4705882352941177
 40
0.4705882352941177
 40
0.4705882352941177
 40
0.4705882352941177
 40
0.4852941176470589
 40
0.4852941176470589
 40
0.4852941176470589
 40
0.4852941176470589
 40
0.5
 40
0.5
 40
0.5
 40
0.5
 40
0.5147058823529411
 40
0.5147058823529411
 40
0.5147058823529411
 40
0.5147058823529411
 40
0.5294117647058823
 40
0.5294117647058823
 40
0.5294117647058823
 40
0.5294117647058823
 40
0.5441176470588234
 40
0.5441176470588234
 40
0.5441176470588234
 40
0.5441176470588234
 40
0.5588235294117645
 40
0.5588235294117645
 40
0.5588235294117645
 40
0.5588235294117645
 40
0.5735294117647056
 40
0.5735294117647056
 40
0.5735294117647056
 40
0.5735294117647056
 40
0.5882352941176468
 40
0.5882352941176468
 40
0.5882352941176468
 40
0.5882352941176468
 40
0.6029411764705879
 40
0.6029411764705879
 40
0.6029411764705879
 40
0.6029411764705879
 40
0.617647058823529
 40
0.617647058823529
 40
0.617647058823529
 40
0.617647058823529
 40
0.6323529411764701
 40
0.6323529411764701
 40
0.6323529411764701
 40
0.6323529411764701
 40
0.6470588235294112
 40
0.6470588235294112
 40
0.6470588235294112
 40
0.6470588235294112
 40
0.6617647058823524
 40
0.6617647058823524
 40
0.6617647058823524
 40
0.6617647058823524
 40
0.6764705882352935
 40
0.6764705882352935
 40
0.6764705882352935
 40
0.6764705882352935
 40
0.6911764705882346
 40
0.6911764705882346
 40
0.6911764705882346
 40
0.6911764705882346
 40
0.7058823529411757
 40
0.7058823529411757
 40
0.7058823529411757
 40
0.7058823529411757
 40
0.7205882352941169
 40
0.7205882352941169
 40
0.7205882352941169
 40
0.7205882352941169
 40
0.735294117647058
 40
0.735294117647058
 40
0.735294117647058
 40
0.735294117647058
 40
0.7499999999999991
 40
0.7499999999999991
 40
0.7499999999999991
 40
0.7499999999999991
 40
0.7647058823529402
 40
0.7647058823529402
 40
0.7647058823529402
 40
0.7647058823529402
 40
0.7794117647058814
 40
0.7794117647058814
 40
0.7794117647058814
 40
0.7794117647058814
 40
0.7941176470588225
 40
0.7941176470588225
 40
0.7941176470588225
 40
0.7941176470588225
 40
0.8088235294117636
 40
0.8088235294117636
 40
0.8088235294117636
 40
0.8088235294117636
 40
0.8235294117647047
 40
0.8235294117647047
 40
0.8235294117647047
 40
0.8235294117647047
 40
0.8382352941176459
 40
0.8382352941176459
 40
0.8382352941176459
 40
0.8382352941176459
 40
0.852941176470587
 40
0.852941176470587
 40
0.852941176470587
 40
0.852941176470587
 40
0.8676470588235281
 40
0.8676470588235281
 40
0.8676470588235281
 40
0.8676470588235281
 40
0.8823529411764692
 40
0.8823529411764692
 40
0.8823529411764692
 40
0.8823529411764692
 40
0.8970588235294104
 40
0.8970588235294104
 40
0.8970588235294104
 40
0.8970588235294104
 40
0.9117647058823515
 40
0.9117647058823515
 40
0.9117647058823515
 40
0.9117647058823515
 40
0.9264705882352926
 40
0.9264705882352926
 40
0.9264705882352926
 40
0.9264705882352926
 40
0.9411764705882337
 40
0.9411764705882337
 40
0.9411764705882337
 40
0.9411764705882337
 40
0.9558823529411749
 40
0.9558823529411749
 40
0.9558823529411749
 40
0.9558823529411749
 40
0.970588235294116
 40
0.970588235294116
 40
0.970588235294116
 40
0.970588235294116
 40
0.9852941176470571
 40
0.9852941176470571
 40
0.9852941176470571
 40
0.9852941176470571
 40
1.0
 40
1.0
 40
1.0
 40
1.0
 10
3.6958400000000005
 20
-0.5187200000000001
 30
0.0
 10
3.2437200000000002
 20
-0.16058
 30
0.0
 10
2.0194400000000003
 20
0.7817500000000001
 30
0.0
 10
2.0245200000000003
 20
1.5335900000000002
 30
0.0
 10
2.0245200000000003
 20
1.5335900000000002
 30
0.0
 10
2.0245200000000003
 20
1.6047100000000001
 30
0.0
 10
2.0727800000000003
 20
1.8536300000000001
 30
0.0
 10
1.9991200000000002
 20
1.7698100000000001
 30
0.0
 10
1.9991200000000002
 20
1.7698100000000001
 30
0.0
 10
1.9635600000000002
 20
1.07131
 30
0.0
 10
0.9602600000000001
 20
2.5241900000000004
 30
0.0
 10
1.2295
 20
1.9907900000000001
 30
0.0
 10
1.2295
 20
1.9907900000000001
 30
0.0
 10
2.1439000000000004
 20
0.72333
 30
0.0
 10
2.7001600000000003
 20
-0.01072
 30
0.0
 10
2.7712800000000004
 20
-0.8565400000000001
 30
0.0
 10
2.7712800000000004
 20
-0.8565400000000001
 30
0.0
 10
2.6341200000000002
 20
-0.8387600000000001
 30
0.0
 10
2.6493600000000002
 20
-0.82352
 30
0.0
 10
2.4664800000000002
 20
-0.6254000000000001
 30
0.0
 10
2.4664800000000002
 20
-0.6254000000000001
 30
0.0
 10
2.3623400000000001
 20
-1.2324600000000001
 30
0.0
 10
2.0143600000000004
 20
-0.3968
 30
0.0
 10
2.0753200000000001
 20
-0.08438
 30
0.0
 10
2.0753200000000001
 20
-0.08438
 30
0.0
 10
2.0600800000000001
 20
0.4642500000000001
 30
0.0
 10
1.8695800000000002
 20
-0.9835400000000001
 30
0.0
 10
1.7832200000000002
 20
-0.17328
 30
0.0
 10
1.7832200000000002
 20
-0.17328
 30
0.0
 10
1.6435200000000001
 20
-0.74224
 30
0.0
 10
1.4708000000000001
 20
-0.08438
 30
0.0
 10
1.5419200000000002
 20
0.22549
 30
0.0
 10
1.5419200000000002
 20
0.22549
 30
0.0
 10
1.4555600000000002
 20
0.3372500000000001
 30
0.0
 10
1.4276200000000001
 20
0.24581
 30
0.0
 10
1.4098400000000002
 20
0.01213
 30
0.0
 10
1.4098400000000002
 20
0.01213
 30
0.0
 10
1.39968
 20
-0.1301
 30
0.0
 10
1.3412600000000001
 20
-0.40188
 30
0.0
 10
1.3006200000000001
 20
-0.61778
 30
0.0
 10
1.3006200000000001
 20
-0.61778
 30
0.0
 10
0.8535800000000001
 20
-0.4882400000000001
 30
0.0
 10
0.63768
 20
-0.26472
 30
0.0
 10
0.6503800000000001
 20
0.05531
 30
0.0
 10
0.6503800000000001
 20
0.05531
 30
0.0
 10
0.5691000000000001
 20
0.13913
 30
0.0
 10
0.57418
 20
-0.12248
 30
0.0
 10
0.531
 20
-0.17328
 30
0.0
 10
0.531
 20
-0.17328
 30
0.0
 10
0.14746
 20
-0.63048
 30
0.0
 10
-0.4392700000000001
 20
0.7741300000000001
 30
0.0
 10
0.5868800000000001
 20
0.26105
 30
0.0
 10
0.5868800000000001
 20
0.26105
 30
0.0
 10
0.5056000000000001
 20
0.5429900000000001
 30
0.0
 10
0.00014
 20
0.7995300000000001
 30
0.0
 10
-0.3427500000000001
 20
0.6674500000000001
 30
0.0
 10
-0.3427500000000001
 20
0.6674500000000001
 30
0.0
 10
0.63768
 20
0.37027
 30
0.0
 10
-1.33589
 20
0.4947300000000001
 30
0.0
 10
-1.21397
 20
0.26105
 30
0.0
 10
-1.21397
 20
0.26105
 30
0.0
 10
-0.8177300000000001
 20
0.30931
 30
0.0
 10
-0.47229
 20
0.38805
 30
0.0
 10
-0.16495
 20
0.24581
 30
0.0
 10
-0.16495
 20
0.24581
 30
0.0
 10
-0.16495
 20
0.24581
 30
0.0
 10
-1.50607
 20
0.16961
 30
0.0
 10
-1.50607
 20
0.16961
 30
0.0
 10
-1.50607
 20
0.16961
 30
0.0
 10
-1.67117
 20
0.18993
 30
0.0
 10
-1.8134100000000002
 20
0.26105
 30
0.0
 10
-1.8210300000000001
 20
0.44647
 30
0.0
 10
-1.8210300000000001
 20
0.44647
 30
0.0
 10
-1.7880100000000001
 20
0.6496700000000001
 30
0.0
 10
-1.5517900000000002
 20
0.87065
 30
0.0
 10
-1.41971
 20
0.9620900000000001
 30
0.0
 10
-1.41971
 20
0.9620900000000001
 30
0.0
 10
-2.1182100000000004
 20
0.9798700000000001
 30
0.0
 10
-2.8446500000000001
 20
0.6115700000000001
 30
0.0
 10
-3.5431500000000002
 20
0.6293500000000001
 30
0.0
 10
-3.5431500000000002
 20
0.6293500000000001
 30
0.0
 10
-3.5583900000000002
 20
0.53791
 30
0.0
 10
-3.4136100000000003
 20
0.53791
 30
0.0
 10
-3.3475700000000002
 20
0.53791
 30
0.0
 10
-3.3475700000000002
 20
0.53791
 30
0.0
 10
-3.0300700000000003
 20
0.5023500000000001
 30
0.0
 10
-3.4898100000000003
 20
0.42615
 30
0.0
 10
-3.5914100000000002
 20
0.35503
 30
0.0
 10
-3.5914100000000002
 20
0.35503
 30
0.0
 10
-4.0740100000000004
 20
0.16453
 30
0.0
 10
-4.69123
 20
1.27705
 30
0.0
 10
-4.0867100000000001
 20
0.7588900000000001
 30
0.0
 10
-4.0867100000000001
 20
0.7588900000000001
 30
0.0
 10
-3.6980900000000001
 20
0.3905900000000001
 30
0.0
 10
-4.1502100000000004
 20
0.99765
 30
0.0
 10
-4.3534100000000002
 20
1.07131
 30
0.0
 10
-4.3534100000000002
 20
1.07131
 30
0.0
 10
-4.9071300000000004
 20
2.1990700000000003
 30
0.0
 10
-3.4796500000000004
 20
2.3870300000000002
 30
0.0
 10
-2.5601700000000003
 20
2.00603
 30
0.0
 10
-2.5601700000000003
 20
2.00603
 30
0.0
 10
-2.2960100000000003
 20
1.8968100000000001
 30
0.0
 10
-2.1055100000000002
 20
2.0136500000000002
 30
0.0
 10
-1.9708900000000003
 20
1.8993500000000001
 30
0.0
 10
-1.9708900000000003
 20
1.8993500000000001
 30
0.0
 10
-1.9277100000000003
 20
2.0466700000000002
 30
0.0
 10
-2.10297
 20
2.0288900000000001
 30
0.0
 10
-2.1817100000000003
 20
2.0466700000000002
 30
0.0
 10
-2.1817100000000003
 20
2.0466700000000002
 30
0.0
 10
-2.36205
 20
2.12033
 30
0.0
 10
-2.5119100000000003
 20
2.1939900000000003
 30
0.0
 10
-2.6617700000000002
 20
2.3235300000000003
 30
0.0
 10
-2.6617700000000002
 20
2.3235300000000003
 30
0.0
 10
-2.7328900000000003
 20
2.3971900000000002
 30
0.0
 10
-2.8294100000000002
 20
2.4886300000000001
 30
0.0
 10
-2.8624300000000003
 20
2.5622900000000004
 30
0.0
 10
-2.8624300000000003
 20
2.5622900000000004
 30
0.0
 10
-3.9368500000000002
 20
1.5183500000000001
 30
0.0
 10
-4.3991300000000004
 20
4.2412300000000007
 30
0.0
 10
-3.4161500000000005
 20
3.3877900000000003
 30
0.0
 10
-3.4161500000000005
 20
3.3877900000000003
 30
0.0
 10
-3.3602700000000003
 20
3.3369900000000001
 30
0.0
 10
-3.2332700000000001
 20
3.1515700000000004
 30
0.0
 10
-3.2180300000000002
 20
3.2963500000000003
 30
0.0
 10
-3.2180300000000002
 20
3.2963500000000003
 30
0.0
 10
-3.9546300000000003
 20
4.12439
 30
0.0
 10
-3.5304500000000001
 20
5.5036100000000001
 30
0.0
 10
-2.61097
 20
5.9836700000000009
 30
0.0
 10
-2.61097
 20
5.9836700000000009
 30
0.0
 10
-2.1359900000000001
 20
5.5036100000000001
 30
0.0
 10
-2.1715500000000003
 20
4.7492300000000007
 30
0.0
 10
-1.8515100000000002
 20
4.16249
 30
0.0
 10
-1.8515100000000002
 20
4.16249
 30
0.0
 10
-1.8515100000000002
 20
4.16249
 30
0.0
 10
-1.71435
 20
3.9034100000000005
 30
0.0
 10
-1.71435
 20
3.9034100000000005
 30
0.0
 10
-1.71435
 20
3.9034100000000005
 30
0.0
 10
-1.5594100000000002
 20
3.3166700000000002
 30
0.0
 10
-1.7448300000000001
 20
5.3766100000000003
 30
0.0
 10
-1.24953
 20
4.3631500000000001
 30
0.0
 10
-1.24953
 20
4.3631500000000001
 30
0.0
 10
-1.1047500000000001
 20
4.1421700000000001
 30
0.0
 10
-1.37399
 20
3.0220300000000004
 30
0.0
 10
-1.1936500000000001
 20
3.5376500000000002
 30
0.0
 10
-1.1936500000000001
 20
3.5376500000000002
 30
0.0
 10
-1.1936500000000001
 20
3.5376500000000002
 30
0.0
 10
-1.1352300000000002
 20
3.7560900000000004
 30
0.0
 10
-1.1352300000000002
 20
3.7560900000000004
 30
0.0
 10
-1.1352300000000002
 20
3.7560900000000004
 30
0.0
 10
-1.04125
 20
3.4436700000000005
 30
0.0
 10
-0.9777500000000001
 20
3.1312500000000001
 30
0.0
 10
-0.84821
 20
2.8188300000000002
 30
0.0
 10
-0.84821
 20
2.8188300000000002
 30
0.0
 10
-0.7948700000000001
 20
3.1617300000000004
 30
0.0
 10
-0.6881900000000001
 20
3.1312500000000001
 30
0.0
 10
-0.44435
 20
2.8747100000000003
 30
0.0
 10
-0.44435
 20
2.8747100000000003
 30
0.0
 10
-0.20051
 20
2.6537300000000004
 30
0.0
 10
-0.53071
 20
2.4886300000000001
 30
0.0
 10
-0.70089
 20
2.3971900000000002
 30
0.0
 10
-0.70089
 20
2.3971900000000002
 30
0.0
 10
-0.6678700000000001
 20
2.34131
 30
0.0
 10
-0.15479
 20
2.6080100000000002
 30
0.0
 10
-0.5434100000000001
 20
2.3209900000000001
 30
0.0
 10
-0.5434100000000001
 20
2.3209900000000001
 30
0.0
 10
-1.6076700000000002
 20
1.23387
 30
0.0
 10
-1.4984500000000001
 20
4.0456500000000002
 30
0.0
 10
-2.5703300000000002
 20
3.2404700000000002
 30
0.0
 10
-2.5703300000000002
 20
3.2404700000000002
 30
0.0
 10
-2.5500100000000003
 20
3.3700100000000002
 30
0.0
 10
-2.5042900000000001
 20
3.5173300000000003
 30
0.0
 10
-2.4026900000000002
 20
3.6087700000000003
 30
0.0
 10
-2.4026900000000002
 20
3.6087700000000003
 30
0.0
 10
-2.06487
 20
4.0888300000000006
 30
0.0
 10
-3.0351500000000002
 20
3.0753700000000004
 30
0.0
 10
-2.6312900000000004
 20
2.9839300000000004
 30
0.0
 10
-2.6312900000000004
 20
2.9839300000000004
 30
0.0
 10
-2.4915900000000004
 20
3.2049100000000004
 30
0.0
 10
-2.0064500000000001
 20
3.4614500000000001
 30
0.0
 10
-1.9353300000000002
 20
3.0575900000000003
 30
0.0
 10
-1.9353300000000002
 20
3.0575900000000003
 30
0.0
 10
-2.2045700000000004
 20
2.8924900000000004
 30
0.0
 10
-2.4992100000000002
 20
2.5978500000000002
 30
0.0
 10
-2.2299700000000002
 20
2.30321
 30
0.0
 10
-2.2299700000000002
 20
2.30321
 30
0.0
 10
-2.5068300000000003
 20
2.3590900000000001
 30
0.0
 10
-2.6744700000000003
 20
2.55213
 30
0.0
 10
-2.6160500000000004
 20
2.8366100000000003
 30
0.0
 10
-2.6160500000000004
 20
2.8366100000000003
 30
0.0
 10
-3.15707
 20
2.3540100000000002
 30
0.0
 10
-1.6076700000000002
 20
1.9069700000000001
 30
0.0
 10
-1.3638300000000001
 20
1.8637900000000001
 30
0.0
 10
-1.3638300000000001
 20
1.8637900000000001
 30
0.0
 10
-0.19797
 20
1.7367900000000001
 30
0.0
 10
0.18556
 20
2.9686900000000001
 30
0.0
 10
-0.95235
 20
3.5376500000000002
 30
0.0
 10
-0.95235
 20
3.5376500000000002
 30
0.0
 10
-1.08951
 20
3.9770700000000003
 30
0.0
 10
-1.0666500000000001
 20
5.2115100000000005
 30
0.0
 10
-1.7778500000000002
 20
4.6222300000000001
 30
0.0
 10
-1.7778500000000002
 20
4.6222300000000001
 30
0.0
 10
-1.8311900000000001
 20
4.7314500000000006
 30
0.0
 10
-1.8718300000000001
 20
4.84321
 30
0.0
 10
-1.8692900000000001
 20
4.9702100000000007
 30
0.0
 10
-1.8692900000000001
 20
4.9702100000000007
 30
0.0
 10
-1.0133100000000002
 20
5.1734100000000005
 30
0.0
 10
0.02554
 20
5.0616500000000002
 30
0.0
 10
0.7291200000000001
 20
4.4926900000000005
 30
0.0
 10
0.7291200000000001
 20
4.4926900000000005
 30
0.0
 10
0.53608
 20
4.8787700000000003
 30
0.0
 10
0.6935600000000001
 20
5.5950500000000005
 30
0.0
 10
1.2269600000000001
 20
5.6712500000000006
 30
0.0
 10
1.2269600000000001
 20
5.6712500000000006
 30
0.0
 10
1.7248000000000001
 20
4.8609900000000001
 30
0.0
 10
1.7400400000000003
 20
3.8297500000000002
 30
0.0
 10
2.2201
 20
3.0398100000000001
 30
0.0
 10
2.2201
 20
3.0398100000000001
 30
0.0
 10
2.2201
 20
3.0398100000000001
 30
0.0
 10
2.0804
 20
3.5173300000000003
 30
0.0
 10
2.0804
 20
3.5173300000000003
 30
0.0
 10
2.0804
 20
3.5173300000000003
 30
0.0
 10
1.9635600000000002
 20
3.7738700000000005
 30
0.0
 10
1.8899000000000001
 20
4.38347
 30
0.0
 10
2.2378800000000001
 20
4.3631500000000001
 30
0.0
 10
2.2378800000000001
 20
4.3631500000000001
 30
0.0
 10
2.2226400000000002
 20
3.7560900000000004
 30
0.0
 10
2.8754200000000001
 20
3.0220300000000004
 30
0.0
 10
2.3572600000000001
 20
2.5241900000000004
 30
0.0
 10
2.3572600000000001
 20
2.5241900000000004
 30
0.0
 10
3.3732600000000001
 20
2.6156300000000003
 30
0.0
 10
2.6849200000000004
 20
1.82315
 30
0.0
 10
3.5028000000000001
 20
1.36341
 30
0.0
 10
3.5028000000000001
 20
1.36341
 30
0.0
 10
3.3554800000000005
 20
0.42361
 30
0.0
 10
2.7484200000000003
 20
2.1762100000000002
 30
0.0
 10
2.7255600000000002
 20
1.7164700000000002
 30
0.0
 10
2.7255600000000002
 20
1.7164700000000002
 30
0.0
 10
2.7255600000000002
 20
1.7164700000000002
 30
0.0
 10
2.9160600000000003
 20
1.4142100000000002
 30
0.0
 10
2.9160600000000003
 20
1.4142100000000002
 30
0.0
 10
2.9160600000000003
 20
1.4142100000000002
 30
0.0
 10
3.7060000000000004
 20
0.4744100000000001
 30
0.0
 10
1.9026000000000001
 20
1.53105
 30
0.0
 10
2.6341200000000002
 20
0.57601
 30
0.0
 10
2.6341200000000002
 20
0.57601
 30
0.0
 10
2.9465400000000002
 20
0.15183
 30
0.0
 10
3.4316800000000001
 20
-0.19614
 30
0.0
 10
3.9295200000000001
 20
-0.34092
 30
0.0
 10
3.9295200000000001
 20
-0.34092
 30
0.0
 10
3.9879400000000005
 20
0.06039
 30
0.0
 10
3.9168200000000004
 20
0.5201300000000001
 30
0.0
 10
3.7161600000000004
 20
0.8884300000000001
 30
0.0
 10
3.7161600000000004
 20
0.8884300000000001
 30
0.0
 10
3.6526600000000005
 20
0.99765
 30
0.0
 10
3.6704400000000001
 20
1.1271900000000001
 30
0.0
 10
3.6272600000000002
 20
1.23895
 30
0.0
 10
3.6272600000000002
 20
1.23895
 30
0.0
 10
4.2521000000000004
 20
0.5201300000000001
 30
0.0
 10
3.9447600000000005
 20
-0.61778
 30
0.0
 10
4.4984800000000007
 20
-1.37216
 30
0.0
 10
4.4984800000000007
 20
-1.37216
 30
0.0
 10
4.3867200000000004
 20
-1.3899400000000002
 30
0.0
 10
4.3308400000000002
 20
-1.29088
 30
0.0
 10
4.2495600000000007
 20
-1.1435600000000001
 30
0.0
 10
4.2495600000000007
 20
-1.1435600000000001
 30
0.0
 10
4.1124000000000001
 20
-0.7041400000000001
 30
0.0
 10
4.0285800000000007
 20
-0.7651000000000001
 30
0.0
 10
4.0997000000000003
 20
-1.20706
 30
0.0
 10
4.0997000000000003
 20
-1.20706
 30
0.0
 10
4.0438200000000002
 20
-1.4686800000000002
 30
0.0
 10
3.9066600000000005
 20
-0.6838200000000001
 30
0.0
 10
3.6958400000000005
 20
-0.5187200000000001
 30
0.0
  0
SPLINE
  5
28
100
AcDbEntity
  8
Ebene 1
 62
     7
100
AcDbSpline
210
0.0
220
0.0
230
1.0
 70
     1
 71
     3
 72
    16
 73
    12
 74
     0
 42
0.0000000001
 43
0.0000000001
 40
0.0
 40
0.0
 40
0.0
 40
0.0
 40
0.3333333333333333
 40
0.3333333333333333
 40
0.3333333333333333
 40
0.3333333333333333
 40
0.6666666666666666
 40
0.6666666666666666
 40
0.6666666666666666
 40
0.6666666666666666
 40
1.0
 40
1.0
 40
1.0
 40
1.0
 10
-3.8250900000000003
 20
4.6019100000000002
 30
0.0
 10
-3.8276300000000005
 20
4.2894900000000007
 30
0.0
 10
-3.9368500000000002
 20
3.8500700000000001
 30
0.0
 10
-4.1197300000000006
 20
3.5376500000000002
 30
0.0
 10
-4.1197300000000006
 20
3.5376500000000002
 30
0.0
 10
-4.14513
 20
3.2607900000000001
 30
0.0
 10
-4.0054300000000005
 20
2.8366100000000003
 30
0.0
 10
-4.3584900000000006
 20
2.7096100000000001
 30
0.0
 10
-4.3584900000000006
 20
2.7096100000000001
 30
0.0
 10
-5.0874700000000006
 20
3.2252300000000003
 30
0.0
 10
-4.44231
 20
4.2717100000000006
 30
0.0
 10
-3.8250900000000003
 20
4.6019100000000002
 30
0.0
  0
SPLINE
  5
29
100
AcDbEntity
  8
Ebene 1
100
AcDbSpline
210
0.0
220
0.0
230
1.0
 70
     1
 71
     3
 72
    24
 73
    20
 74
     0
 42
0.0000000001
 43
0.0000000001
 40
0.0
 40
0.0
 40
0.0
 40
0.0
 40
0.2
 40
0.2
 40
0.2
 40
0.2
 40
0.4
 40
0.4
 40
0.4
 40
0.4
 40
0.6000000000000001
 40
0.6000000000000001
 40
0.6000000000000001
 40
0.6000000000000001
 40
0.8
 40
0.8
 40
0.8
 40
0.8
 40
1.0
 40
1.0
 40
1.0
 40
1.0
 10
0.80786
 20
4.3098100000000006
 30
0.0
 10
1.3387200000000001
 20
3.8500700000000001
 30
0.0
 10
1.6257400000000002
 20
3.1871300000000002
 30
0.0
 10
2.1083400000000001
 20
2.6892900000000002
 30
0.0
 10
2.1083400000000001
 20
2.6892900000000002
 30
0.0
 10
2.0245200000000003
 20
2.6537300000000004
 30
0.0
 10
1.9254600000000002
 20
2.7807300000000001
 30
0.0
 10
1.8340200000000002
 20
2.7807300000000001
 30
0.0
 10
1.8340200000000002
 20
2.7807300000000001
 30
0.0
 10
1.6282800000000002
 20
2.9280500000000003
 30
0.0
 10
1.7756000000000001
 20
2.6537300000000004
 30
0.0
 10
1.6892400000000001
 20
2.5622900000000004
 30
0.0
 10
1.6892400000000001
 20
2.5622900000000004
 30
0.0
 10
1.6892400000000001
 20
2.5622900000000004
 30
0.0
 10
1.6155800000000002
 20
2.6537300000000004
 30
0.0
 10
1.6155800000000002
 20
2.6537300000000004
 30
0.0
 10
1.6155800000000002
 20
2.6537300000000004
 30
0.0
 10
1.52922
 20
3.2785700000000002
 30
0.0
 10
1.14822
 20
3.7941900000000004
 30
0.0
 10
0.80786
 20
4.3098100000000006
 30
0.0
  0
SPLINE
  5
2A
100
AcDbEntity
  8
Ebene 1
100
AcDbSpline
210
0.0
220
0.0
230
1.0
 70
     1
 71
     3
 72
    28
 73
    24
 74
     0
 42
0.0000000001
 43
0.0000000001
 40
0.0
 40
0.0
 40
0.0
 40
0.0
 40
0.1666666666666667
 40
0.1666666666666667
 40
0.1666666666666667
 40
0.1666666666666667
 40
0.3333333333333333
 40
0.3333333333333333
 40
0.3333333333333333
 40
0.3333333333333333
 40
0.5
 40
0.5
 40
0.5
 40
0.5
 40
0.6666666666666666
 40
0.6666666666666666
 40
0.6666666666666666
 40
0.6666666666666666
 40
0.8333333333333333
 40
0.8333333333333333
 40
0.8333333333333333
 40
0.8333333333333333
 40
1.0
 40
1.0
 40
1.0
 40
1.0
 10
1.4149200000000002
 20
2.8188300000000002
 30
0.0
 10
1.4631800000000001
 20
2.8366100000000003
 30
0.0
 10
1.4479400000000002
 20
2.7807300000000001
 30
0.0
 10
1.4504800000000002
 20
2.7451700000000003
 30
0.0
 10
1.4504800000000002
 20
2.7451700000000003
 30
0.0
 10
1.31332
 20
2.4886300000000001
 30
0.0
 10
1.0491600000000001
 20
2.5445100000000003
 30
0.0
 10
0.8434200000000001
 20
2.6537300000000004
 30
0.0
 10
0.8434200000000001
 20
2.6537300000000004
 30
0.0
 10
0.66054
 20
2.6537300000000004
 30
0.0
 10
0.5005200000000001
 20
2.5800700000000001
 30
0.0
 10
0.3278
 20
2.5445100000000003
 30
0.0
 10
0.3278
 20
2.5445100000000003
 30
0.0
 10
0.29224
 20
2.5445100000000003
 30
0.0
 10
0.23382
 20
2.5064100000000002
 30
0.0
 10
0.21858
 20
2.5622900000000004
 30
0.0
 10
0.21858
 20
2.5622900000000004
 30
0.0
 10
0.37352
 20
2.7451700000000003
 30
0.0
 10
0.61736
 20
2.80105
 30
0.0
 10
0.8612000000000001
 20
2.7807300000000001
 30
0.0
 10
0.8612000000000001
 20
2.7807300000000001
 30
0.0
 10
1.0390000000000001
 20
2.7273900000000002
 30
0.0
 10
1.27268
 20
2.6537300000000004
 30
0.0
 10
1.4149200000000002
 20
2.8188300000000002
 30
0.0
  0
SPLINE
  5
2B
100
AcDbEntity
  8
Ebene 1
100
AcDbSpline
210
0.0
220
0.0
230
1.0
 70
     1
 71
     3
 72
    32
 73
    28
 74
     0
 42
0.0000000001
 43
0.0000000001
 40
0.0
 40
0.0
 40
0.0
 40
0.0
 40
0.1428571428571429
 40
0.1428571428571429
 40
0.1428571428571429
 40
0.1428571428571429
 40
0.2857142857142857
 40
0.2857142857142857
 40
0.2857142857142857
 40
0.2857142857142857
 40
0.4285714285714286
 40
0.4285714285714286
 40
0.4285714285714286
 40
0.4285714285714286
 40
0.5714285714285714
 40
0.5714285714285714
 40
0.5714285714285714
 40
0.5714285714285714
 40
0.7142857142857142
 40
0.7142857142857142
 40
0.7142857142857142
 40
0.7142857142857142
 40
0.857142857142857
 40
0.857142857142857
 40
0.857142857142857
 40
0.857142857142857
 40
1.0
 40
1.0
 40
1.0
 40
1.0
 10
0.14492
 20
2.0466700000000002
 30
0.0
 10
0.5462400000000001
 20
2.0466700000000002
 30
0.0
 10
0.9297800000000001
 20
1.8637900000000001
 30
0.0
 10
1.1253600000000001
 20
1.4751700000000001
 30
0.0
 10
1.1253600000000001
 20
1.4751700000000001
 30
0.0
 10
1.3539600000000001
 20
1.2008500000000002
 30
0.0
 10
1.7375
 20
1.0154300000000001
 30
0.0
 10
1.8873600000000001
 20
0.7411100000000001
 30
0.0
 10
1.8873600000000001
 20
0.7411100000000001
 30
0.0
 10
1.7933800000000002
 20
0.72333
 30
0.0
 10
1.7502000000000002
 20
0.87065
 30
0.0
 10
1.65368
 20
0.85033
 30
0.0
 10
1.65368
 20
0.85033
 30
0.0
 10
1.4225400000000001
 20
0.8325500000000001
 30
0.0
 10
1.2574400000000001
 20
0.6115700000000001
 30
0.0
 10
1.0085200000000001
 20
0.6674500000000001
 30
0.0
 10
1.0085200000000001
 20
0.6674500000000001
 30
0.0
 10
1.0085200000000001
 20
0.6674500000000001
 30
0.0
 10
-0.3427500000000001
 20
1.27451
 30
0.0
 10
-0.3427500000000001
 20
1.27451
 30
0.0
 10
-0.3427500000000001
 20
1.27451
 30
0.0
 10
-0.3427500000000001
 20
1.27451
 30
0.0
 10
-0.45451
 20
1.40405
 30
0.0
 10
-0.45451
 20
1.40405
 30
0.0
 10
-0.45451
 20
1.40405
 30
0.0
 10
-0.46721
 20
1.7342500000000001
 30
0.0
 10
-0.09637
 20
1.9349100000000001
 30
0.0
 10
0.14492
 20
2.0466700000000002
 30
0.0
  0
SPLINE
  5
2C
100
AcDbEntity
  8
Ebene 1
 62
     7
100
AcDbSpline
210
0.0
220
0.0
230
1.0
 70
     1
 71
     3
 72
   180
 73
   176
 74
     0
 42
0.0000000001
 43
0.0000000001
 40
0.0
 40
0.0
 40
0.0
 40
0.0
 40
0.0227272727272727
 40
0.0227272727272727
 40
0.0227272727272727
 40
0.0227272727272727
 40
0.0454545454545455
 40
0.0454545454545455
 40
0.0454545454545455
 40
0.0454545454545455
 40
0.0681818181818182
 40
0.0681818181818182
 40
0.0681818181818182
 40
0.0681818181818182
 40
0.0909090909090909
 40
0.0909090909090909
 40
0.0909090909090909
 40
0.0909090909090909
 40
0.1136363636363637
 40
0.1136363636363637
 40
0.1136363636363637
 40
0.1136363636363637
 40
0.1363636363636364
 40
0.1363636363636364
 40
0.1363636363636364
 40
0.1363636363636364
 40
0.1590909090909091
 40
0.1590909090909091
 40
0.1590909090909091
 40
0.1590909090909091
 40
0.1818181818181819
 40
0.1818181818181819
 40
0.1818181818181819
 40
0.1818181818181819
 40
0.2045454545454546
 40
0.2045454545454546
 40
0.2045454545454546
 40
0.2045454545454546
 40
0.2272727272727273
 40
0.2272727272727273
 40
0.2272727272727273
 40
0.2272727272727273
 40
0.2500000000000001
 40
0.2500000000000001
 40
0.2500000000000001
 40
0.2500000000000001
 40
0.2727272727272728
 40
0.2727272727272728
 40
0.2727272727272728
 40
0.2727272727272728
 40
0.2954545454545455
 40
0.2954545454545455
 40
0.2954545454545455
 40
0.2954545454545455
 40
0.3181818181818182
 40
0.3181818181818182
 40
0.3181818181818182
 40
0.3181818181818182
 40
0.3409090909090909
 40
0.3409090909090909
 40
0.3409090909090909
 40
0.3409090909090909
 40
0.3636363636363636
 40
0.3636363636363636
 40
0.3636363636363636
 40
0.3636363636363636
 40
0.3863636363636363
 40
0.3863636363636363
 40
0.3863636363636363
 40
0.3863636363636363
 40
0.409090909090909
 40
0.409090909090909
 40
0.409090909090909
 40
0.409090909090909
 40
0.4318181818181817
 40
0.4318181818181817
 40
0.4318181818181817
 40
0.4318181818181817
 40
0.4545454545454544
 40
0.4545454545454544
 40
0.4545454545454544
 40
0.4545454545454544
 40
0.4772727272727271
 40
0.4772727272727271
 40
0.4772727272727271
 40
0.4772727272727271
 40
0.4999999999999998
 40
0.4999999999999998
 40
0.4999999999999998
 40
0.4999999999999998
 40
0.5227272727272726
 40
0.5227272727272726
 40
0.5227272727272726
 40
0.5227272727272726
 40
0.5454545454545453
 40
0.5454545454545453
 40
0.5454545454545453
 40
0.5454545454545453
 40
0.568181818181818
 40
0.568181818181818
 40
0.568181818181818
 40
0.568181818181818
 40
0.5909090909090907
 40
0.5909090909090907
 40
0.5909090909090907
 40
0.5909090909090907
 40
0.6136363636363634
 40
0.6136363636363634
 40
0.6136363636363634
 40
0.6136363636363634
 40
0.6363636363636361
 40
0.6363636363636361
 40
0.6363636363636361
 40
0.6363636363636361
 40
0.6590909090909088
 40
0.6590909090909088
 40
0.6590909090909088
 40
0.6590909090909088
 40
0.6818181818181816
 40
0.6818181818181816
 40
0.6818181818181816
 40
0.6818181818181816
 40
0.7045454545454543
 40
0.7045454545454543
 40
0.7045454545454543
 40
0.7045454545454543
 40
0.727272727272727
 40
0.727272727272727
 40
0.727272727272727
 40
0.727272727272727
 40
0.7499999999999997
 40
0.7499999999999997
 40
0.7499999999999997
 40
0.7499999999999997
 40
0.7727272727272724
 40
0.7727272727272724
 40
0.7727272727272724
 40
0.7727272727272724
 40
0.7954545454545451
 40
0.7954545454545451
 40
0.7954545454545451
 40
0.7954545454545451
 40
0.8181818181818178
 40
0.8181818181818178
 40
0.8181818181818178
 40
0.8181818181818178
 40
0.8409090909090905
 40
0.8409090909090905
 40
0.8409090909090905
 40
0.8409090909090905
 40
0.8636363636363632
 40
0.8636363636363632
 40
0.8636363636363632
 40
0.8636363636363632
 40
0.8863636363636359
 40
0.8863636363636359
 40
0.8863636363636359
 40
0.8863636363636359
 40
0.9090909090909086
 40
0.9090909090909086
 40
0.9090909090909086
 40
0.9090909090909086
 40
0.9318181818181813
 40
0.9318181818181813
 40
0.9318181818181813
 40
0.9318181818181813
 40
0.954545454545454
 40
0.954545454545454
 40
0.954545454545454
 40
0.954545454545454
 40
0.9772727272727267
 40
0.9772727272727267
 40
0.9772727272727267
 40
0.9772727272727267
 40
1.0
 40
1.0
 40
1.0
 40
1.0
 10
0.61736
 20
-4.4735000000000005
 30
0.0
 10
0.00268
 20
-3.6988000000000003
 30
0.0
 10
-0.8710700000000001
 20
-3.0993600000000003
 30
0.0
 10
-1.4832100000000001
 20
-2.2916400000000001
 30
0.0
 10
-1.4832100000000001
 20
-2.2916400000000001
 30
0.0
 10
-1.4832100000000001
 20
-2.2916400000000001
 30
0.0
 10
-0.7364500000000001
 20
-2.7691600000000003
 30
0.0
 10
-0.7364500000000001
 20
-2.7691600000000003
 30
0.0
 10
-0.7364500000000001
 20
-2.7691600000000003
 30
0.0
 10
-0.7288300000000001
 20
-2.7869400000000004
 30
0.0
 10
-0.7034300000000001
 20
-2.8072600000000003
 30
0.0
 10
-0.68057
 20
-2.8072600000000003
 30
0.0
 10
-0.68057
 20
-2.8072600000000003
 30
0.0
 10
-0.6881900000000001
 20
-2.8250400000000004
 30
0.0
 10
-0.65517
 20
-2.8250400000000004
 30
0.0
 10
-0.6627900000000001
 20
-2.8072600000000003
 30
0.0
 10
-0.6627900000000001
 20
-2.8072600000000003
 30
0.0
 10
-0.6627900000000001
 20
-2.8072600000000003
 30
0.0
 10
-0.55611
 20
-2.8072600000000003
 30
0.0
 10
-0.55611
 20
-2.8072600000000003
 30
0.0
 10
-0.55611
 20
-2.8072600000000003
 30
0.0
 10
-0.55611
 20
-2.8072600000000003
 30
0.0
 10
-2.39507
 20
-1.4813800000000001
 30
0.0
 10
-2.39507
 20
-1.4813800000000001
 30
0.0
 10
-2.39507
 20
-1.4813800000000001
 30
0.0
 10
-2.5982700000000003
 20
-1.3899400000000002
 30
0.0
 10
-2.4966700000000004
 20
-1.5372600000000001
 30
0.0
 10
-2.39507
 20
-1.6109200000000001
 30
0.0
 10
-2.39507
 20
-1.6109200000000001
 30
0.0
 10
-2.39507
 20
-1.6109200000000001
 30
0.0
 10
-2.0445500000000001
 20
-1.9411200000000002
 30
0.0
 10
-2.0445500000000001
 20
-1.9411200000000002
 30
0.0
 10
-2.0445500000000001
 20
-1.9411200000000002
 30
0.0
 10
-2.5398500000000004
 20
-1.6490200000000002
 30
0.0
 10
-3.1697700000000002
 20
-1.3899400000000002
 30
0.0
 10
-3.3272500000000003
 20
-0.80066
 30
0.0
 10
-3.3272500000000003
 20
-0.80066
 30
0.0
 10
-3.3323300000000002
 20
-0.43236
 30
0.0
 10
-3.2383500000000001
 20
-0.10216
 30
0.0
 10
-3.15707
 20
0.24581
 30
0.0
 10
-3.15707
 20
0.24581
 30
0.0
 10
-3.11389
 20
0.4109100000000001
 30
0.0
 10
-2.8954500000000003
 20
0.3905900000000001
 30
0.0
 10
-2.7633700000000001
 20
0.4642500000000001
 30
0.0
 10
-2.7633700000000001
 20
0.4642500000000001
 30
0.0
 10
-2.6846300000000003
 20
-0.15804
 30
0.0
 10
-2.73543
 20
-0.9124200000000001
 30
0.0
 10
-2.2934700000000001
 20
-1.4255000000000002
 30
0.0
 10
-2.2934700000000001
 20
-1.4255000000000002
 30
0.0
 10
-2.2121900000000001
 20
-1.5017
 30
0.0
 10
-2.1258300000000001
 20
-1.5728200000000001
 30
0.0
 10
-2.02169
 20
-1.6287
 30
0.0
 10
-2.02169
 20
-1.6287
 30
0.0
 10
-1.4501900000000001
 20
-1.8877800000000002
 30
0.0
 10
-2.8700500000000004
 20
-0.9124200000000001
 30
0.0
 10
-2.1537700000000002
 20
-0.9302
 30
0.0
 10
-2.1537700000000002
 20
-0.9302
 30
0.0
 10
-2.1105900000000002
 20
-0.8768600000000001
 30
0.0
 10
-2.0445500000000001
 20
-0.8387600000000001
 30
0.0
 10
-2.02169
 20
-0.7651000000000001
 30
0.0
 10
-2.02169
 20
-0.7651000000000001
 30
0.0
 10
-1.8692900000000001
 20
-0.50856
 30
0.0
 10
-1.5568700000000002
 20
0.28137
 30
0.0
 10
-1.7295900000000002
 20
-0.43236
 30
0.0
 10
-1.7295900000000002
 20
-0.43236
 30
0.0
 10
-1.7626100000000002
 20
-0.6914400000000001
 30
0.0
 10
-1.9683500000000003
 20
-0.9302
 30
0.0
 10
-1.9607300000000001
 20
-1.1892800000000001
 30
0.0
 10
-1.9607300000000001
 20
-1.1892800000000001
 30
0.0
 10
-1.7422900000000001
 20
-0.9860800000000001
 30
0.0
 10
-1.71435
 20
-0.65588
 30
0.0
 10
-1.6127500000000001
 20
-0.37902
 30
0.0
 10
-1.6127500000000001
 20
-0.37902
 30
0.0
 10
-1.5314700000000001
 20
-0.19614
 30
0.0
 10
-1.5517900000000002
 20
0.11373
 30
0.0
 10
-1.2723900000000001
 20
0.09595
 30
0.0
 10
-1.2723900000000001
 20
0.09595
 30
0.0
 10
-1.3257300000000001
 20
-0.0666
 30
0.0
 10
-1.33081
 20
-0.24948
 30
0.0
 10
-1.3282700000000001
 20
-0.4145800000000001
 30
0.0
 10
-1.3282700000000001
 20
-0.4145800000000001
 30
0.0
 10
-1.3282700000000001
 20
-0.4145800000000001
 30
0.0
 10
-1.3282700000000001
 20
-1.4255000000000002
 30
0.0
 10
-1.3282700000000001
 20
-1.4255000000000002
 30
0.0
 10
-1.3282700000000001
 20
-1.4255000000000002
 30
0.0
 10
-1.3282700000000001
 20
-1.4255000000000002
 30
0.0
 10
-1.3257300000000001
 20
-1.5575800000000002
 30
0.0
 10
-1.3257300000000001
 20
-1.5575800000000002
 30
0.0
 10
-1.3257300000000001
 20
-1.5575800000000002
 30
0.0
 10
-1.3282700000000001
 20
-1.6109200000000001
 30
0.0
 10
-1.3257300000000001
 20
-1.6668000000000001
 30
0.0
 10
-1.3054100000000002
 20
-1.7226800000000002
 30
0.0
 10
-1.3054100000000002
 20
-1.7226800000000002
 30
0.0
 10
-1.33843
 20
-1.8496800000000002
 30
0.0
 10
-1.1784100000000002
 20
-1.7760200000000002
 30
0.0
 10
-1.1809500000000002
 20
-1.9055600000000001
 30
0.0
 10
-1.1809500000000002
 20
-1.9055600000000001
 30
0.0
 10
-1.1809500000000002
 20
-1.9055600000000001
 30
0.0
 10
-1.03363
 20
-2.2002000000000002
 30
0.0
 10
-1.03363
 20
-2.2002000000000002
 30
0.0
 10
-1.03363
 20
-2.2002000000000002
 30
0.0
 10
-0.9904500000000001
 20
-2.2535400000000001
 30
0.0
 10
-0.9701300000000001
 20
-2.3653000000000004
 30
0.0
 10
-0.88631
 20
-2.3653000000000004
 30
0.0
 10
-0.88631
 20
-2.3653000000000004
 30
0.0
 10
-1.1326900000000002
 20
-1.9614400000000001
 30
0.0
 10
-1.2647700000000002
 20
-1.5017
 30
0.0
 10
-1.1885700000000001
 20
-0.9860800000000001
 30
0.0
 10
-1.1885700000000001
 20
-0.9860800000000001
 30
0.0
 10
-0.9625100000000001
 20
-1.3899400000000002
 30
0.0
 10
-0.8532900000000001
 20
-1.8700000000000001
 30
0.0
 10
-0.6018300000000001
 20
-2.2916400000000001
 30
0.0
 10
-0.6018300000000001
 20
-2.2916400000000001
 30
0.0
 10
-0.6018300000000001
 20
-2.2916400000000001
 30
0.0
 10
-0.7491500000000001
 20
-1.7938000000000001
 30
0.0
 10
-0.7491500000000001
 20
-1.7938000000000001
 30
0.0
 10
-0.7491500000000001
 20
-1.7938000000000001
 30
0.0
 10
-0.12939
 20
-2.4567400000000004
 30
0.0
 10
0.47004
 20
-3.0993600000000003
 30
0.0
 10
0.72404
 20
-3.9426400000000004
 30
0.0
 10
0.72404
 20
-3.9426400000000004
 30
0.0
 10
0.785
 20
-4.0163000000000002
 30
0.0
 10
0.93486
 20
-4.0594800000000006
 30
0.0
 10
1.02376
 20
-3.9655000000000005
 30
0.0
 10
1.02376
 20
-3.9655000000000005
 30
0.0
 10
1.0542400000000001
 20
-4.31602
 30
0.0
 10
1.06948
 20
-4.6462200000000005
 30
0.0
 10
1.1253600000000001
 20
-4.9764200000000001
 30
0.0
 10
1.1253600000000001
 20
-4.9764200000000001
 30
0.0
 10
1.1304400000000001
 20
-4.9307000000000007
 30
0.0
 10
1.1761600000000001
 20
-4.6690800000000001
 30
0.0
 10
1.1634600000000002
 20
-4.5116000000000005
 30
0.0
 10
1.1634600000000002
 20
-4.5116000000000005
 30
0.0
 10
1.1380600000000001
 20
-4.2398199999999999
 30
0.0
 10
1.2422000000000002
 20
-4.1864800000000004
 30
0.0
 10
1.2295
 20
-4.5370000000000008
 30
0.0
 10
1.2295
 20
-4.5370000000000008
 30
0.0
 10
1.3641200000000002
 20
-5.3802800000000008
 30
0.0
 10
1.4377800000000001
 20
-5.1567600000000002
 30
0.0
 10
1.4708000000000001
 20
-5.0500800000000003
 30
0.0
 10
1.4708000000000001
 20
-5.0500800000000003
 30
0.0
 10
1.8264000000000002
 20
-5.4539400000000002
 30
0.0
 10
1.7171800000000002
 20
-5.3447200000000006
 30
0.0
 10
2.0550000000000002
 20
-5.8781200000000009
 30
0.0
 10
2.0550000000000002
 20
-5.8781200000000009
 30
0.0
 10
1.8010000000000002
 20
-5.9136800000000003
 30
0.0
 10
1.7171800000000002
 20
-5.6012600000000008
 30
0.0
 10
1.6409800000000001
 20
-5.4361600000000001
 30
0.0
 10
1.6409800000000001
 20
-5.4361600000000001
 30
0.0
 10
1.4962000000000002
 20
-5.3447200000000006
 30
0.0
 10
1.7273400000000001
 20
-5.7308000000000003
 30
0.0
 10
1.6486000000000001
 20
-5.8603400000000008
 30
0.0
 10
1.6486000000000001
 20
-5.8603400000000008
 30
0.0
 10
1.48604
 20
-5.7689000000000004
 30
0.0
 10
1.3387200000000001
 20
-5.6571400000000001
 30
0.0
 10
1.2066400000000002
 20
-5.5301400000000003
 30
0.0
 10
1.2066400000000002
 20
-5.5301400000000003
 30
0.0
 10
0.8104000000000001
 20
-5.2888400000000004
 30
0.0
 10
0.6249800000000001
 20
-4.7935400000000001
 30
0.0
 10
0.37098
 20
-4.4430200000000006
 30
0.0
 10
0.37098
 20
-4.4430200000000006
 30
0.0
 10
0.6326000000000001
 20
-4.5217600000000004
 30
0.0
 10
0.74436
 20
-4.77576
 30
0.0
 10
0.9272400000000001
 20
-5.0602400000000003
 30
0.0
 10
0.9272400000000001
 20
-5.0602400000000003
 30
0.0
 10
0.9501000000000001
 20
-5.0958000000000006
 30
0.0
 10
1.14314
 20
-5.2939200000000008
 30
0.0
 10
1.0796400000000002
 20
-5.1618400000000007
 30
0.0
 10
1.0796400000000002
 20
-5.1618400000000007
 30
0.0
 10
1.0796400000000002
 20
-5.1618400000000007
 30
0.0
 10
0.55386
 20
-4.0391600000000007
 30
0.0
 10
0.55386
 20
-4.0391600000000007
 30
0.0
 10
0.55386
 20
-4.0391600000000007
 30
0.0
 10
0.531
 20
-4.1864800000000004
 30
0.0
 10
0.64276
 20
-4.3134800000000002
 30
0.0
 10
0.61736
 20
-4.4735000000000005
 30
0.0
  0
SPLINE
  5
2D
100
AcDbEntity
  8
Ebene 1
 62
     7
100
AcDbSpline
210
0.0
220
0.0
230
1.0
 70
     1
 71
     3
 72
    36
 73
    32
 74
     0
 42
0.0000000001
 43
0.0000000001
 40
0.0
 40
0.0
 40
0.0
 40
0.0
 40
0.125
 40
0.125
 40
0.125
 40
0.125
 40
0.25
 40
0.25
 40
0.25
 40
0.25
 40
0.375
 40
0.375
 40
0.375
 40
0.375
 40
0.5
 40
0.5
 40
0.5
 40
0.5
 40
0.625
 40
0.625
 40
0.625
 40
0.625
 40
0.75
 40
0.75
 40
0.75
 40
0.75
 40
0.875
 40
0.875
 40
0.875
 40
0.875
 40
1.0
 40
1.0
 40
1.0
 40
1.0
 10
-1.12253
 20
0.09595
 30
0.0
 10
-1.12253
 20
0.09595
 30
0.0
 10
-0.4265700000000001
 20
0.07817
 30
0.0
 10
-0.4265700000000001
 20
0.07817
 30
0.0
 10
-0.4265700000000001
 20
0.07817
 30
0.0
 10
-0.4265700000000001
 20
0.07817
 30
0.0
 10
-0.42149
 20
-0.34092
 30
0.0
 10
-0.42149
 20
-0.34092
 30
0.0
 10
-0.42149
 20
-0.34092
 30
0.0
 10
-0.7516900000000001
 20
-1.5067800000000002
 30
0.0
 10
0.25922
 20
-2.0757400000000001
 30
0.0
 10
0.9247000000000001
 20
-2.86314
 30
0.0
 10
0.9247000000000001
 20
-2.86314
 30
0.0
 10
1.0466200000000001
 20
-3.0079200000000004
 30
0.0
 10
1.1406000000000001
 20
-3.2543000000000002
 30
0.0
 10
1.2295
 20
-3.4143200000000005
 30
0.0
 10
1.2295
 20
-3.4143200000000005
 30
0.0
 10
1.2295
 20
-3.4143200000000005
 30
0.0
 10
1.0872600000000001
 20
-3.6607000000000003
 30
0.0
 10
1.0872600000000001
 20
-3.6607000000000003
 30
0.0
 10
1.0872600000000001
 20
-3.6607000000000003
 30
0.0
 10
1.02376
 20
-3.4041600000000001
 30
0.0
 10
1.0059800000000001
 20
-3.0968200000000001
 30
0.0
 10
0.8586600000000001
 20
-2.8555200000000003
 30
0.0
 10
0.8586600000000001
 20
-2.8555200000000003
 30
0.0
 10
0.69864
 20
-2.7996400000000001
 30
0.0
 10
0.6834
 20
-3.1603200000000005
 30
0.0
 10
0.61482
 20
-3.2517600000000004
 30
0.0
 10
0.61482
 20
-3.2517600000000004
 30
0.0
 10
0.04586
 20
-2.1290800000000001
 30
0.0
 10
-1.5162300000000002
 20
-1.2985000000000002
 30
0.0
 10
-1.12253
 20
0.09595
 30
0.0
  0
SPLINE
  5
2E
100
AcDbEntity
  8
Ebene 1
 62
     7
100
AcDbSpline
210
0.0
220
0.0
230
1.0
 70
     1
 71
     3
 72
    16
 73
    12
 74
     0
 42
0.0000000001
 43
0.0000000001
 40
0.0
 40
0.0
 40
0.0
 40
0.0
 40
0.3333333333333333
 40
0.3333333333333333
 40
0.3333333333333333
 40
0.3333333333333333
 40
0.6666666666666666
 40
0.6666666666666666
 40
0.6666666666666666
 40
0.6666666666666666
 40
1.0
 40
1.0
 40
1.0
 40
1.0
 10
3.1726000000000001
 20
-1.0648200000000001
 30
0.0
 10
3.1141800000000002
 20
-1.0114800000000002
 30
0.0
 10
3.0456000000000003
 20
-0.9683000000000001
 30
0.0
 10
2.9643200000000003
 20
-1.0216400000000001
 30
0.0
 10
2.9643200000000003
 20
-1.0216400000000001
 30
0.0
 10
2.92876
 20
-0.7295400000000001
 30
0.0
 10
2.8932000000000002
 20
-0.43236
 30
0.0
 10
2.8373200000000001
 20
-0.14026
 30
0.0
 10
2.8373200000000001
 20
-0.14026
 30
0.0
 10
3.1218000000000004
 20
-0.34092
 30
0.0
 10
3.0989400000000002
 20
-0.7524000000000001
 30
0.0
 10
3.1726000000000001
 20
-1.0648200000000001
 30
0.0
  0
SPLINE
  5
2F
100
AcDbEntity
  8
Ebene 1
 62
     7
100
AcDbSpline
210
0.0
220
0.0
230
1.0
 70
     1
 71
     3
 72
    12
 73
     8
 74
     0
 42
0.0000000001
 43
0.0000000001
 40
0.0
 40
0.0
 40
0.0
 40
0.0
 40
0.5
 40
0.5
 40
0.5
 40
0.5
 40
1.0
 40
1.0
 40
1.0
 40
1.0
 10
4.20892
 20
-0.15804
 30
0.0
 10
4.3943400000000006
 20
-0.45268
 30
0.0
 10
4.5467400000000007
 20
-0.78288
 30
0.0
 10
4.5365800000000007
 20
-1.1334000000000002
 30
0.0
 10
4.5365800000000007
 20
-1.1334000000000002
 30
0.0
 10
4.3587800000000003
 20
-0.8565400000000001
 30
0.0
 10
4.2622600000000004
 20
-0.4882400000000001
 30
0.0
 10
4.20892
 20
-0.15804
 30
0.0
  0
SPLINE
  5
30
100
AcDbEntity
  8
Ebene 1
 62
     7
100
AcDbSpline
210
0.0
220
0.0
230
1.0
 70
     1
 71
     3
 72
    16
 73
    12
 74
     0
 42
0.0000000001
 43
0.0000000001
 40
0.0
 40
0.0
 40
0.0
 40
0.0
 40
0.3333333333333333
 40
0.3333333333333333
 40
0.3333333333333333
 40
0.3333333333333333
 40
0.6666666666666666
 40
0.6666666666666666
 40
0.6666666666666666
 40
0.6666666666666666
 40
1.0
 40
1.0
 40
1.0
 40
1.0
 10
3.1243400000000001
 20
-0.30536
 30
0.0
 10
3.4240600000000003
 20
-0.50856
 30
0.0
 10
3.3910400000000003
 20
-0.9683000000000001
 30
0.0
 10
3.4697800000000001
 20
-1.2985000000000002
 30
0.0
 10
3.4697800000000001
 20
-1.2985000000000002
 30
0.0
 10
3.1573600000000002
 20
-1.1334000000000002
 30
0.0
 10
3.2843600000000004
 20
-0.67366
 30
0.0
 10
3.1243400000000001
 20
-0.3968
 30
0.0
 10
3.1243400000000001
 20
-0.3968
 30
0.0
 10
3.1243400000000001
 20
-0.3968
 30
0.0
 10
3.1243400000000001
 20
-0.30536
 30
0.0
 10
3.1243400000000001
 20
-0.30536
 30
0.0
  0
SPLINE
  5
31
100
AcDbEntity
  8
Ebene 1
 62
     7
100
AcDbSpline
210
0.0
220
0.0
230
1.0
 70
     1
 71
     3
 72
    16
 73
    12
 74
     0
 42
0.0000000001
 43
0.0000000001
 40
0.0
 40
0.0
 40
0.0
 40
0.0
 40
0.3333333333333333
 40
0.3333333333333333
 40
0.3333333333333333
 40
0.3333333333333333
 40
0.6666666666666666
 40
0.6666666666666666
 40
0.6666666666666666
 40
0.6666666666666666
 40
1.0
 40
1.0
 40
1.0
 40
1.0
 10
0.27446
 20
-0.4145800000000001
 30
0.0
 10
0.32272
 20
-0.4145800000000001
 30
0.0
 10
0.37352
 20
-0.4145800000000001
 30
0.0
 10
0.4167
 20
-0.43236
 30
0.0
 10
0.4167
 20
-0.43236
 30
0.0
 10
0.4167
 20
-0.43236
 30
0.0
 10
0.4725800000000001
 20
-0.94798
 30
0.0
 10
0.4725800000000001
 20
-0.94798
 30
0.0
 10
0.4725800000000001
 20
-0.94798
 30
0.0
 10
0.37352
 20
-0.78288
 30
0.0
 10
0.33034
 20
-0.6000000000000001
 30
0.0
 10
0.27446
 20
-0.4145800000000001
 30
0.0
  0
SPLINE
  5
32
100
AcDbEntity
  8
Ebene 1
 62
     7
100
AcDbSpline
210
0.0
220
0.0
230
1.0
 70
     1
 71
     3
 72
    16
 73
    12
 74
     0
 42
0.0000000001
 43
0.0000000001
 40
0.0
 40
0.0
 40
0.0
 40
0.0
 40
0.3333333333333333
 40
0.3333333333333333
 40
0.3333333333333333
 40
0.3333333333333333
 40
0.6666666666666666
 40
0.6666666666666666
 40
0.6666666666666666
 40
0.6666666666666666
 40
1.0
 40
1.0
 40
1.0
 40
1.0
 10
0.5691000000000001
 20
-0.43236
 30
0.0
 10
0.5691000000000001
 20
-0.43236
 30
0.0
 10
0.8434200000000001
 20
-0.52634
 30
0.0
 10
0.8434200000000001
 20
-0.52634
 30
0.0
 10
0.8434200000000001
 20
-0.52634
 30
0.0
 10
0.7900800000000001
 20
-0.65588
 30
0.0
 10
0.6935600000000001
 20
-0.78288
 30
0.0
 10
0.6097400000000001
 20
-0.8946400000000001
 30
0.0
 10
0.6097400000000001
 20
-0.8946400000000001
 30
0.0
 10
0.5868800000000001
 20
-0.7295400000000001
 30
0.0
 10
0.5462400000000001
 20
-0.5796800000000001
 30
0.0
 10
0.5691000000000001
 20
-0.43236
 30
0.0
  0
SPLINE
  5
33
100
AcDbEntity
  8
Ebene 1
 62
     7
100
AcDbSpline
210
0.0
220
0.0
230
1.0
 70
     1
 71
     3
 72
    12
 73
     8
 74
     0
 42
0.0000000001
 43
0.0000000001
 40
0.0
 40
0.0
 40
0.0
 40
0.0
 40
0.5
 40
0.5
 40
0.5
 40
0.5
 40
1.0
 40
1.0
 40
1.0
 40
1.0
 10
1.4708000000000001
 20
-0.43236
 30
0.0
 10
1.7476600000000002
 20
-0.6914400000000001
 30
0.0
 10
1.6028800000000001
 20
-1.16896
 30
0.0
 10
1.7959200000000002
 20
-1.5017
 30
0.0
 10
1.7959200000000002
 20
-1.5017
 30
0.0
 10
1.2625200000000001
 20
-1.3162800000000001
 30
0.0
 10
1.3641200000000002
 20
-0.82606
 30
0.0
 10
1.4708000000000001
 20
-0.43236
 30
0.0
  0
SPLINE
  5
34
100
AcDbEntity
  8
Ebene 1
 62
     7
100
AcDbSpline
210
0.0
220
0.0
230
1.0
 70
     1
 71
     3
 72
    20
 73
    16
 74
     0
 42
0.0000000001
 43
0.0000000001
 40
0.0
 40
0.0
 40
0.0
 40
0.0
 40
0.25
 40
0.25
 40
0.25
 40
0.25
 40
0.5
 40
0.5
 40
0.5
 40
0.5
 40
0.75
 40
0.75
 40
0.75
 40
0.75
 40
1.0
 40
1.0
 40
1.0
 40
1.0
 10
3.3808800000000003
 20
-0.45268
 30
0.0
 10
3.3808800000000003
 20
-0.45268
 30
0.0
 10
3.5815400000000004
 20
-0.5644400000000001
 30
0.0
 10
3.5815400000000004
 20
-0.5644400000000001
 30
0.0
 10
3.5815400000000004
 20
-0.5644400000000001
 30
0.0
 10
3.5815400000000004
 20
-0.5644400000000001
 30
0.0
 10
3.8025200000000003
 20
-1.2807200000000001
 30
0.0
 10
3.8025200000000003
 20
-1.2807200000000001
 30
0.0
 10
3.8025200000000003
 20
-1.2807200000000001
 30
0.0
 10
3.7339400000000005
 20
-1.2248400000000002
 30
0.0
 10
3.6450400000000003
 20
-1.20706
 30
0.0
 10
3.5713800000000004
 20
-1.1892800000000001
 30
0.0
 10
3.5713800000000004
 20
-1.1892800000000001
 30
0.0
 10
3.5129600000000001
 20
-0.9302
 30
0.0
 10
3.4596200000000001
 20
-0.6914400000000001
 30
0.0
 10
3.3808800000000003
 20
-0.45268
 30
0.0
  0
SPLINE
  5
35
100
AcDbEntity
  8
Ebene 1
 62
     7
100
AcDbSpline
210
0.0
220
0.0
230
1.0
 70
     1
 71
     3
 72
    12
 73
     8
 74
     0
 42
0.0000000001
 43
0.0000000001
 40
0.0
 40
0.0
 40
0.0
 40
0.0
 40
0.5
 40
0.5
 40
0.5
 40
0.5
 40
1.0
 40
1.0
 40
1.0
 40
1.0
 10
1.8746600000000002
 20
-0.5796800000000001
 30
0.0
 10
2.1540600000000003
 20
-0.7295400000000001
 30
0.0
 10
1.9838800000000001
 20
-1.04196
 30
0.0
 10
1.9991200000000002
 20
-1.2807200000000001
 30
0.0
 10
1.9991200000000002
 20
-1.2807200000000001
 30
0.0
 10
1.8594200000000001
 20
-1.0953000000000002
 30
0.0
 10
1.6587600000000002
 20
-0.7651000000000001
 30
0.0
 10
1.8746600000000002
 20
-0.5796800000000001
 30
0.0
  0
SPLINE
  5
36
100
AcDbEntity
  8
Ebene 1
 62
     7
100
AcDbSpline
210
0.0
220
0.0
230
1.0
 70
     1
 71
     3
 72
    16
 73
    12
 74
     0
 42
0.0000000001
 43
0.0000000001
 40
0.0
 40
0.0
 40
0.0
 40
0.0
 40
0.3333333333333333
 40
0.3333333333333333
 40
0.3333333333333333
 40
0.3333333333333333
 40
0.6666666666666666
 40
0.6666666666666666
 40
0.6666666666666666
 40
0.6666666666666666
 40
1.0
 40
1.0
 40
1.0
 40
1.0
 10
2.6823800000000002
 20
-0.8946400000000001
 30
0.0
 10
2.88558
 20
-0.9860800000000001
 30
0.0
 10
2.7382600000000004
 20
-1.3543800000000001
 30
0.0
 10
2.7154000000000003
 20
-1.5575800000000002
 30
0.0
 10
2.7154000000000003
 20
-1.5575800000000002
 30
0.0
 10
2.6341200000000002
 20
-1.37216
 30
0.0
 10
2.5858600000000003
 20
-1.1334000000000002
 30
0.0
 10
2.5960200000000002
 20
-0.9124200000000001
 30
0.0
 10
2.5960200000000002
 20
-0.9124200000000001
 30
0.0
 10
2.5960200000000002
 20
-0.9124200000000001
 30
0.0
 10
2.6823800000000002
 20
-0.8946400000000001
 30
0.0
 10
2.6823800000000002
 20
-0.8946400000000001
 30
0.0
  0
SPLINE
  5
37
100
AcDbEntity
  8
Ebene 1
 62
     7
100
AcDbSpline
210
0.0
220
0.0
230
1.0
 70
     1
 71
     3
 72
    12
 73
     8
 74
     0
 42
0.0000000001
 43
0.0000000001
 40
0.0
 40
0.0
 40
0.0
 40
0.0
 40
0.5
 40
0.5
 40
0.5
 40
0.5
 40
1.0
 40
1.0
 40
1.0
 40
1.0
 10
4.6153200000000005
 20
-0.9860800000000001
 30
0.0
 10
4.7372400000000008
 20
-1.03688
 30
0.0
 10
4.79312
 20
-1.3518400000000002
 30
0.0
 10
4.8159800000000006
 20
-1.4813800000000001
 30
0.0
 10
4.8159800000000006
 20
-1.4813800000000001
 30
0.0
 10
4.6966000000000001
 20
-1.4077200000000001
 30
0.0
 10
4.5797600000000003
 20
-1.1130800000000001
 30
0.0
 10
4.6153200000000005
 20
-0.9860800000000001
 30
0.0
  0
SPLINE
  5
38
100
AcDbEntity
  8
Ebene 1
 62
     7
100
AcDbSpline
210
0.0
220
0.0
230
1.0
 70
     1
 71
     3
 72
    12
 73
     8
 74
     0
 42
0.0000000001
 43
0.0000000001
 40
0.0
 40
0.0
 40
0.0
 40
0.0
 40
0.5
 40
0.5
 40
0.5
 40
0.5
 40
1.0
 40
1.0
 40
1.0
 40
1.0
 10
3.0710000000000002
 20
-1.08006
 30
0.0
 10
3.1980000000000004
 20
-1.0927600000000002
 30
0.0
 10
3.2665800000000003
 20
-1.3899400000000002
 30
0.0
 10
3.13958
 20
-1.5372600000000001
 30
0.0
 10
3.13958
 20
-1.5372600000000001
 30
0.0
 10
3.0583000000000005
 20
-1.4077200000000001
 30
0.0
 10
2.9084400000000001
 20
-1.2096
 30
0.0
 10
3.0710000000000002
 20
-1.08006
 30
0.0
  0
SPLINE
  5
39
100
AcDbEntity
  8
Ebene 1
 62
     7
100
AcDbSpline
210
0.0
220
0.0
230
1.0
 70
     1
 71
     3
 72
    20
 73
    16
 74
     0
 42
0.0000000001
 43
0.0000000001
 40
0.0
 40
0.0
 40
0.0
 40
0.0
 40
0.25
 40
0.25
 40
0.25
 40
0.25
 40
0.5
 40
0.5
 40
0.5
 40
0.5
 40
0.75
 40
0.75
 40
0.75
 40
0.75
 40
1.0
 40
1.0
 40
1.0
 40
1.0
 10
3.6145600000000004
 20
-1.3061200000000002
 30
0.0
 10
3.6933000000000002
 20
-1.3061200000000002
 30
0.0
 10
3.7517200000000002
 20
-1.3670800000000001
 30
0.0
 10
3.8076000000000003
 20
-1.3874000000000002
 30
0.0
 10
3.8076000000000003
 20
-1.3874000000000002
 30
0.0
 10
3.8076000000000003
 20
-1.3874000000000002
 30
0.0
 10
3.9117400000000004
 20
-2.1265400000000003
 30
0.0
 10
3.9117400000000004
 20
-2.1265400000000003
 30
0.0
 10
3.9117400000000004
 20
-2.1265400000000003
 30
0.0
 10
3.9117400000000004
 20
-2.1265400000000003
 30
0.0
 10
3.7771200000000005
 20
-1.8801600000000001
 30
0.0
 10
3.7771200000000005
 20
-1.8801600000000001
 30
0.0
 10
3.7771200000000005
 20
-1.8801600000000001
 30
0.0
 10
3.7771200000000005
 20
-1.8801600000000001
 30
0.0
 10
3.6145600000000004
 20
-1.3061200000000002
 30
0.0
 10
3.6145600000000004
 20
-1.3061200000000002
 30
0.0
  0
SPLINE
  5
3A
100
AcDbEntity
  8
Ebene 1
 62
     7
100
AcDbSpline
210
0.0
220
0.0
230
1.0
 70
     1
 71
     3
 72
    12
 73
     8
 74
     0
 42
0.0000000001
 43
0.0000000001
 40
0.0
 40
0.0
 40
0.0
 40
0.0
 40
0.5
 40
0.5
 40
0.5
 40
0.5
 40
1.0
 40
1.0
 40
1.0
 40
1.0
 10
4.0616000000000003
 20
-1.4255000000000002
 30
0.0
 10
4.3740200000000007
 20
-1.5194800000000002
 30
0.0
 10
4.3994200000000001
 20
-1.92334
 30
0.0
 10
4.4273600000000002
 20
-2.2179800000000003
 30
0.0
 10
4.4273600000000002
 20
-2.2179800000000003
 30
0.0
 10
4.2800400000000005
 20
-1.9792200000000002
 30
0.0
 10
4.1149400000000007
 20
-1.7023600000000001
 30
0.0
 10
4.0616000000000003
 20
-1.4255000000000002
 30
0.0
  0
SPLINE
  5
3B
100
AcDbEntity
  8
Ebene 1
 62
     7
100
AcDbSpline
210
0.0
220
0.0
230
1.0
 70
     1
 71
     3
 72
    12
 73
     8
 74
     0
 42
0.0000000001
 43
0.0000000001
 40
0.0
 40
0.0
 40
0.0
 40
0.0
 40
0.5
 40
0.5
 40
0.5
 40
0.5
 40
1.0
 40
1.0
 40
1.0
 40
1.0
 10
4.7118400000000005
 20
-2.0351000000000004
 30
0.0
 10
4.5289600000000005
 20
-1.8496800000000002
 30
0.0
 10
4.2648000000000001
 20
-1.42042
 30
0.0
 10
4.4908600000000005
 20
-1.4458200000000001
 30
0.0
 10
4.4908600000000005
 20
-1.4458200000000001
 30
0.0
 10
4.5797600000000003
 20
-1.4813800000000001
 30
0.0
 10
4.7474000000000007
 20
-1.9411200000000002
 30
0.0
 10
4.7118400000000005
 20
-2.0351000000000004
 30
0.0
  0
SPLINE
  5
3C
100
AcDbEntity
  8
Ebene 1
 62
     7
100
AcDbSpline
210
0.0
220
0.0
230
1.0
 70
     1
 71
     3
 72
    12
 73
     8
 74
     0
 42
0.0000000001
 43
0.0000000001
 40
0.0
 40
0.0
 40
0.0
 40
0.0
 40
0.5
 40
0.5
 40
0.5
 40
0.5
 40
1.0
 40
1.0
 40
1.0
 40
1.0
 10
1.8010000000000002
 20
-2.7869400000000004
 30
0.0
 10
1.8822800000000002
 20
-3.0638000000000001
 30
0.0
 10
1.9864200000000001
 20
-3.3762200000000004
 30
0.0
 10
1.9991200000000002
 20
-3.6911800000000001
 30
0.0
 10
1.9991200000000002
 20
-3.6911800000000001
 30
0.0
 10
1.7324200000000001
 20
-3.4143200000000005
 30
0.0
 10
1.69686
 20
-3.1146000000000003
 30
0.0
 10
1.8010000000000002
 20
-2.7869400000000004
 30
0.0
  0
SPLINE
  5
3D
100
AcDbEntity
  8
Ebene 1
 62
     7
100
AcDbSpline
210
0.0
220
0.0
230
1.0
 70
     1
 71
     3
 72
    20
 73
    16
 74
     0
 42
0.0000000001
 43
0.0000000001
 40
0.0
 40
0.0
 40
0.0
 40
0.0
 40
0.25
 40
0.25
 40
0.25
 40
0.25
 40
0.5
 40
0.5
 40
0.5
 40
0.5
 40
0.75
 40
0.75
 40
0.75
 40
0.75
 40
1.0
 40
1.0
 40
1.0
 40
1.0
 10
0.80786
 20
-3.0104600000000001
 30
0.0
 10
0.9628000000000001
 20
-3.2670000000000003
 30
0.0
 10
1.01868
 20
-3.6149800000000001
 30
0.0
 10
0.9882000000000001
 20
-3.9274000000000004
 30
0.0
 10
0.9882000000000001
 20
-3.9274000000000004
 30
0.0
 10
0.93232
 20
-3.9274000000000004
 30
0.0
 10
0.8764400000000001
 20
-3.9274000000000004
 30
0.0
 10
0.83072
 20
-3.9096200000000003
 30
0.0
 10
0.83072
 20
-3.9096200000000003
 30
0.0
 10
0.70118
 20
-3.7800800000000003
 30
0.0
 10
0.7392800000000001
 20
-3.5794200000000003
 30
0.0
 10
0.66054
 20
-3.4498800000000003
 30
0.0
 10
0.66054
 20
-3.4498800000000003
 30
0.0
 10
0.66054
 20
-3.4498800000000003
 30
0.0
 10
0.80786
 20
-3.0104600000000001
 30
0.0
 10
0.80786
 20
-3.0104600000000001
 30
0.0
  0
SPLINE
  5
3E
100
AcDbEntity
  8
Ebene 1
 62
     7
100
AcDbSpline
210
0.0
220
0.0
230
1.0
 70
     1
 71
     3
 72
    16
 73
    12
 74
     0
 42
0.0000000001
 43
0.0000000001
 40
0.0
 40
0.0
 40
0.0
 40
0.0
 40
0.3333333333333333
 40
0.3333333333333333
 40
0.3333333333333333
 40
0.3333333333333333
 40
0.6666666666666666
 40
0.6666666666666666
 40
0.6666666666666666
 40
0.6666666666666666
 40
1.0
 40
1.0
 40
1.0
 40
1.0
 10
2.20486
 20
-3.2670000000000003
 30
0.0
 10
2.20486
 20
-3.2670000000000003
 30
0.0
 10
2.2378800000000001
 20
-3.2670000000000003
 30
0.0
 10
2.2378800000000001
 20
-3.2670000000000003
 30
0.0
 10
2.2378800000000001
 20
-3.2670000000000003
 30
0.0
 10
2.2759800000000001
 20
-3.5057600000000004
 30
0.0
 10
2.33948
 20
-3.7445200000000005
 30
0.0
 10
2.2378800000000001
 20
-3.9655000000000005
 30
0.0
 10
2.2378800000000001
 20
-3.9655000000000005
 30
0.0
 10
2.0677000000000003
 20
-3.7445200000000005
 30
0.0
 10
2.1845400000000001
 20
-3.5057600000000004
 30
0.0
 10
2.20486
 20
-3.2670000000000003
 30
0.0
  0
SPLINE
  5
3F
100
AcDbEntity
  8
Ebene 1
 62
     7
100
AcDbSpline
210
0.0
220
0.0
230
1.0
 70
     1
 71
     3
 72
    12
 73
     8
 74
     0
 42
0.0000000001
 43
0.0000000001
 40
0.0
 40
0.0
 40
0.0
 40
0.0
 40
0.5
 40
0.5
 40
0.5
 40
0.5
 40
1.0
 40
1.0
 40
1.0
 40
1.0
 10
1.31332
 20
-3.4752800000000001
 30
0.0
 10
1.56732
 20
-3.6251400000000005
 30
0.0
 10
1.4657200000000001
 20
-3.9502600000000001
 30
0.0
 10
1.3463400000000001
 20
-4.3871400000000005
 30
0.0
 10
1.3463400000000001
 20
-4.3871400000000005
 30
0.0
 10
1.3336400000000002
 20
-4.05694
 30
0.0
 10
1.3260200000000002
 20
-3.7445200000000005
 30
0.0
 10
1.31332
 20
-3.4752800000000001
 30
0.0
  0
SPLINE
  5
40
100
AcDbEntity
  8
Ebene 1
 62
     7
100
AcDbSpline
210
0.0
220
0.0
230
1.0
 70
     1
 71
     3
 72
    16
 73
    12
 74
     0
 42
0.0000000001
 43
0.0000000001
 40
0.0
 40
0.0
 40
0.0
 40
0.0
 40
0.3333333333333333
 40
0.3333333333333333
 40
0.3333333333333333
 40
0.3333333333333333
 40
0.6666666666666666
 40
0.6666666666666666
 40
0.6666666666666666
 40
0.6666666666666666
 40
1.0
 40
1.0
 40
1.0
 40
1.0
 10
1.19394
 20
-3.6708600000000002
 30
0.0
 10
1.19394
 20
-3.6708600000000002
 30
0.0
 10
1.2269600000000001
 20
-3.6708600000000002
 30
0.0
 10
1.2269600000000001
 20
-3.6708600000000002
 30
0.0
 10
1.2269600000000001
 20
-3.6708600000000002
 30
0.0
 10
1.2422000000000002
 20
-3.8004000000000002
 30
0.0
 10
1.2955400000000001
 20
-3.9832800000000002
 30
0.0
 10
1.1990200000000002
 20
-4.09504
 30
0.0
 10
1.1990200000000002
 20
-4.09504
 30
0.0
 10
1.14314
 20
-3.9655000000000005
 30
0.0
 10
1.15076
 20
-3.8181800000000004
 30
0.0
 10
1.19394
 20
-3.6708600000000002
 30
0.0
  0
SPLINE
  5
41
100
AcDbEntity
  8
Ebene 1
 62
     7
100
AcDbSpline
210
0.0
220
0.0
230
1.0
 70
     1
 71
     3
 72
    16
 73
    12
 74
     0
 42
0.0000000001
 43
0.0000000001
 40
0.0
 40
0.0
 40
0.0
 40
0.0
 40
0.3333333333333333
 40
0.3333333333333333
 40
0.3333333333333333
 40
0.3333333333333333
 40
0.6666666666666666
 40
0.6666666666666666
 40
0.6666666666666666
 40
0.6666666666666666
 40
1.0
 40
1.0
 40
1.0
 40
1.0
 10
2.38774
 20
-3.8181800000000004
 30
0.0
 10
2.4664800000000002
 20
-4.0391600000000007
 30
0.0
 10
2.4461600000000003
 20
-4.3338000000000001
 30
0.0
 10
2.4410800000000004
 20
-4.5725600000000002
 30
0.0
 10
2.4410800000000004
 20
-4.5725600000000002
 30
0.0
 10
2.2810600000000001
 20
-4.5903400000000003
 30
0.0
 10
2.3191600000000001
 20
-4.3693600000000004
 30
0.0
 10
2.3521800000000002
 20
-4.2601400000000007
 30
0.0
 10
2.3521800000000002
 20
-4.2601400000000007
 30
0.0
 10
2.2505800000000002
 20
-4.1687000000000003
 30
0.0
 10
2.3699600000000003
 20
-3.9655000000000005
 30
0.0
 10
2.38774
 20
-3.8181800000000004
 30
0.0
  0
SPLINE
  5
42
100
AcDbEntity
  8
Ebene 1
 62
     7
100
AcDbSpline
210
0.0
220
0.0
230
1.0
 70
     1
 71
     3
 72
    12
 73
     8
 74
     0
 42
0.0000000001
 43
0.0000000001
 40
0.0
 40
0.0
 40
0.0
 40
0.0
 40
0.5
 40
0.5
 40
0.5
 40
0.5
 40
1.0
 40
1.0
 40
1.0
 40
1.0
 10
2.0956400000000004
 20
-3.8359600000000005
 30
0.0
 10
2.1947000000000001
 20
-3.9832800000000002
 30
0.0
 10
2.1489800000000003
 20
-4.2220400000000007
 30
0.0
 10
2.1185
 20
-4.3871400000000005
 30
0.0
 10
2.1185
 20
-4.3871400000000005
 30
0.0
 10
1.9508600000000003
 20
-4.2626800000000005
 30
0.0
 10
2.0702400000000001
 20
-4.0315400000000006
 30
0.0
 10
2.0956400000000004
 20
-3.8359600000000005
 30
0.0
  0
SPLINE
  5
43
100
AcDbEntity
  8
Ebene 1
 62
     7
100
AcDbSpline
210
0.0
220
0.0
230
1.0
 70
     1
 71
     3
 72
    16
 73
    12
 74
     0
 42
0.0000000001
 43
0.0000000001
 40
0.0
 40
0.0
 40
0.0
 40
0.0
 40
0.3333333333333333
 40
0.3333333333333333
 40
0.3333333333333333
 40
0.3333333333333333
 40
0.6666666666666666
 40
0.6666666666666666
 40
0.6666666666666666
 40
0.6666666666666666
 40
1.0
 40
1.0
 40
1.0
 40
1.0
 10
1.5063600000000001
 20
-4.1483800000000004
 30
0.0
 10
1.5063600000000001
 20
-4.1483800000000004
 30
0.0
 10
1.6155800000000002
 20
-4.9027600000000007
 30
0.0
 10
1.6155800000000002
 20
-4.9027600000000007
 30
0.0
 10
1.6155800000000002
 20
-4.9027600000000007
 30
0.0
 10
1.5800200000000002
 20
-4.9205400000000008
 30
0.0
 10
1.5622400000000001
 20
-4.9408600000000007
 30
0.0
 10
1.5419200000000002
 20
-4.9764200000000001
 30
0.0
 10
1.5419200000000002
 20
-4.9764200000000001
 30
0.0
 10
1.3184
 20
-4.73766
 30
0.0
 10
1.3869800000000001
 20
-4.4252400000000005
 30
0.0
 10
1.5063600000000001
 20
-4.1483800000000004
 30
0.0
  0
SPLINE
  5
44
100
AcDbEntity
  8
Ebene 1
 62
     7
100
AcDbSpline
210
0.0
220
0.0
230
1.0
 70
     1
 71
     3
 72
    12
 73
     8
 74
     0
 42
0.0000000001
 43
0.0000000001
 40
0.0
 40
0.0
 40
0.0
 40
0.0
 40
0.5
 40
0.5
 40
0.5
 40
0.5
 40
1.0
 40
1.0
 40
1.0
 40
1.0
 10
2.2607400000000002
 20
-4.31602
 30
0.0
 10
2.2556600000000002
 20
-4.4811200000000007
 30
0.0
 10
2.3699600000000003
 20
-4.6843200000000005
 30
0.0
 10
2.2277200000000001
 20
-4.8291000000000004
 30
0.0
 10
2.2277200000000001
 20
-4.8291000000000004
 30
0.0
 10
2.1515200000000001
 20
-4.6640000000000006
 30
0.0
 10
2.2556600000000002
 20
-4.4811200000000007
 30
0.0
 10
2.2607400000000002
 20
-4.31602
 30
0.0
  0
ENDSEC
  0
SECTION
  2
OBJECTS
  0
DICTIONARY
  5
19
100
AcDbDictionary
280
     0
281
     1
  3
ACAD_GROUP
350
1A
  3
ACAD_MLINESTYLE
350
1B
  3
ACAD_LAYOUT
350
1E
  3
ACAD_PLOTSETTINGS
350
22
  3
ACAD_PLOTSTYLENAME
350
1F
  3
ACAD_WIPEOUT_VARS
350
23
  0
DICTIONARY
  5
1A
102
{ACAD_REACTORS
330
19
102
}
100
AcDbDictionary
280
     0
281
     1
  0
DICTIONARY
  5
1B
102
{ACAD_REACTORS
330
19
102
}
100
AcDbDictionary
280
     0
281
     1
  3
Standard
350
1C
  0
MLINESTYLE
  5
1C
102
{ACAD_REACTORS
330
1B
102
}
100
AcDbMlineStyle
  2
Standard
 70
     0
  3

 62
     0
 51
90.0
 52
90.0
 71
     2
 49
0.5
 62
   256
  6
BYLAYER
 49
-0.5
 62
   256
  6
BYLAYER
  0
ACDBDICTIONARYWDFLT
  5
1F
102
{ACAD_REACTORS
330
19
102
}
100
AcDbDictionary
281
     1
  3
Normal
350
1D
100
AcDbDictionaryWithDefault
340
1D
  0
ACDBPLACEHOLDER
  5
1D
102
{ACAD_REACTORS
330
1F
102
}
  0
LAYOUT
  5
20
102
{ACAD_REACTORS
330
1E
102
}
100
AcDbPlotSettings
  1

  2

  4

  6

 40
0.0
 41
0.0
 42
0.0
 43
0.0
 44
0.0
 45
0.0
 46
0.0
 47
0.0
 48
0.0
 49
0.0
140
0.0
141
0.0
142
1.0
143
1.0
 70
  1024
 72
     0
 73
     0
 74
     0
  7

 75
     0
147
1.0
148
0.0
149
0.0
100
AcDbLayout
  1
Model
 70
     0
 71
     0
 10
0.0
 20
0.0
 11
0.0
 21
0.0
 12
0.0
 22
0.0
 32
0.0
 14
0.0
 24
0.0
 34
0.0
 15
0.0
 25
0.0
 35
0.0
146
0.0
 13
0.0
 23
0.0
 33
0.0
 16
0.0
 26
0.0
 36
0.0
 17
0.0
 27
0.0
 37
0.0
 76
     0
330
A
331
0
345
0
346
0
  0
LAYOUT
  5
21
102
{ACAD_REACTORS
330
1E
102
}
100
AcDbPlotSettings
  1

  2

  4

  6

 40
0.0
 41
0.0
 42
0.0
 43
0.0
 44
0.0
 45
0.0
 46
0.0
 47
0.0
 48
0.0
 49
0.0
140
0.0
141
0.0
142
1.0
143
1.0
 70
     0
 72
     0
 73
     0
 74
     0
  7

 75
     0
147
1.0
148
0.0
149
0.0
100
AcDbLayout
  1
Layout1
 70
     0
 71
     0
 10
0.0
 20
0.0
 11
0.0
 21
0.0
 12
0.0
 22
0.0
 32
0.0
 14
0.0
 24
0.0
 34
0.0
 15
0.0
 25
0.0
 35
0.0
146
0.0
 13
0.0
 23
0.0
 33
0.0
 16
0.0
 26
0.0
 36
0.0
 17
0.0
 27
0.0
 37
0.0
 76
     0
330
B
331
0
345
0
346
0
  0
DICTIONARY
  5
1E
102
{ACAD_REACTORS
330
19
102
}
100
AcDbDictionary
280
     0
281
     1
  3
Layout1
350
21
  3
Model
350
20
  0
DICTIONARY
  5
22
102
{ACAD_REACTORS
330
19
102
}
100
AcDbDictionary
280
     0
281
     1
  0
WIPEOUTVARIABLES
  5
23
100
AcDbWipeoutVariables
 70
     1
  0
ENDSEC
  0
EOF
