  0
SECTION
  2
HEADER
  9
$ACADVER
  1
AC1012
  9
$DWGCODEPAGE
  3
ansi_1252
  9
$INSBASE
 10
0.0
 20
0.0
 30
0.0
  9
$EXTMIN
 10
0.775243
 20
0.775243
 30
0.0
  9
$EXTMAX
 10
4.942649
 20
4.296679
 30
0.0
  9
$LIMMIN
 10
0.0
 20
0.0
  9
$LIMMAX
 10
35.0
 20
25.0
  9
$ORTHOMODE
 70
     0
  9
$REGENMODE
 70
     1
  9
$FILLMODE
 70
     1
  9
$QTEXTMODE
 70
     0
  9
$MIRRTEXT
 70
     1
  9
$DRAGMODE
 70
     2
  9
$LTSCALE
 40
1.0
  9
$OSMODE
 70
     0
  9
$ATTMODE
 70
     1
  9
$TEXTSIZE
 40
0.090823
  9
$TRACEWID
 40
0.05
  9
$TEXTSTYLE
  7
STANDARD
  9
$CLAYER
  8
0
  9
$CELTYPE
  6
BYLAYER
  9
$CECOLOR
 62
   256
  9
$CELTSCALE
 40
1.0
  9
$DELOBJ
 70
     1
  9
$DISPSILH
 70
     0
  9
$DIMSCALE
 40
1.0
  9
$DIMASZ
 40
0.18
  9
$DIMEXO
 40
0.0625
  9
$DIMDLI
 40
0.38
  9
$DIMRND
 40
0.0
  9
$DIMDLE
 40
0.0
  9
$DIMEXE
 40
0.18
  9
$DIMTP
 40
0.0
  9
$DIMTM
 40
0.0
  9
$DIMTXT
 40
0.18
  9
$DIMCEN
 40
0.09
  9
$DIMTSZ
 40
0.0
  9
$DIMTOL
 70
     0
  9
$DIMLIM
 70
     0
  9
$DIMTIH
 70
     1
  9
$DIMTOH
 70
     1
  9
$DIMSE1
 70
     0
  9
$DIMSE2
 70
     0
  9
$DIMTAD
 70
     0
  9
$DIMZIN
 70
     4
  9
$DIMBLK
  1

  9
$DIMASO
 70
     1
  9
$DIMSHO
 70
     0
  9
$DIMPOST
  1

  9
$DIMAPOST
  1

  9
$DIMALT
 70
     0
  9
$DIMALTD
 70
     3
  9
$DIMALTF
 40
25.4
  9
$DIMLFAC
 40
1.0
  9
$DIMTOFL
 70
     0
  9
$DIMTVP
 40
0.0
  9
$DIMTIX
 70
     0
  9
$DIMSOXD
 70
     0
  9
$DIMSAH
 70
     0
  9
$DIMBLK1
  1

  9
$DIMBLK2
  1

  9
$DIMSTYLE
  2
STANDARD
  9
$DIMCLRD
 70
     0
  9
$DIMCLRE
 70
     0
  9
$DIMCLRT
 70
     0
  9
$DIMTFAC
 40
1.0
  9
$DIMGAP
 40
0.09
  9
$DIMJUST
 70
     0
  9
$DIMSD1
 70
     0
  9
$DIMSD2
 70
     0
  9
$DIMTOLJ
 70
     1
  9
$DIMTZIN
 70
     0
  9
$DIMALTZ
 70
     0
  9
$DIMALTTZ
 70
     0
  9
$DIMFIT
 70
     3
  9
$DIMUPT
 70
     0
  9
$DIMUNIT
 70
     2
  9
$DIMDEC
 70
     4
  9
$DIMTDEC
 70
     4
  9
$DIMALTU
 70
     2
  9
$DIMALTTD
 70
     2
  9
$DIMTXSTY
  7
STANDARD
  9
$DIMAUNIT
 70
     0
  9
$LUNITS
 70
     2
  9
$LUPREC
 70
     3
  9
$SKETCHINC
 40
0.1
  9
$FILLETRAD
 40
0.01
  9
$AUNITS
 70
     0
  9
$AUPREC
 70
     0
  9
$MENU
  1
a
  9
$ELEVATION
 40
0.0
  9
$PELEVATION
 40
0.0
  9
$THICKNESS
 40
0.0
  9
$LIMCHECK
 70
     0
  9
$BLIPMODE
 70
     0
  9
$CHAMFERA
 40
0.0
  9
$CHAMFERB
 40
0.0
  9
$CHAMFERC
 40
0.0
  9
$CHAMFERD
 40
0.0
  9
$SKPOLY
 70
     0
  9
$TDCREATE
 40
2449701.532158680
  9
$TDUPDATE
 40
2449756.606404745
  9
$TDINDWG
 40
0.0069539352
  9
$TDUSRTIMER
 40
0.0069539352
  9
$USRTIMER
 70
     1
  9
$ANGBASE
 50
0.0
  9
$ANGDIR
 70
     0
  9
$PDMODE
 70
     0
  9
$PDSIZE
 40
0.0
  9
$PLINEWID
 40
0.0
  9
$COORDS
 70
     2
  9
$SPLFRAME
 70
     0
  9
$SPLINETYPE
 70
     6
  9
$SPLINESEGS
 70
     8
  9
$ATTDIA
 70
     0
  9
$ATTREQ
 70
     1
  9
$HANDLING
 70
     1
  9
$HANDSEED
  5
19C
  9
$SURFTAB1
 70
     6
  9
$SURFTAB2
 70
     6
  9
$SURFTYPE
 70
     6
  9
$SURFU
 70
     6
  9
$SURFV
 70
     6
  9
$UCSNAME
  2

  9
$UCSORG
 10
0.0
 20
0.0
 30
0.0
  9
$UCSXDIR
 10
1.0
 20
0.0
 30
0.0
  9
$UCSYDIR
 10
0.0
 20
1.0
 30
0.0
  9
$PUCSNAME
  2

  9
$PUCSORG
 10
0.0
 20
0.0
 30
0.0
  9
$PUCSXDIR
 10
1.0
 20
0.0
 30
0.0
  9
$PUCSYDIR
 10
0.0
 20
1.0
 30
0.0
  9
$USERI1
 70
     0
  9
$USERI2
 70
     0
  9
$USERI3
 70
     0
  9
$USERI4
 70
     0
  9
$USERI5
 70
     0
  9
$USERR1
 40
0.0
  9
$USERR2
 40
0.0
  9
$USERR3
 40
0.0
  9
$USERR4
 40
0.0
  9
$USERR5
 40
0.0
  9
$WORLDVIEW
 70
     1
  9
$SHADEDGE
 70
     3
  9
$SHADEDIF
 70
    70
  9
$TILEMODE
 70
     1
  9
$MAXACTVP
 70
    16
  9
$PINSBASE
 10
0.0
 20
0.0
 30
0.0
  9
$PLIMCHECK
 70
     0
  9
$PEXTMIN
 10
1.000000E+20
 20
1.000000E+20
 30
1.000000E+20
  9
$PEXTMAX
 10
-1.000000E+20
 20
-1.000000E+20
 30
-1.000000E+20
  9
$PLIMMIN
 10
0.0
 20
0.0
  9
$PLIMMAX
 10
12.0
 20
9.0
  9
$UNITMODE
 70
     0
  9
$VISRETAIN
 70
     0
  9
$PLINEGEN
 70
     0
  9
$PSLTSCALE
 70
     0
  9
$TREEDEPTH
 70
  3020
  9
$PICKSTYLE
 70
     1
  9
$CMLSTYLE
  2
STANDARD
  9
$CMLJUST
 70
     0
  9
$CMLSCALE
 40
1.0
  9
$SAVEIMAGES
 70
     0
  0
ENDSEC
  0
SECTION
  2
CLASSES
  0
ENDSEC
  0
SECTION
  2
TABLES
  0
TABLE
  2
VPORT
  5
8
100
AcDbSymbolTable
 70
     2
  0
VPORT
  5
19B
100
AcDbSymbolTableRecord
100
AcDbViewportTableRecord
  2
*ACTIVE
 70
     0
 10
0.0
 20
0.0
 11
1.0
 21
1.0
 12
2.734801
 22
2.467672
 13
0.0
 23
0.0
 14
1.0
 24
1.0
 15
0.0
 25
0.0
 16
0.0
 26
0.0
 36
1.0
 17
0.0
 27
0.0
 37
0.0
 40
3.920605
 41
1.426117
 42
50.0
 43
0.0
 44
0.0
 50
0.0
 51
0.0
 71
     0
 72
   100
 73
     1
 74
     0
 75
     0
 76
     0
 77
     0
 78
     0
  0
ENDTAB
  0
TABLE
  2
LTYPE
  5
5
100
AcDbSymbolTable
 70
     1
  0
LTYPE
  5
12
100
AcDbSymbolTableRecord
100
AcDbLinetypeTableRecord
  2
BYBLOCK
 70
     0
  3

 72
    65
 73
     0
 40
0.0
  0
LTYPE
  5
13
100
AcDbSymbolTableRecord
100
AcDbLinetypeTableRecord
  2
BYLAYER
 70
     0
  3

 72
    65
 73
     0
 40
0.0
  0
LTYPE
  5
14
100
AcDbSymbolTableRecord
100
AcDbLinetypeTableRecord
  2
CONTINUOUS
 70
    64
  3
Solid line
 72
    65
 73
     0
 40
0.0
  0
ENDTAB
  0
TABLE
  2
LAYER
  5
2
100
AcDbSymbolTable
 70
     1
  0
LAYER
  5
F
100
AcDbSymbolTableRecord
100
AcDbLayerTableRecord
  2
0
 70
    64
 62
     7
  6
CONTINUOUS
  0
ENDTAB
  0
TABLE
  2
STYLE
  5
3
100
AcDbSymbolTable
 70
     1
  0
STYLE
  5
10
100
AcDbSymbolTableRecord
100
AcDbTextStyleTableRecord
  2
STANDARD
 70
    64
 40
0.0
 41
1.0
 50
0.0
 71
     0
 42
0.090823
  3
txt
  4

  0
ENDTAB
  0
TABLE
  2
VIEW
  5
6
100
AcDbSymbolTable
 70
     0
  0
ENDTAB
  0
TABLE
  2
UCS
  5
7
100
AcDbSymbolTable
 70
     0
  0
ENDTAB
  0
TABLE
  2
APPID
  5
9
100
AcDbSymbolTable
 70
     1
  0
APPID
  5
11
100
AcDbSymbolTableRecord
100
AcDbRegAppTableRecord
  2
ACAD
 70
     0
  0
ENDTAB
  0
TABLE
  2
DIMSTYLE
  5
A
100
AcDbSymbolTable
 70
     1
  0
DIMSTYLE
105
196
100
AcDbSymbolTableRecord
100
AcDbDimStyleTableRecord
  2
STANDARD
 70
     0
  3

  4

  5

  6

  7

 40
1.0
 41
0.18
 42
0.0625
 43
0.38
 44
0.18
 45
0.0
 46
0.0
 47
0.0
 48
0.0
140
0.18
141
0.09
142
0.0
143
25.4
144
1.0
145
0.0
146
1.0
147
0.09
 71
     0
 72
     0
 73
     1
 74
     1
 75
     0
 76
     0
 77
     0
 78
     0
170
     0
171
     2
172
     0
173
     0
174
     0
175
     0
176
     0
177
     0
178
     0
270
     2
271
     4
272
     4
273
     2
274
     2
340
10
275
     0
280
     0
281
     0
282
     0
283
     1
284
     0
285
     0
286
     0
287
     3
288
     0
  0
ENDTAB
  0
TABLE
  2
BLOCK_RECORD
  5
1
100
AcDbSymbolTable
 70
     0
  0
BLOCK_RECORD
  5
18
100
AcDbSymbolTableRecord
100
AcDbBlockTableRecord
  2
*MODEL_SPACE
  0
BLOCK_RECORD
  5
15
100
AcDbSymbolTableRecord
100
AcDbBlockTableRecord
  2
*PAPER_SPACE
  0
ENDTAB
  0
ENDSEC
  0
SECTION
  2
BLOCKS
  0
BLOCK
  5
22
100
AcDbEntity
  8
0
100
AcDbBlockBegin
  2
*MODEL_SPACE
 70
     0
 10
0.0
 20
0.0
 30
0.0
  3
*MODEL_SPACE
  1

  0
ENDBLK
  5
23
100
AcDbEntity
  8
0
100
AcDbBlockEnd
  0
BLOCK
  5
20
100
AcDbEntity
 67
     1
  8
0
100
AcDbBlockBegin
  2
*PAPER_SPACE
 70
     0
 10
0.0
 20
0.0
 30
0.0
  3
*PAPER_SPACE
  1

  0
ENDBLK
  5
21
100
AcDbEntity
 67
     1
  8
0
100
AcDbBlockEnd
  0
ENDSEC
  0
SECTION
  2
ENTITIES
  0
CIRCLE
  5
24
100
AcDbEntity
  8
0
100
AcDbCircle
 10
2.525
 20
2.525
 30
0.0
 40
1.749757
  0
ARC
  5
25
100
AcDbEntity
  8
0
100
AcDbCircle
 10
2.525
 20
2.961573
 30
0.0
 40
1.261211
100
AcDbArc
 50
331.746193
 51
358.110786
  0
ARC
  5
26
100
AcDbEntity
  8
0
100
AcDbCircle
 10
2.525
 20
2.961573
 30
0.0
 40
1.178054
100
AcDbArc
 50
274.806091
 51
357.977376
  0
LINE
  5
27
100
AcDbEntity
  8
0
100
AcDbLine
 10
2.783085
 20
3.80561
 30
0.0
 11
3.075254
 21
3.963869
 31
0.0
  0
LINE
  5
28
100
AcDbEntity
  8
0
100
AcDbLine
 10
2.919077
 20
3.779882
 30
0.0
 11
2.783085
 21
3.80561
 31
0.0
  0
LINE
  5
29
100
AcDbEntity
  8
0
100
AcDbLine
 10
2.454643
 20
3.556395
 30
0.0
 11
2.919077
 21
3.779882
 31
0.0
  0
LINE
  5
2A
100
AcDbEntity
  8
0
100
AcDbLine
 10
2.751196
 20
3.493086
 30
0.0
 11
2.454643
 21
3.556395
 31
0.0
  0
LINE
  5
2B
100
AcDbEntity
  8
0
100
AcDbLine
 10
2.208456
 20
3.17495
 30
0.0
 11
2.751196
 21
3.493086
 31
0.0
  0
LINE
  5
2C
100
AcDbEntity
  8
0
100
AcDbLine
 10
2.568081
 20
3.197307
 30
0.0
 11
2.208456
 21
3.17495
 31
0.0
  0
LINE
  5
2D
100
AcDbEntity
  8
0
100
AcDbLine
 10
2.02355
 20
2.784573
 30
0.0
 11
2.568081
 21
3.197307
 31
0.0
  0
LINE
  5
2E
100
AcDbEntity
  8
0
100
AcDbLine
 10
2.35849
 20
2.804276
 30
0.0
 11
2.02355
 21
2.784573
 31
0.0
  0
LINE
  5
2F
100
AcDbEntity
  8
0
100
AcDbLine
 10
2.014124
 20
2.480572
 30
0.0
 11
2.35849
 21
2.804276
 31
0.0
  0
LINE
  5
30
100
AcDbEntity
  8
0
100
AcDbLine
 10
2.243415
 20
2.498439
 30
0.0
 11
2.014124
 21
2.480572
 31
0.0
  0
LINE
  5
31
100
AcDbEntity
  8
0
100
AcDbLine
 10
1.995579
 20
1.995369
 30
0.0
 11
2.243415
 21
2.498439
 31
0.0
  0
POINT
  5
32
100
AcDbEntity
  8
0
100
AcDbPoint
 10
2.334432
 20
2.136935
 30
0.0
  0
LINE
  5
33
100
AcDbEntity
  8
0
100
AcDbLine
 10
2.334432
 20
2.136935
 30
0.0
 11
2.230486
 21
2.188908
 31
0.0
  0
LINE
  5
34
100
AcDbEntity
  8
0
100
AcDbLine
 10
2.230486
 20
2.188908
 30
0.0
 11
2.566578
 21
2.337897
 31
0.0
  0
LINE
  5
35
100
AcDbEntity
  8
0
100
AcDbLine
 10
2.566578
 20
2.337897
 30
0.0
 11
2.380862
 21
2.382941
 31
0.0
  0
LINE
  5
36
100
AcDbEntity
  8
0
100
AcDbLine
 10
2.380862
 20
2.382941
 30
0.0
 11
2.900591
 21
2.6532
 31
0.0
  0
LINE
  5
37
100
AcDbEntity
  8
0
100
AcDbLine
 10
2.900591
 20
2.6532
 30
0.0
 11
2.528465
 21
2.656665
 31
0.0
  0
LINE
  5
38
100
AcDbEntity
  8
0
100
AcDbLine
 10
2.528465
 20
2.656665
 30
0.0
 11
3.04473
 21
3.003151
 31
0.0
  0
LINE
  5
39
100
AcDbEntity
  8
0
100
AcDbLine
 10
3.04473
 20
3.003151
 30
0.0
 11
2.611622
 21
2.987213
 31
0.0
  0
LINE
  5
3A
100
AcDbEntity
  8
0
100
AcDbLine
 10
2.611622
 20
2.987213
 30
0.0
 11
3.101554
 21
3.333699
 31
0.0
  0
LINE
  5
3B
100
AcDbEntity
  8
0
100
AcDbLine
 10
3.101554
 20
3.333699
 30
0.0
 11
2.759918
 21
3.371813
 31
0.0
  0
LINE
  5
3C
100
AcDbEntity
  8
0
100
AcDbLine
 10
2.759918
 20
3.371813
 30
0.0
 11
3.109869
 21
3.689195
 31
0.0
  0
LINE
  5
3D
100
AcDbEntity
  8
0
100
AcDbLine
 10
3.109869
 20
3.689195
 30
0.0
 11
2.892276
 21
3.637222
 31
0.0
  0
LINE
  5
3E
100
AcDbEntity
  8
0
100
AcDbLine
 10
2.892276
 20
3.637222
 30
0.0
 11
3.075254
 21
3.963869
 31
0.0
  0
ARC
  5
3F
100
AcDbEntity
  8
0
100
AcDbCircle
 10
2.525
 20
1.667099
 30
0.0
 40
0.003465
100
AcDbArc
 50
180.0
 51
0.0
  0
LINE
  5
40
100
AcDbEntity
  8
0
100
AcDbLine
 10
2.528465
 20
1.667099
 30
0.0
 11
2.528465
 21
1.684081
 31
0.0
  0
LINE
  5
41
100
AcDbEntity
  8
0
100
AcDbLine
 10
2.521535
 20
1.667099
 30
0.0
 11
2.521535
 21
1.684081
 31
0.0
  0
ARC
  5
42
100
AcDbEntity
  8
0
100
AcDbCircle
 10
2.632411
 20
1.684081
 30
0.0
 40
0.103946
100
AcDbArc
 50
94.806091
 51
180.0
  0
ARC
  5
43
100
AcDbEntity
  8
0
100
AcDbCircle
 10
2.417589
 20
1.684081
 30
0.0
 40
0.103946
100
AcDbArc
 50
0.0
 51
85.193909
  0
LINE
  5
44
100
AcDbEntity
  8
0
100
AcDbLine
 10
1.995579
 20
1.995369
 30
0.0
 11
2.334432
 21
2.136935
 31
0.0
  0
ARC
  5
45
100
AcDbEntity
  8
0
100
AcDbCircle
 10
3.393373
 20
1.885366
 30
0.0
 40
0.15183
100
AcDbArc
 50
279.692344
 51
358.921326
  0
ARC
  5
46
100
AcDbEntity
  8
0
100
AcDbCircle
 10
4.436256
 20
1.983819
 30
0.0
 40
0.886252
100
AcDbArc
 50
154.558486
 51
180.0
  0
LINE
  5
47
100
AcDbEntity
  8
0
100
AcDbLine
 10
3.545176
 20
1.882508
 30
0.0
 11
3.550004
 21
1.983819
 31
0.0
  0
ARC
  5
48
100
AcDbEntity
  8
0
100
AcDbCircle
 10
4.257673
 20
2.016714
 30
0.0
 40
0.754485
100
AcDbArc
 50
174.281449
 51
185.370246
  0
ARC
  5
49
100
AcDbEntity
  8
0
100
AcDbCircle
 10
3.264591
 20
1.92336
 30
0.0
 40
0.242975
100
AcDbArc
 50
309.436799
 51
5.370246
  0
ARC
  5
4A
100
AcDbEntity
  8
0
100
AcDbCircle
 10
3.921718
 20
1.943007
 30
0.0
 40
0.440687
100
AcDbArc
 50
160.254199
 51
179.465447
  0
ARC
  5
4B
100
AcDbEntity
  8
0
100
AcDbCircle
 10
3.266271
 20
1.949122
 30
0.0
 40
0.214788
100
AcDbArc
 50
303.99562
 51
359.465447
  0
ARC
  5
4C
100
AcDbEntity
  8
0
100
AcDbCircle
 10
2.351674
 20
2.81233
 30
0.0
 40
1.309601
100
AcDbArc
 50
331.063887
 51
335.90138
  0
ARC
  5
4D
100
AcDbEntity
  8
0
100
AcDbCircle
 10
3.083213
 20
1.986204
 30
0.0
 40
0.371746
100
AcDbArc
 50
324.63524
 51
1.983076
  0
ARC
  5
4E
100
AcDbEntity
  8
0
100
AcDbCircle
 10
3.912248
 20
1.902674
 30
0.0
 40
0.523339
100
AcDbArc
 50
134.239658
 51
151.911729
  0
ARC
  5
4F
100
AcDbEntity
  8
0
100
AcDbCircle
 10
3.801015
 20
2.011058
 30
0.0
 40
0.346486
100
AcDbArc
 50
151.063887
 51
181.983076
  0
ARC
  5
50
100
AcDbEntity
  8
0
100
AcDbCircle
 10
3.045914
 20
1.996391
 30
0.0
 40
0.363902
100
AcDbArc
 50
325.36606
 51
359.157223
  0
ARC
  5
51
100
AcDbEntity
  8
0
100
AcDbCircle
 10
3.756225
 20
1.985942
 30
0.0
 40
0.346486
100
AcDbArc
 50
151.911729
 51
179.157223
  0
ARC
  5
52
100
AcDbEntity
  8
0
100
AcDbCircle
 10
3.277836
 20
1.841897
 30
0.0
 40
0.085947
100
AcDbArc
 50
233.147014
 51
308.999761
  0
ARC
  5
53
100
AcDbEntity
  8
0
100
AcDbCircle
 10
3.288314
 20
1.828958
 30
0.0
 40
0.069297
100
AcDbArc
 50
308.999761
 51
325.36606
  0
ARC
  5
54
100
AcDbEntity
  8
0
100
AcDbCircle
 10
3.026357
 20
1.401912
 30
0.0
 40
0.421629
100
AcDbArc
 50
61.693402
 51
143.566764
  0
ARC
  5
55
100
AcDbEntity
  8
0
100
AcDbCircle
 10
2.380114
 20
7.694312
 30
0.0
 40
6.096351
100
AcDbArc
 50
273.136293
 51
278.736473
  0
POINT
  5
56
100
AcDbEntity
  8
0
100
AcDbPoint
 10
3.162535
 20
1.617205
 30
0.0
  0
ARC
  5
57
100
AcDbEntity
  8
0
100
AcDbCircle
 10
3.307141
 20
1.661846
 30
0.0
 40
0.00693
100
AcDbArc
 50
292.893056
 51
98.736473
  0
LINE
  5
58
100
AcDbEntity
  8
0
100
AcDbLine
 10
3.187618
 20
1.607088
 30
0.0
 11
3.162535
 21
1.617205
 31
0.0
  0
LINE
  5
59
100
AcDbEntity
  8
0
100
AcDbLine
 10
3.228476
 20
1.524316
 30
0.0
 11
3.210834
 21
1.460652
 31
0.0
  0
LINE
  5
5A
100
AcDbEntity
  8
0
100
AcDbLine
 10
3.070574
 20
1.359231
 30
0.0
 11
2.97095
 21
1.364051
 31
0.0
  0
ARC
  5
5B
100
AcDbEntity
  8
0
100
AcDbCircle
 10
3.161695
 20
1.542822
 30
0.0
 40
0.069297
100
AcDbArc
 50
344.511499
 51
68.032757
  0
ARC
  5
5C
100
AcDbEntity
  8
0
100
AcDbCircle
 10
3.077273
 20
1.497663
 30
0.0
 40
0.138595
100
AcDbArc
 50
267.229784
 51
344.511499
  0
LINE
  5
5D
100
AcDbEntity
  8
0
100
AcDbLine
 10
2.819514
 20
1.267254
 30
0.0
 11
2.962643
 21
1.361773
 31
0.0
  0
ARC
  5
5E
100
AcDbEntity
  8
0
100
AcDbCircle
 10
2.97028
 20
1.350208
 30
0.0
 40
0.013859
100
AcDbArc
 50
87.229784
 51
123.439869
  0
LINE
  5
5F
100
AcDbEntity
  8
0
100
AcDbLine
 10
2.926999
 20
1.252166
 30
0.0
 11
2.933854
 21
1.202808
 31
0.0
  0
LINE
  5
60
100
AcDbEntity
  8
0
100
AcDbLine
 10
2.933854
 20
1.202808
 30
0.0
 11
2.91653
 21
1.184097
 31
0.0
  0
ARC
  5
61
100
AcDbEntity
  8
0
100
AcDbCircle
 10
2.85614
 20
1.425917
 30
0.0
 40
0.162836
100
AcDbArc
 50
257.001307
 51
285.887512
  0
ARC
  5
62
100
AcDbEntity
  8
0
100
AcDbCircle
 10
2.906407
 20
1.249306
 30
0.0
 40
0.020789
100
AcDbArc
 50
7.907163
 51
105.887512
  0
ARC
  5
63
100
AcDbEntity
  8
0
100
AcDbCircle
 10
2.893594
 20
1.163192
 30
0.0
 40
0.021796
100
AcDbArc
 50
211.126894
 51
356.963933
  0
LINE
  5
64
100
AcDbEntity
  8
0
100
AcDbLine
 10
2.861785
 20
1.173703
 30
0.0
 11
2.874936
 21
1.151925
 31
0.0
  0
LINE
  5
65
100
AcDbEntity
  8
0
100
AcDbLine
 10
2.91653
 20
1.184097
 30
0.0
 11
2.91536
 21
1.162038
 31
0.0
  0
LINE
  5
66
100
AcDbEntity
  8
0
100
AcDbLine
 10
2.861785
 20
1.173703
 30
0.0
 11
2.843285
 21
1.137777
 31
0.0
  0
LINE
  5
67
100
AcDbEntity
  8
0
100
AcDbLine
 10
2.843285
 20
1.137777
 30
0.0
 11
2.779937
 21
1.074524
 31
0.0
  0
POINT
  5
68
100
AcDbEntity
  8
0
100
AcDbPoint
 10
2.259591
 20
1.284578
 30
0.0
  0
LINE
  5
69
100
AcDbEntity
  8
0
100
AcDbLine
 10
2.368162
 20
1.057982
 30
0.0
 11
2.400671
 21
1.071597
 31
0.0
  0
LINE
  5
6A
100
AcDbEntity
  8
0
100
AcDbLine
 10
2.456232
 20
1.067917
 30
0.0
 11
2.475587
 21
1.056606
 31
0.0
  0
LINE
  5
6B
100
AcDbEntity
  8
0
100
AcDbLine
 10
2.490786
 20
1.054306
 30
0.0
 11
2.501375
 21
1.056769
 31
0.0
  0
LINE
  5
6C
100
AcDbEntity
  8
0
100
AcDbLine
 10
2.520679
 20
1.051324
 30
0.0
 11
2.550057
 21
1.022361
 31
0.0
  0
LINE
  5
6D
100
AcDbEntity
  8
0
100
AcDbLine
 10
2.57564
 20
1.019517
 30
0.0
 11
2.605549
 21
1.038139
 31
0.0
  0
LINE
  5
6E
100
AcDbEntity
  8
0
100
AcDbLine
 10
2.666406
 20
1.040979
 30
0.0
 11
2.681046
 21
1.033658
 31
0.0
  0
LINE
  5
6F
100
AcDbEntity
  8
0
100
AcDbLine
 10
2.703873
 20
1.036469
 30
0.0
 11
2.742115
 21
1.069248
 31
0.0
  0
LINE
  5
70
100
AcDbEntity
  8
0
100
AcDbLine
 10
2.752813
 20
1.072482
 30
0.0
 11
2.768467
 21
1.070573
 31
0.0
  0
ARC
  5
71
100
AcDbEntity
  8
0
100
AcDbCircle
 10
2.486076
 20
1.074555
 30
0.0
 40
0.020789
100
AcDbArc
 50
239.697319
 51
283.091893
  0
ARC
  5
72
100
AcDbEntity
  8
0
100
AcDbCircle
 10
2.690343
 20
1.052253
 30
0.0
 40
0.020789
100
AcDbArc
 50
243.434949
 51
310.601295
  0
ARC
  5
73
100
AcDbEntity
  8
0
100
AcDbCircle
 10
2.564652
 20
1.037165
 30
0.0
 40
0.020789
100
AcDbArc
 50
225.406346
 51
301.908107
  0
ARC
  5
74
100
AcDbEntity
  8
0
100
AcDbCircle
 10
2.506084
 20
1.03652
 30
0.0
 40
0.020789
100
AcDbArc
 50
45.406346
 51
103.091893
  0
ARC
  5
75
100
AcDbEntity
  8
0
100
AcDbCircle
 10
2.638514
 20
0.985195
 30
0.0
 40
0.062368
100
AcDbArc
 50
63.434949
 51
121.908107
  0
ARC
  5
76
100
AcDbEntity
  8
0
100
AcDbCircle
 10
2.424764
 20
1.014071
 30
0.0
 40
0.062368
100
AcDbArc
 50
59.697319
 51
112.724102
  0
ARC
  5
77
100
AcDbEntity
  8
0
100
AcDbCircle
 10
2.360131
 20
1.077158
 30
0.0
 40
0.020789
100
AcDbArc
 50
200.68559
 51
292.724102
  0
ARC
  5
78
100
AcDbEntity
  8
0
100
AcDbCircle
 10
2.770144
 20
1.084331
 30
0.0
 40
0.013859
100
AcDbArc
 50
263.047043
 51
314.957655
  0
ARC
  5
79
100
AcDbEntity
  8
0
100
AcDbCircle
 10
2.751135
 20
1.058725
 30
0.0
 40
0.013859
100
AcDbArc
 50
83.047043
 51
130.601295
  0
ARC
  5
7A
100
AcDbEntity
  8
0
100
AcDbCircle
 10
2.061144
 20
1.436597
 30
0.0
 40
0.087145
100
AcDbArc
 50
92.565359
 51
237.253902
  0
ARC
  5
7B
100
AcDbEntity
  8
0
100
AcDbCircle
 10
2.213118
 20
1.420966
 30
0.0
 40
0.144089
100
AcDbArc
 50
215.186324
 51
288.816286
  0
ARC
  5
7C
100
AcDbEntity
  8
0
100
AcDbCircle
 10
2.068779
 20
1.393979
 30
0.0
 40
0.062025
100
AcDbArc
 50
238.036012
 51
295.372603
  0
LINE
  5
7D
100
AcDbEntity
  8
0
100
AcDbLine
 10
2.035944
 20
1.341359
 30
0.0
 11
2.014006
 21
1.363302
 31
0.0
  0
ARC
  5
7E
100
AcDbEntity
  8
0
100
AcDbCircle
 10
2.161087
 20
2.283731
 30
0.0
 40
0.704697
100
AcDbArc
 50
261.924595
 51
289.349274
  0
LINE
  5
7F
100
AcDbEntity
  8
0
100
AcDbLine
 10
2.394572
 20
1.618838
 30
0.0
 11
2.408596
 21
1.56783
 31
0.0
  0
LINE
  5
80
100
AcDbEntity
  8
0
100
AcDbLine
 10
2.44226
 20
1.57742
 30
0.0
 11
2.449782
 21
1.601247
 31
0.0
  0
POINT
  5
81
100
AcDbEntity
  8
0
100
AcDbPoint
 10
1.913105
 20
1.764116
 30
0.0
  0
ARC
  5
82
100
AcDbEntity
  8
0
100
AcDbCircle
 10
2.046929
 20
1.079124
 30
0.0
 40
0.697942
100
AcDbArc
 50
56.994158
 51
101.018135
  0
ARC
  5
83
100
AcDbEntity
  8
0
100
AcDbCircle
 10
2.396917
 20
1.617937
 30
0.0
 40
0.055438
100
AcDbArc
 50
342.478347
 51
56.994158
  0
LINE
  5
84
100
AcDbEntity
  8
0
100
AcDbLine
 10
1.691921
 20
1.907758
 30
0.0
 11
1.784998
 21
1.806465
 31
0.0
  0
ARC
  5
85
100
AcDbEntity
  8
0
100
AcDbCircle
 10
1.732742
 20
1.945268
 30
0.0
 40
0.055438
100
AcDbArc
 50
163.134569
 51
222.579556
  0
POINT
  5
86
100
AcDbEntity
  8
0
100
AcDbPoint
 10
1.707292
 20
1.78837
 30
0.0
  0
ARC
  5
87
100
AcDbEntity
  8
0
100
AcDbCircle
 10
1.237277
 20
2.083623
 30
0.0
 40
0.458996
100
AcDbArc
 50
344.55063
 51
5.331461
  0
LINE
  5
88
100
AcDbEntity
  8
0
100
AcDbLine
 10
1.707292
 20
1.78837
 30
0.0
 11
1.656844
 21
1.870827
 31
0.0
  0
ARC
  5
89
100
AcDbEntity
  8
0
100
AcDbCircle
 10
1.765206
 20
1.930019
 30
0.0
 40
0.123474
100
AcDbArc
 50
153.475752
 51
208.645318
  0
ARC
  5
8A
100
AcDbEntity
  8
0
100
AcDbCircle
 10
1.182619
 20
2.124013
 30
0.0
 40
0.492104
100
AcDbArc
 50
343.610718
 51
357.325382
  0
ARC
  5
8B
100
AcDbEntity
  8
0
100
AcDbCircle
 10
2.525
 20
2.961573
 30
0.0
 40
1.178054
100
AcDbArc
 50
225.157844
 51
265.193909
  0
ARC
  5
8C
100
AcDbEntity
  8
0
100
AcDbCircle
 10
1.742838
 20
1.924658
 30
0.0
 40
0.140848
100
AcDbArc
 50
179.060069
 51
255.382021
  0
LINE
  5
8D
100
AcDbEntity
  8
0
100
AcDbLine
 10
1.602009
 20
1.926969
 30
0.0
 11
1.602009
 21
1.930274
 31
0.0
  0
ARC
  5
8E
100
AcDbEntity
  8
0
100
AcDbCircle
 10
1.382533
 20
2.057483
 30
0.0
 40
0.243594
100
AcDbArc
 50
338.529199
 51
35.600144
  0
ARC
  5
8F
100
AcDbEntity
  8
0
100
AcDbCircle
 10
1.570355
 20
2.1059
 30
0.0
 40
0.103946
100
AcDbArc
 50
357.325382
 51
41.870687
  0
ARC
  5
90
100
AcDbEntity
  8
0
100
AcDbCircle
 10
1.705955
 20
1.930274
 30
0.0
 40
0.103946
100
AcDbArc
 50
158.529199
 51
180.0
  0
ARC
  5
91
100
AcDbEntity
  8
0
100
AcDbCircle
 10
2.679928
 20
3.047721
 30
0.0
 40
1.388656
100
AcDbArc
 50
195.76109
 51
217.660097
  0
ARC
  5
92
100
AcDbEntity
  8
0
100
AcDbCircle
 10
2.442684
 20
2.824436
 30
0.0
 40
1.109926
100
AcDbArc
 50
187.970773
 51
211.166752
  0
POINT
  5
93
100
AcDbEntity
  8
0
100
AcDbPoint
 10
1.696897
 20
1.676108
 30
0.0
  0
LINE
  5
94
100
AcDbEntity
  8
0
100
AcDbLine
 10
1.696897
 20
1.676108
 30
0.0
 11
1.616786
 21
1.781684
 31
0.0
  0
ARC
  5
95
100
AcDbEntity
  8
0
100
AcDbCircle
 10
1.863953
 20
1.960241
 30
0.0
 40
0.304916
100
AcDbArc
 50
170.080403
 51
215.844739
  0
ARC
  5
96
100
AcDbEntity
  8
0
100
AcDbCircle
 10
1.315988
 20
2.056069
 30
0.0
 40
0.251365
100
AcDbArc
 50
350.080403
 51
30.834244
  0
LINE
  5
97
100
AcDbEntity
  8
0
100
AcDbLine
 10
1.492959
 20
2.250015
 30
0.0
 11
1.531824
 21
2.184908
 31
0.0
  0
ARC
  5
98
100
AcDbEntity
  8
0
100
AcDbCircle
 10
1.787693
 20
1.946434
 30
0.0
 40
0.285166
100
AcDbArc
 50
184.442853
 51
251.434049
  0
LINE
  5
99
100
AcDbEntity
  8
0
100
AcDbLine
 10
1.499746
 20
1.969084
 30
0.0
 11
1.503384
 21
1.924343
 31
0.0
  0
ARC
  5
9A
100
AcDbEntity
  8
0
100
AcDbCircle
 10
0.874174
 20
2.014135
 30
0.0
 40
0.627192
100
AcDbArc
 50
355.880893
 51
21.004932
  0
LINE
  5
9B
100
AcDbEntity
  8
0
100
AcDbLine
 10
1.459689
 20
2.238951
 30
0.0
 11
1.362872
 21
2.47156
 31
0.0
  0
LINE
  5
9C
100
AcDbEntity
  8
0
100
AcDbLine
 10
2.594297
 20
1.208351
 30
0.0
 11
2.65323
 21
1.250446
 31
0.0
  0
ARC
  5
9D
100
AcDbEntity
  8
0
100
AcDbCircle
 10
2.934752
 20
1.31603
 30
0.0
 40
0.357077
100
AcDbArc
 50
153.537797
 51
174.233009
  0
ARC
  5
9E
100
AcDbEntity
  8
0
100
AcDbCircle
 10
3.177243
 20
1.497454
 30
0.0
 40
0.562599
100
AcDbArc
 50
186.305568
 51
203.228853
  0
ARC
  5
9F
100
AcDbEntity
  8
0
100
AcDbCircle
 10
1.927889
 20
1.508497
 30
0.0
 40
0.542497
100
AcDbArc
 50
338.129125
 51
352.537661
  0
ARC
  5
A0
100
AcDbEntity
  8
0
100
AcDbCircle
 10
2.450633
 20
1.298664
 30
0.0
 40
0.020789
100
AcDbArc
 50
158.129125
 51
219.978539
  0
ARC
  5
A1
100
AcDbEntity
  8
0
100
AcDbCircle
 10
2.641146
 20
1.267363
 30
0.0
 40
0.020789
100
AcDbArc
 50
305.537678
 51
23.228853
  0
LINE
  5
A2
100
AcDbEntity
  8
0
100
AcDbLine
 10
2.976866
 20
1.203575
 30
0.0
 11
2.965667
 21
1.290115
 31
0.0
  0
LINE
  5
A3
100
AcDbEntity
  8
0
100
AcDbLine
 10
2.990172
 20
1.20189
 30
0.0
 11
3.02502
 21
1.289011
 31
0.0
  0
ARC
  5
A4
100
AcDbEntity
  8
0
100
AcDbCircle
 10
2.996222
 20
1.238977
 30
0.0
 40
0.064093
100
AcDbArc
 50
66.968181
 51
114.475103
  0
ARC
  5
A5
100
AcDbEntity
  8
0
100
AcDbCircle
 10
3.018586
 20
1.291584
 30
0.0
 40
0.00693
100
AcDbArc
 50
338.198591
 51
66.968181
  0
ARC
  5
A6
100
AcDbEntity
  8
0
100
AcDbCircle
 10
2.972539
 20
1.291004
 30
0.0
 40
0.00693
100
AcDbArc
 50
114.475103
 51
187.373766
  0
ARC
  5
A7
100
AcDbEntity
  8
0
100
AcDbCircle
 10
2.983738
 20
1.204464
 30
0.0
 40
0.00693
100
AcDbArc
 50
187.373766
 51
338.198591
  0
LINE
  5
A8
100
AcDbEntity
  8
0
100
AcDbLine
 10
2.942948
 20
1.153705
 30
0.0
 11
2.961111
 21
1.089179
 31
0.0
  0
ARC
  5
A9
100
AcDbEntity
  8
0
100
AcDbCircle
 10
3.235093
 20
1.047165
 30
0.0
 40
0.323545
100
AcDbArc
 50
160.696797
 51
187.79161
  0
ARC
  5
AA
100
AcDbEntity
  8
0
100
AcDbCircle
 10
2.936277
 20
1.151828
 30
0.0
 40
0.00693
100
AcDbArc
 50
15.720928
 51
160.696797
  0
ARC
  5
AB
100
AcDbEntity
  8
0
100
AcDbCircle
 10
2.865973
 20
1.074333
 30
0.0
 40
0.096289
100
AcDbArc
 50
308.336683
 51
8.869252
  0
ARC
  5
AC
100
AcDbEntity
  8
0
100
AcDbCircle
 10
2.921401
 20
1.004241
 30
0.0
 40
0.00693
100
AcDbArc
 50
187.79161
 51
308.336683
  0
ARC
  5
AD
100
AcDbEntity
  8
0
100
AcDbCircle
 10
2.628152
 20
0.994469
 30
0.0
 40
0.249078
100
AcDbArc
 50
336.921011
 51
23.429267
  0
ARC
  5
AE
100
AcDbEntity
  8
0
100
AcDbCircle
 10
2.838473
 20
0.902208
 30
0.0
 40
0.019575
100
AcDbArc
 50
191.412415
 51
344.055741
  0
ARC
  5
AF
100
AcDbEntity
  8
0
100
AcDbCircle
 10
3.047604
 20
0.977071
 30
0.0
 40
0.241513
100
AcDbArc
 50
165.803282
 51
199.026771
  0
LINE
  5
B0
100
AcDbEntity
  8
0
100
AcDbLine
 10
2.813467
 20
1.036302
 30
0.0
 11
2.844219
 21
1.09401
 31
0.0
  0
ARC
  5
B1
100
AcDbEntity
  8
0
100
AcDbCircle
 10
2.850335
 20
1.090751
 30
0.0
 40
0.00693
100
AcDbArc
 50
23.429267
 51
151.947032
  0
ARC
  5
B2
100
AcDbEntity
  8
0
100
AcDbCircle
 10
2.539491
 20
0.929857
 30
0.0
 40
0.251333
100
AcDbArc
 50
352.241275
 51
24.687279
  0
ARC
  5
B3
100
AcDbEntity
  8
0
100
AcDbCircle
 10
2.75569
 20
0.9004
 30
0.0
 40
0.033137
100
AcDbArc
 50
212.995534
 51
352.241275
  0
ARC
  5
B4
100
AcDbEntity
  8
0
100
AcDbCircle
 10
2.91002
 20
0.95884
 30
0.0
 40
0.197532
100
AcDbArc
 50
160.891095
 51
202.78073
  0
ARC
  5
B5
100
AcDbEntity
  8
0
100
AcDbCircle
 10
2.751673
 20
1.009222
 30
0.0
 40
0.0317
100
AcDbArc
 50
66.483413
 51
153.221552
  0
ARC
  5
B6
100
AcDbEntity
  8
0
100
AcDbCircle
 10
2.761557
 20
1.031936
 30
0.0
 40
0.00693
100
AcDbArc
 50
24.687279
 51
66.483413
  0
LINE
  5
B7
100
AcDbEntity
  8
0
100
AcDbLine
 10
2.594355
 20
0.982949
 30
0.0
 11
2.605498
 21
0.996057
 31
0.0
  0
LINE
  5
B8
100
AcDbEntity
  8
0
100
AcDbLine
 10
2.643642
 20
1.007787
 30
0.0
 11
2.659719
 21
0.995494
 31
0.0
  0
LINE
  5
B9
100
AcDbEntity
  8
0
100
AcDbLine
 10
2.675234
 20
0.97062
 30
0.0
 11
2.687523
 21
0.909181
 31
0.0
  0
LINE
  5
BA
100
AcDbEntity
  8
0
100
AcDbLine
 10
2.688331
 20
0.901026
 30
0.0
 11
2.688331
 21
0.880023
 31
0.0
  0
LINE
  5
BB
100
AcDbEntity
  8
0
100
AcDbLine
 10
2.669585
 20
0.845275
 30
0.0
 11
2.667205
 21
0.843712
 31
0.0
  0
LINE
  5
BC
100
AcDbEntity
  8
0
100
AcDbLine
 10
2.640551
 20
0.837057
 30
0.0
 11
2.620639
 21
0.838895
 31
0.0
  0
LINE
  5
BD
100
AcDbEntity
  8
0
100
AcDbLine
 10
2.58485
 20
0.867655
 30
0.0
 11
2.581425
 21
0.878388
 31
0.0
  0
LINE
  5
BE
100
AcDbEntity
  8
0
100
AcDbLine
 10
2.579579
 20
0.894219
 30
0.0
 11
2.584578
 21
0.959208
 31
0.0
  0
LINE
  5
BF
100
AcDbEntity
  8
0
100
AcDbLine
 10
2.523608
 20
1.000523
 30
0.0
 11
2.533422
 21
0.995382
 31
0.0
  0
LINE
  5
C0
100
AcDbEntity
  8
0
100
AcDbLine
 10
2.551979
 20
0.965723
 30
0.0
 11
2.553277
 21
0.922262
 31
0.0
  0
LINE
  5
C1
100
AcDbEntity
  8
0
100
AcDbLine
 10
2.553277
 20
0.922262
 30
0.0
 11
2.549219
 21
0.855721
 31
0.0
  0
LINE
  5
C2
100
AcDbEntity
  8
0
100
AcDbLine
 10
2.541137
 20
0.835511
 30
0.0
 11
2.539967
 21
0.834121
 31
0.0
  0
LINE
  5
C3
100
AcDbEntity
  8
0
100
AcDbLine
 10
2.523823
 20
0.830346
 30
0.0
 11
2.500762
 21
0.840409
 31
0.0
  0
LINE
  5
C4
100
AcDbEntity
  8
0
100
AcDbLine
 10
2.480006
 20
0.870578
 30
0.0
 11
2.476464
 21
0.947792
 31
0.0
  0
LINE
  5
C5
100
AcDbEntity
  8
0
100
AcDbLine
 10
2.477384
 20
0.957466
 30
0.0
 11
2.485697
 21
0.992099
 31
0.0
  0
LINE
  5
C6
100
AcDbEntity
  8
0
100
AcDbLine
 10
2.383204
 20
1.011884
 30
0.0
 11
2.388031
 21
1.017268
 31
0.0
  0
LINE
  5
C7
100
AcDbEntity
  8
0
100
AcDbLine
 10
2.415904
 20
1.028724
 30
0.0
 11
2.419193
 21
1.028527
 31
0.0
  0
LINE
  5
C8
100
AcDbEntity
  8
0
100
AcDbLine
 10
2.451295
 20
0.999637
 30
0.0
 11
2.455315
 21
0.975518
 31
0.0
  0
LINE
  5
C9
100
AcDbEntity
  8
0
100
AcDbLine
 10
2.455315
 20
0.975518
 30
0.0
 11
2.456196
 21
0.886519
 31
0.0
  0
LINE
  5
CA
100
AcDbEntity
  8
0
100
AcDbLine
 10
2.453574
 20
0.872947
 30
0.0
 11
2.442186
 21
0.845379
 31
0.0
  0
LINE
  5
CB
100
AcDbEntity
  8
0
100
AcDbLine
 10
2.427811
 20
0.8369
 30
0.0
 11
2.416917
 21
0.838137
 31
0.0
  0
LINE
  5
CC
100
AcDbEntity
  8
0
100
AcDbLine
 10
2.388659
 20
0.859696
 30
0.0
 11
2.376061
 21
0.891188
 31
0.0
  0
LINE
  5
CD
100
AcDbEntity
  8
0
100
AcDbLine
 10
2.373584
 20
0.904372
 30
0.0
 11
2.374354
 21
0.989069
 31
0.0
  0
LINE
  5
CE
100
AcDbEntity
  8
0
100
AcDbLine
 10
2.330047
 20
0.866359
 30
0.0
 11
2.347005
 21
0.921719
 31
0.0
  0
LINE
  5
CF
100
AcDbEntity
  8
0
100
AcDbLine
 10
2.348335
 20
0.940286
 30
0.0
 11
2.341897
 21
0.981689
 31
0.0
  0
LINE
  5
D0
100
AcDbEntity
  8
0
100
AcDbLine
 10
2.339994
 20
0.989215
 30
0.0
 11
2.310232
 21
1.073022
 31
0.0
  0
LINE
  5
D1
100
AcDbEntity
  8
0
100
AcDbLine
 10
2.303317
 20
1.077622
 30
0.0
 11
2.298029
 21
1.077328
 31
0.0
  0
LINE
  5
D2
100
AcDbEntity
  8
0
100
AcDbLine
 10
2.285069
 20
1.065383
 30
0.0
 11
2.2732
 21
0.979296
 31
0.0
  0
LINE
  5
D3
100
AcDbEntity
  8
0
100
AcDbLine
 10
2.274234
 20
0.962827
 30
0.0
 11
2.299939
 21
0.867169
 31
0.0
  0
LINE
  5
D4
100
AcDbEntity
  8
0
100
AcDbLine
 10
2.311944
 20
0.856975
 30
0.0
 11
2.315416
 21
0.856628
 31
0.0
  0
ARC
  5
D5
100
AcDbEntity
  8
0
100
AcDbCircle
 10
2.634463
 20
0.962465
 30
0.0
 40
0.041578
100
AcDbArc
 50
11.31076
 51
52.59672
  0
ARC
  5
D6
100
AcDbEntity
  8
0
100
AcDbCircle
 10
2.646752
 20
0.901026
 30
0.0
 40
0.041578
100
AcDbArc
 50
0.0
 51
11.31076
  0
ARC
  5
D7
100
AcDbEntity
  8
0
100
AcDbCircle
 10
2.644372
 20
0.87846
 30
0.0
 40
0.041578
100
AcDbArc
 50
264.726498
 51
303.308656
  0
ARC
  5
D8
100
AcDbEntity
  8
0
100
AcDbCircle
 10
2.646752
 20
0.880023
 30
0.0
 40
0.041578
100
AcDbArc
 50
303.308656
 51
0.0
  0
ARC
  5
D9
100
AcDbEntity
  8
0
100
AcDbCircle
 10
2.62446
 20
0.880298
 30
0.0
 40
0.041578
100
AcDbArc
 50
197.701674
 51
264.726498
  0
ARC
  5
DA
100
AcDbEntity
  8
0
100
AcDbCircle
 10
2.621035
 20
0.89103
 30
0.0
 40
0.041578
100
AcDbArc
 50
175.600966
 51
197.701674
  0
ARC
  5
DB
100
AcDbEntity
  8
0
100
AcDbCircle
 10
2.626034
 20
0.956019
 30
0.0
 40
0.041578
100
AcDbArc
 50
139.63334
 51
175.600966
  0
ARC
  5
DC
100
AcDbEntity
  8
0
100
AcDbCircle
 10
2.637177
 20
0.969127
 30
0.0
 40
0.041578
100
AcDbArc
 50
94.040633
 51
139.63334
  0
ARC
  5
DD
100
AcDbEntity
  8
0
100
AcDbCircle
 10
2.635224
 20
0.996777
 30
0.0
 40
0.013859
100
AcDbArc
 50
52.59672
 51
94.040633
  0
ARC
  5
DE
100
AcDbEntity
  8
0
100
AcDbCircle
 10
2.517346
 20
0.964689
 30
0.0
 40
0.034649
100
AcDbArc
 50
1.709942
 51
62.355793
  0
ARC
  5
DF
100
AcDbEntity
  8
0
100
AcDbCircle
 10
2.507532
 20
0.96983
 30
0.0
 40
0.034649
100
AcDbArc
 50
62.355793
 51
113.705394
  0
ARC
  5
E0
100
AcDbEntity
  8
0
100
AcDbCircle
 10
2.511076
 20
0.94938
 30
0.0
 40
0.034649
100
AcDbArc
 50
166.50329
 51
182.626603
  0
ARC
  5
E1
100
AcDbEntity
  8
0
100
AcDbCircle
 10
2.514618
 20
0.872166
 30
0.0
 40
0.034649
100
AcDbArc
 50
182.626603
 51
246.426871
  0
ARC
  5
E2
100
AcDbEntity
  8
0
100
AcDbCircle
 10
2.514635
 20
0.85783
 30
0.0
 40
0.034649
100
AcDbArc
 50
319.896972
 51
356.510414
  0
ARC
  5
E3
100
AcDbEntity
  8
0
100
AcDbCircle
 10
2.529366
 20
0.843049
 30
0.0
 40
0.013859
100
AcDbArc
 50
246.426871
 51
319.896972
  0
ARC
  5
E4
100
AcDbEntity
  8
0
100
AcDbCircle
 10
2.499174
 20
0.988865
 30
0.0
 40
0.013859
100
AcDbArc
 50
113.705394
 51
166.50329
  0
ARC
  5
E5
100
AcDbEntity
  8
0
100
AcDbCircle
 10
2.417118
 20
0.99394
 30
0.0
 40
0.034649
100
AcDbArc
 50
9.46302
 51
86.566627
  0
ARC
  5
E6
100
AcDbEntity
  8
0
100
AcDbCircle
 10
2.413829
 20
0.994138
 30
0.0
 40
0.034649
100
AcDbArc
 50
86.566627
 51
138.119992
  0
ARC
  5
E7
100
AcDbEntity
  8
0
100
AcDbCircle
 10
2.409001
 20
0.988754
 30
0.0
 40
0.034649
100
AcDbArc
 50
138.119992
 51
179.479105
  0
ARC
  5
E8
100
AcDbEntity
  8
0
100
AcDbCircle
 10
2.408231
 20
0.904057
 30
0.0
 40
0.034649
100
AcDbArc
 50
179.479105
 51
201.802893
  0
ARC
  5
E9
100
AcDbEntity
  8
0
100
AcDbCircle
 10
2.420829
 20
0.872565
 30
0.0
 40
0.034649
100
AcDbArc
 50
201.802893
 51
263.517409
  0
ARC
  5
EA
100
AcDbEntity
  8
0
100
AcDbCircle
 10
2.421549
 20
0.886176
 30
0.0
 40
0.034649
100
AcDbArc
 50
337.555728
 51
0.567309
  0
ARC
  5
EB
100
AcDbEntity
  8
0
100
AcDbCircle
 10
2.429376
 20
0.85067
 30
0.0
 40
0.013859
100
AcDbArc
 50
263.517409
 51
337.555728
  0
ARC
  5
EC
100
AcDbEntity
  8
0
100
AcDbCircle
 10
2.316795
 20
0.870418
 30
0.0
 40
0.013859
100
AcDbArc
 50
264.287112
 51
342.968722
  0
ARC
  5
ED
100
AcDbEntity
  8
0
100
AcDbCircle
 10
2.313323
 20
0.870765
 30
0.0
 40
0.013859
100
AcDbArc
 50
195.040584
 51
264.287112
  0
ARC
  5
EE
100
AcDbEntity
  8
0
100
AcDbCircle
 10
2.298799
 20
1.06349
 30
0.0
 40
0.013859
100
AcDbArc
 50
93.181114
 51
172.149822
  0
ARC
  5
EF
100
AcDbEntity
  8
0
100
AcDbCircle
 10
2.303702
 20
1.070703
 30
0.0
 40
0.00693
100
AcDbArc
 50
19.550944
 51
93.181114
  0
ARC
  5
F0
100
AcDbEntity
  8
0
100
AcDbCircle
 10
2.314388
 20
0.973617
 30
0.0
 40
0.041578
100
AcDbArc
 50
172.149822
 51
195.040584
  0
ARC
  5
F1
100
AcDbEntity
  8
0
100
AcDbCircle
 10
2.300812
 20
0.975301
 30
0.0
 40
0.041578
100
AcDbArc
 50
8.838296
 51
19.550944
  0
ARC
  5
F2
100
AcDbEntity
  8
0
100
AcDbCircle
 10
2.30725
 20
0.933897
 30
0.0
 40
0.041578
100
AcDbArc
 50
342.968722
 51
8.838296
  0
LINE
  5
F3
100
AcDbEntity
  8
0
100
AcDbLine
 10
2.169093
 20
1.247366
 30
0.0
 11
2.190238
 21
1.243571
 31
0.0
  0
LINE
  5
F4
100
AcDbEntity
  8
0
100
AcDbLine
 10
2.221228
 20
1.218748
 30
0.0
 11
2.239454
 21
1.175354
 31
0.0
  0
LINE
  5
F5
100
AcDbEntity
  8
0
100
AcDbLine
 10
2.239454
 20
1.175354
 30
0.0
 11
2.25487
 21
1.10856
 31
0.0
  0
LINE
  5
F6
100
AcDbEntity
  8
0
100
AcDbLine
 10
2.25487
 20
1.10856
 30
0.0
 11
2.234316
 21
1.085438
 31
0.0
  0
LINE
  5
F7
100
AcDbEntity
  8
0
100
AcDbLine
 10
2.234316
 20
1.085438
 30
0.0
 11
2.202201
 21
1.150948
 31
0.0
  0
LINE
  5
F8
100
AcDbEntity
  8
0
100
AcDbLine
 10
2.202201
 20
1.150948
 30
0.0
 11
2.193208
 21
1.149664
 31
0.0
  0
LINE
  5
F9
100
AcDbEntity
  8
0
100
AcDbLine
 10
2.193208
 20
1.149664
 30
0.0
 11
2.225324
 21
1.032774
 31
0.0
  0
LINE
  5
FA
100
AcDbEntity
  8
0
100
AcDbLine
 10
2.225324
 20
1.032774
 30
0.0
 11
2.223092
 21
0.979219
 31
0.0
  0
LINE
  5
FB
100
AcDbEntity
  8
0
100
AcDbLine
 10
2.21702
 20
0.965384
 30
0.0
 11
2.216168
 21
0.964531
 31
0.0
  0
LINE
  5
FC
100
AcDbEntity
  8
0
100
AcDbLine
 10
2.162476
 20
0.971614
 30
0.0
 11
2.158524
 21
1.016075
 31
0.0
  0
LINE
  5
FD
100
AcDbEntity
  8
0
100
AcDbLine
 10
2.158524
 20
1.016075
 30
0.0
 11
2.153561
 21
1.130226
 31
0.0
  0
LINE
  5
FE
100
AcDbEntity
  8
0
100
AcDbLine
 10
2.154726
 20
1.138048
 30
0.0
 11
2.166456
 21
1.171279
 31
0.0
  0
LINE
  5
FF
100
AcDbEntity
  8
0
100
AcDbLine
 10
2.166623
 20
1.184624
 30
0.0
 11
2.154834
 21
1.220895
 31
0.0
  0
ARC
  5
100
100
AcDbEntity
  8
0
100
AcDbCircle
 10
2.182893
 20
1.202646
 30
0.0
 40
0.041578
100
AcDbArc
 50
22.783942
 51
79.825237
  0
ARC
  5
101
100
AcDbEntity
  8
0
100
AcDbCircle
 10
2.186769
 20
0.993933
 30
0.0
 40
0.041578
100
AcDbArc
 50
260.070125
 51
314.997848
  0
ARC
  5
102
100
AcDbEntity
  8
0
100
AcDbCircle
 10
2.202321
 20
0.980084
 30
0.0
 40
0.020789
100
AcDbArc
 50
314.997848
 51
357.613877
  0
ARC
  5
103
100
AcDbEntity
  8
0
100
AcDbCircle
 10
2.183184
 20
0.973455
 30
0.0
 40
0.020789
100
AcDbArc
 50
185.079987
 51
260.070125
  0
ARC
  5
104
100
AcDbEntity
  8
0
100
AcDbCircle
 10
2.17433
 20
1.131129
 30
0.0
 40
0.020789
100
AcDbArc
 50
160.558615
 51
182.48974
  0
ARC
  5
105
100
AcDbEntity
  8
0
100
AcDbCircle
 10
2.146852
 20
1.178198
 30
0.0
 40
0.020789
100
AcDbArc
 50
340.558615
 51
18.005427
  0
ARC
  5
106
100
AcDbEntity
  8
0
100
AcDbCircle
 10
2.174605
 20
1.227321
 30
0.0
 40
0.020789
100
AcDbArc
 50
105.376687
 51
198.005427
  0
LINE
  5
107
100
AcDbEntity
  8
0
100
AcDbLine
 10
2.0711
 20
1.265268
 30
0.0
 11
2.101348
 21
1.260229
 31
0.0
  0
LINE
  5
108
100
AcDbEntity
  8
0
100
AcDbLine
 10
2.101348
 20
1.260229
 30
0.0
 11
2.110213
 21
1.195784
 31
0.0
  0
LINE
  5
109
100
AcDbEntity
  8
0
100
AcDbLine
 10
2.110528
 20
1.190274
 30
0.0
 11
2.10891
 21
1.119135
 31
0.0
  0
LINE
  5
10A
100
AcDbEntity
  8
0
100
AcDbLine
 10
2.10891
 20
1.119135
 30
0.0
 11
2.089585
 21
1.114096
 31
0.0
  0
LINE
  5
10B
100
AcDbEntity
  8
0
100
AcDbLine
 10
2.089585
 20
1.114096
 30
0.0
 11
2.061161
 21
1.178202
 31
0.0
  0
LINE
  5
10C
100
AcDbEntity
  8
0
100
AcDbLine
 10
2.058765
 20
1.198545
 30
0.0
 11
2.0711
 21
1.265268
 31
0.0
  0
ARC
  5
10D
100
AcDbEntity
  8
0
100
AcDbCircle
 10
2.092836
 20
1.192246
 30
0.0
 40
0.034649
100
AcDbArc
 50
169.526116
 51
203.911815
  0
ARC
  5
10E
100
AcDbEntity
  8
0
100
AcDbCircle
 10
2.075888
 20
1.191062
 30
0.0
 40
0.034649
100
AcDbArc
 50
358.697449
 51
7.832634
  0
LINE
  5
10F
100
AcDbEntity
  8
0
100
AcDbLine
 10
3.31896
 20
1.389139
 30
0.0
 11
3.346761
 21
1.442943
 31
0.0
  0
LINE
  5
110
100
AcDbEntity
  8
0
100
AcDbLine
 10
3.346761
 20
1.442943
 30
0.0
 11
3.359316
 21
1.513784
 31
0.0
  0
LINE
  5
111
100
AcDbEntity
  8
0
100
AcDbLine
 10
3.359316
 20
1.513784
 30
0.0
 11
3.362007
 21
1.575659
 31
0.0
  0
LINE
  5
112
100
AcDbEntity
  8
0
100
AcDbLine
 10
3.362007
 20
1.575659
 30
0.0
 11
3.33869
 21
1.581039
 31
0.0
  0
LINE
  5
113
100
AcDbEntity
  8
0
100
AcDbLine
 10
3.33869
 20
1.581039
 30
0.0
 11
3.323444
 21
1.572072
 31
0.0
  0
LINE
  5
114
100
AcDbEntity
  8
0
100
AcDbLine
 10
3.323444
 20
1.572072
 30
0.0
 11
3.320754
 21
1.512888
 31
0.0
  0
LINE
  5
115
100
AcDbEntity
  8
0
100
AcDbLine
 10
3.320754
 20
1.512888
 30
0.0
 11
3.311786
 21
1.4546
 31
0.0
  0
LINE
  5
116
100
AcDbEntity
  8
0
100
AcDbLine
 10
3.311786
 20
1.4546
 30
0.0
 11
3.29385
 21
1.411557
 31
0.0
  0
LINE
  5
117
100
AcDbEntity
  8
0
100
AcDbLine
 10
3.29385
 20
1.411557
 30
0.0
 11
3.300128
 21
1.386448
 31
0.0
  0
LINE
  5
118
100
AcDbEntity
  8
0
100
AcDbLine
 10
3.300128
 20
1.386448
 30
0.0
 11
3.31896
 21
1.389139
 31
0.0
  0
LINE
  5
119
100
AcDbEntity
  8
0
100
AcDbLine
 10
3.223003
 20
1.367617
 30
0.0
 11
3.242732
 21
1.36672
 31
0.0
  0
LINE
  5
11A
100
AcDbEntity
  8
0
100
AcDbLine
 10
3.242732
 20
1.36672
 30
0.0
 11
3.26874
 21
1.40259
 31
0.0
  0
LINE
  5
11B
100
AcDbEntity
  8
0
100
AcDbLine
 10
3.26874
 20
1.40259
 30
0.0
 11
3.289366
 21
1.465361
 31
0.0
  0
LINE
  5
11C
100
AcDbEntity
  8
0
100
AcDbLine
 10
3.289366
 20
1.465361
 30
0.0
 11
3.294747
 21
1.523649
 31
0.0
  0
LINE
  5
11D
100
AcDbEntity
  8
0
100
AcDbLine
 10
3.294747
 20
1.523649
 30
0.0
 11
3.294747
 21
1.573866
 31
0.0
  0
LINE
  5
11E
100
AcDbEntity
  8
0
100
AcDbLine
 10
3.294747
 20
1.573866
 30
0.0
 11
3.270533
 21
1.581039
 31
0.0
  0
LINE
  5
11F
100
AcDbEntity
  8
0
100
AcDbLine
 10
3.270533
 20
1.581039
 30
0.0
 11
3.253494
 21
1.555931
 31
0.0
  0
LINE
  5
120
100
AcDbEntity
  8
0
100
AcDbLine
 10
3.253494
 20
1.555931
 30
0.0
 11
3.24901
 21
1.486882
 31
0.0
  0
LINE
  5
121
100
AcDbEntity
  8
0
100
AcDbLine
 10
3.24901
 20
1.486882
 30
0.0
 11
3.227487
 21
1.425008
 31
0.0
  0
LINE
  5
122
100
AcDbEntity
  8
0
100
AcDbLine
 10
3.227487
 20
1.425008
 30
0.0
 11
3.215828
 21
1.385552
 31
0.0
  0
LINE
  5
123
100
AcDbEntity
  8
0
100
AcDbLine
 10
3.215828
 20
1.385552
 30
0.0
 11
3.223003
 21
1.367617
 31
0.0
  0
ARC
  5
124
100
AcDbEntity
  8
0
100
AcDbCircle
 10
2.059669
 20
1.554838
 30
0.0
 40
0.031278
100
AcDbArc
 50
85.552615
 51
265.552615
  0
LINE
  5
125
100
AcDbEntity
  8
0
100
AcDbLine
 10
1.955021
 20
1.534855
 30
0.0
 11
1.985464
 21
1.522171
 31
0.0
  0
LINE
  5
126
100
AcDbEntity
  8
0
100
AcDbLine
 10
1.985464
 20
1.522171
 30
0.0
 11
2.008296
 21
1.53105
 31
0.0
  0
LINE
  5
127
100
AcDbEntity
  8
0
100
AcDbLine
 10
2.008296
 20
1.53105
 30
0.0
 11
1.99688
 21
1.565295
 31
0.0
  0
LINE
  5
128
100
AcDbEntity
  8
0
100
AcDbLine
 10
1.99688
 20
1.565295
 30
0.0
 11
1.995612
 21
1.589394
 31
0.0
  0
LINE
  5
129
100
AcDbEntity
  8
0
100
AcDbLine
 10
1.995612
 20
1.589394
 30
0.0
 11
1.97278
 21
1.599541
 31
0.0
  0
LINE
  5
12A
100
AcDbEntity
  8
0
100
AcDbLine
 10
1.97278
 20
1.599541
 30
0.0
 11
1.947411
 21
1.590662
 31
0.0
  0
LINE
  5
12B
100
AcDbEntity
  8
0
100
AcDbLine
 10
1.947411
 20
1.590662
 30
0.0
 11
1.943605
 21
1.56149
 31
0.0
  0
LINE
  5
12C
100
AcDbEntity
  8
0
100
AcDbLine
 10
1.943605
 20
1.56149
 30
0.0
 11
1.955021
 21
1.534855
 31
0.0
  0
LINE
  5
12D
100
AcDbEntity
  8
0
100
AcDbLine
 10
1.900703
 20
1.550245
 30
0.0
 11
1.902761
 21
1.569792
 31
0.0
  0
LINE
  5
12E
100
AcDbEntity
  8
0
100
AcDbLine
 10
1.902761
 20
1.569792
 30
0.0
 11
1.906876
 21
1.592424
 31
0.0
  0
LINE
  5
12F
100
AcDbEntity
  8
0
100
AcDbLine
 10
1.906876
 20
1.592424
 30
0.0
 11
1.898645
 21
1.605798
 31
0.0
  0
LINE
  5
130
100
AcDbEntity
  8
0
100
AcDbLine
 10
1.898645
 20
1.605798
 30
0.0
 11
1.879098
 21
1.610941
 31
0.0
  0
LINE
  5
131
100
AcDbEntity
  8
0
100
AcDbLine
 10
1.879098
 20
1.610941
 30
0.0
 11
1.864694
 21
1.598596
 31
0.0
  0
LINE
  5
132
100
AcDbEntity
  8
0
100
AcDbLine
 10
1.864694
 20
1.598596
 30
0.0
 11
1.865723
 21
1.575964
 31
0.0
  0
LINE
  5
133
100
AcDbEntity
  8
0
100
AcDbLine
 10
1.865723
 20
1.575964
 30
0.0
 11
1.869838
 21
1.552303
 31
0.0
  0
LINE
  5
134
100
AcDbEntity
  8
0
100
AcDbLine
 10
1.869838
 20
1.552303
 30
0.0
 11
1.889386
 21
1.546131
 31
0.0
  0
LINE
  5
135
100
AcDbEntity
  8
0
100
AcDbLine
 10
1.889386
 20
1.546131
 30
0.0
 11
1.900703
 21
1.550245
 31
0.0
  0
LINE
  5
136
100
AcDbEntity
  8
0
100
AcDbLine
 10
1.741115
 20
1.607041
 30
0.0
 11
1.742069
 21
1.633753
 31
0.0
  0
LINE
  5
137
100
AcDbEntity
  8
0
100
AcDbLine
 10
1.742069
 20
1.633753
 30
0.0
 11
1.754472
 21
1.648063
 31
0.0
  0
LINE
  5
138
100
AcDbEntity
  8
0
100
AcDbLine
 10
1.754472
 20
1.648063
 30
0.0
 11
1.778324
 21
1.644247
 31
0.0
  0
LINE
  5
139
100
AcDbEntity
  8
0
100
AcDbLine
 10
1.778324
 20
1.644247
 30
0.0
 11
1.788819
 21
1.624213
 31
0.0
  0
LINE
  5
13A
100
AcDbEntity
  8
0
100
AcDbLine
 10
1.788819
 20
1.624213
 30
0.0
 11
1.780232
 21
1.604179
 31
0.0
  0
LINE
  5
13B
100
AcDbEntity
  8
0
100
AcDbLine
 10
1.780232
 20
1.604179
 30
0.0
 11
1.764013
 21
1.58796
 31
0.0
  0
LINE
  5
13C
100
AcDbEntity
  8
0
100
AcDbLine
 10
1.764013
 20
1.58796
 30
0.0
 11
1.748747
 21
1.593684
 31
0.0
  0
LINE
  5
13D
100
AcDbEntity
  8
0
100
AcDbLine
 10
1.748747
 20
1.593684
 30
0.0
 11
1.741115
 21
1.607041
 31
0.0
  0
LINE
  5
13E
100
AcDbEntity
  8
0
100
AcDbLine
 10
1.799832
 20
1.572602
 30
0.0
 11
1.808651
 21
1.563783
 31
0.0
  0
LINE
  5
13F
100
AcDbEntity
  8
0
100
AcDbLine
 10
1.808651
 20
1.563783
 30
0.0
 11
1.826289
 21
1.559374
 31
0.0
  0
LINE
  5
140
100
AcDbEntity
  8
0
100
AcDbLine
 10
1.826289
 20
1.559374
 30
0.0
 11
1.837753
 21
1.566429
 31
0.0
  0
LINE
  5
141
100
AcDbEntity
  8
0
100
AcDbLine
 10
1.837753
 20
1.566429
 30
0.0
 11
1.839517
 21
1.584947
 31
0.0
  0
LINE
  5
142
100
AcDbEntity
  8
0
100
AcDbLine
 10
1.839517
 20
1.584947
 30
0.0
 11
1.841281
 21
1.608756
 31
0.0
  0
LINE
  5
143
100
AcDbEntity
  8
0
100
AcDbLine
 10
1.841281
 20
1.608756
 30
0.0
 11
1.830698
 21
1.619338
 31
0.0
  0
LINE
  5
144
100
AcDbEntity
  8
0
100
AcDbLine
 10
1.830698
 20
1.619338
 30
0.0
 11
1.819233
 21
1.622866
 31
0.0
  0
LINE
  5
145
100
AcDbEntity
  8
0
100
AcDbLine
 10
1.819233
 20
1.622866
 30
0.0
 11
1.806887
 21
1.611402
 31
0.0
  0
LINE
  5
146
100
AcDbEntity
  8
0
100
AcDbLine
 10
1.806887
 20
1.611402
 30
0.0
 11
1.798068
 21
1.594647
 31
0.0
  0
LINE
  5
147
100
AcDbEntity
  8
0
100
AcDbLine
 10
1.798068
 20
1.594647
 30
0.0
 11
1.799832
 21
1.572602
 31
0.0
  0
LINE
  5
148
100
AcDbEntity
  8
0
100
AcDbLine
 10
1.863729
 20
1.492137
 30
0.0
 11
1.879875
 21
1.504689
 31
0.0
  0
LINE
  5
149
100
AcDbEntity
  8
0
100
AcDbLine
 10
1.879875
 20
1.504689
 30
0.0
 11
1.899608
 21
1.488551
 31
0.0
  0
LINE
  5
14A
100
AcDbEntity
  8
0
100
AcDbLine
 10
1.899608
 20
1.488551
 30
0.0
 11
1.89602
 21
1.438344
 31
0.0
  0
LINE
  5
14B
100
AcDbEntity
  8
0
100
AcDbLine
 10
1.89602
 20
1.438344
 30
0.0
 11
1.906784
 21
1.384551
 31
0.0
  0
LINE
  5
14C
100
AcDbEntity
  8
0
100
AcDbLine
 10
1.906784
 20
1.384551
 30
0.0
 11
1.919341
 21
1.357655
 31
0.0
  0
LINE
  5
14D
100
AcDbEntity
  8
0
100
AcDbLine
 10
1.919341
 20
1.357655
 30
0.0
 11
1.910372
 21
1.352275
 31
0.0
  0
LINE
  5
14E
100
AcDbEntity
  8
0
100
AcDbLine
 10
1.910372
 20
1.352275
 30
0.0
 11
1.894226
 21
1.357655
 31
0.0
  0
LINE
  5
14F
100
AcDbEntity
  8
0
100
AcDbLine
 10
1.894226
 20
1.357655
 30
0.0
 11
1.872699
 21
1.397103
 31
0.0
  0
LINE
  5
150
100
AcDbEntity
  8
0
100
AcDbLine
 10
1.872699
 20
1.397103
 30
0.0
 11
1.860141
 21
1.44731
 31
0.0
  0
LINE
  5
151
100
AcDbEntity
  8
0
100
AcDbLine
 10
1.860141
 20
1.44731
 30
0.0
 11
1.863729
 21
1.492137
 31
0.0
  0
LINE
  5
152
100
AcDbEntity
  8
0
100
AcDbLine
 10
1.795559
 20
1.490344
 30
0.0
 11
1.809911
 21
1.501103
 31
0.0
  0
LINE
  5
153
100
AcDbEntity
  8
0
100
AcDbLine
 10
1.809911
 20
1.501103
 30
0.0
 11
1.835026
 21
1.492137
 31
0.0
  0
LINE
  5
154
100
AcDbEntity
  8
0
100
AcDbLine
 10
1.835026
 20
1.492137
 30
0.0
 11
1.833232
 21
1.454482
 31
0.0
  0
LINE
  5
155
100
AcDbEntity
  8
0
100
AcDbLine
 10
1.833232
 20
1.454482
 30
0.0
 11
1.842202
 21
1.404275
 31
0.0
  0
LINE
  5
156
100
AcDbEntity
  8
0
100
AcDbLine
 10
1.842202
 20
1.404275
 30
0.0
 11
1.860141
 21
1.370206
 31
0.0
  0
LINE
  5
157
100
AcDbEntity
  8
0
100
AcDbLine
 10
1.860141
 20
1.370206
 30
0.0
 11
1.849377
 21
1.359448
 31
0.0
  0
LINE
  5
158
100
AcDbEntity
  8
0
100
AcDbLine
 10
1.849377
 20
1.359448
 30
0.0
 11
1.831438
 21
1.364827
 31
0.0
  0
LINE
  5
159
100
AcDbEntity
  8
0
100
AcDbLine
 10
1.831438
 20
1.364827
 30
0.0
 11
1.811704
 21
1.393517
 31
0.0
  0
LINE
  5
15A
100
AcDbEntity
  8
0
100
AcDbLine
 10
1.811704
 20
1.393517
 30
0.0
 11
1.793765
 21
1.434758
 31
0.0
  0
LINE
  5
15B
100
AcDbEntity
  8
0
100
AcDbLine
 10
1.793765
 20
1.434758
 30
0.0
 11
1.795559
 21
1.490344
 31
0.0
  0
LINE
  5
15C
100
AcDbEntity
  8
0
100
AcDbLine
 10
1.743534
 20
1.513655
 30
0.0
 11
1.761474
 21
1.502896
 31
0.0
  0
LINE
  5
15D
100
AcDbEntity
  8
0
100
AcDbLine
 10
1.761474
 20
1.502896
 30
0.0
 11
1.761474
 21
1.479586
 31
0.0
  0
LINE
  5
15E
100
AcDbEntity
  8
0
100
AcDbLine
 10
1.761474
 20
1.479586
 30
0.0
 11
1.75968
 21
1.436551
 31
0.0
  0
LINE
  5
15F
100
AcDbEntity
  8
0
100
AcDbLine
 10
1.75968
 20
1.436551
 30
0.0
 11
1.770444
 21
1.400689
 31
0.0
  0
LINE
  5
160
100
AcDbEntity
  8
0
100
AcDbLine
 10
1.770444
 20
1.400689
 30
0.0
 11
1.788383
 21
1.370206
 31
0.0
  0
LINE
  5
161
100
AcDbEntity
  8
0
100
AcDbLine
 10
1.788383
 20
1.370206
 30
0.0
 11
1.784795
 21
1.354069
 31
0.0
  0
LINE
  5
162
100
AcDbEntity
  8
0
100
AcDbLine
 10
1.784795
 20
1.354069
 30
0.0
 11
1.766856
 21
1.355862
 31
0.0
  0
LINE
  5
163
100
AcDbEntity
  8
0
100
AcDbLine
 10
1.766856
 20
1.355862
 30
0.0
 11
1.745328
 21
1.380965
 31
0.0
  0
LINE
  5
164
100
AcDbEntity
  8
0
100
AcDbLine
 10
1.745328
 20
1.380965
 30
0.0
 11
1.727389
 21
1.429379
 31
0.0
  0
LINE
  5
165
100
AcDbEntity
  8
0
100
AcDbLine
 10
1.727389
 20
1.429379
 30
0.0
 11
1.722007
 21
1.484965
 31
0.0
  0
LINE
  5
166
100
AcDbEntity
  8
0
100
AcDbLine
 10
1.722007
 20
1.484965
 30
0.0
 11
1.743534
 21
1.513655
 31
0.0
  0
LINE
  5
167
100
AcDbEntity
  8
0
100
AcDbLine
 10
1.31513
 20
2.488224
 30
0.0
 11
1.296582
 21
2.483586
 31
0.0
  0
ARC
  5
168
100
AcDbEntity
  8
0
100
AcDbCircle
 10
-0.094381
 20
1.931788
 30
0.0
 40
1.496414
100
AcDbArc
 50
2.21167
 51
21.638315
  0
LINE
  5
169
100
AcDbEntity
  8
0
100
AcDbLine
 10
1.644905
 20
1.607889
 30
0.0
 11
1.67041
 21
1.621805
 31
0.0
  0
ARC
  5
16A
100
AcDbEntity
  8
0
100
AcDbCircle
 10
0.295283
 20
1.951723
 30
0.0
 40
1.152355
100
AcDbArc
 50
359.116917
 51
27.747086
  0
ARC
  5
16B
100
AcDbEntity
  8
0
100
AcDbCircle
 10
1.809559
 20
1.956838
 30
0.0
 40
0.36278
100
AcDbArc
 50
183.615196
 51
247.445367
  0
ARC
  5
16C
100
AcDbEntity
  8
0
100
AcDbCircle
 10
1.760308
 20
1.950479
 30
0.0
 40
0.361506
100
AcDbArc
 50
173.797563
 51
251.383671
  0
ARC
  5
16D
100
AcDbEntity
  8
0
100
AcDbCircle
 10
1.88705
 20
1.90024
 30
0.0
 40
0.138595
100
AcDbArc
 50
222.579556
 51
281.018135
  0
LINE
  5
16E
100
AcDbEntity
  8
0
100
AcDbLine
 10
2.566578
 20
4.138893
 30
0.0
 11
2.566578
 21
4.222098
 31
0.0
  0
LINE
  5
16F
100
AcDbEntity
  8
0
100
AcDbLine
 10
2.483422
 20
4.138893
 30
0.0
 11
2.483422
 21
4.222098
 31
0.0
  0
LINE
  5
170
100
AcDbEntity
  8
0
100
AcDbLine
 10
1.663109
 20
3.764664
 30
0.0
 11
1.604274
 21
3.823499
 31
0.0
  0
LINE
  5
171
100
AcDbEntity
  8
0
100
AcDbLine
 10
1.721909
 20
3.823464
 30
0.0
 11
1.663074
 21
3.882299
 31
0.0
  0
LINE
  5
172
100
AcDbEntity
  8
0
100
AcDbLine
 10
1.34768
 20
2.919995
 30
0.0
 11
1.264475
 21
2.919995
 31
0.0
  0
LINE
  5
173
100
AcDbEntity
  8
0
100
AcDbLine
 10
1.34768
 20
3.003151
 30
0.0
 11
1.264475
 21
3.003151
 31
0.0
  0
LINE
  5
174
100
AcDbEntity
  8
0
100
AcDbLine
 10
3.70232
 20
3.003151
 30
0.0
 11
3.785525
 21
3.003151
 31
0.0
  0
LINE
  5
175
100
AcDbEntity
  8
0
100
AcDbLine
 10
3.70232
 20
2.919995
 30
0.0
 11
3.785525
 21
2.919995
 31
0.0
  0
LINE
  5
176
100
AcDbEntity
  8
0
100
AcDbLine
 10
3.328091
 20
3.823464
 30
0.0
 11
3.386926
 21
3.882299
 31
0.0
  0
LINE
  5
177
100
AcDbEntity
  8
0
100
AcDbLine
 10
3.386891
 20
3.764664
 30
0.0
 11
3.445726
 21
3.823499
 31
0.0
  0
ARC
  5
178
100
AcDbEntity
  8
0
100
AcDbCircle
 10
2.525
 20
2.961573
 30
0.0
 40
1.261211
100
AcDbArc
 50
1.889214
 51
43.110786
  0
ARC
  5
179
100
AcDbEntity
  8
0
100
AcDbCircle
 10
2.525
 20
2.961573
 30
0.0
 40
1.178054
100
AcDbArc
 50
2.022624
 51
42.977376
  0
ARC
  5
17A
100
AcDbEntity
  8
0
100
AcDbCircle
 10
2.525
 20
2.961573
 30
0.0
 40
1.261211
100
AcDbArc
 50
46.889214
 51
88.110786
  0
ARC
  5
17B
100
AcDbEntity
  8
0
100
AcDbCircle
 10
2.525
 20
2.961573
 30
0.0
 40
1.178054
100
AcDbArc
 50
47.022624
 51
87.977376
  0
ARC
  5
17C
100
AcDbEntity
  8
0
100
AcDbCircle
 10
2.525
 20
2.961573
 30
0.0
 40
1.261211
100
AcDbArc
 50
91.889214
 51
133.110786
  0
ARC
  5
17D
100
AcDbEntity
  8
0
100
AcDbCircle
 10
2.525
 20
2.961573
 30
0.0
 40
1.178054
100
AcDbArc
 50
92.022624
 51
132.977376
  0
ARC
  5
17E
100
AcDbEntity
  8
0
100
AcDbCircle
 10
2.525
 20
2.961573
 30
0.0
 40
1.261211
100
AcDbArc
 50
136.889214
 51
178.110786
  0
ARC
  5
17F
100
AcDbEntity
  8
0
100
AcDbCircle
 10
2.525
 20
2.961573
 30
0.0
 40
1.178054
100
AcDbArc
 50
137.022624
 51
177.977376
  0
ARC
  5
180
100
AcDbEntity
  8
0
100
AcDbCircle
 10
2.525
 20
2.961573
 30
0.0
 40
1.178054
100
AcDbArc
 50
182.022624
 51
221.870687
  0
ARC
  5
181
100
AcDbEntity
  8
0
100
AcDbCircle
 10
2.525
 20
2.961573
 30
0.0
 40
1.261211
100
AcDbArc
 50
181.889214
 51
202.86279
  0
ARC
  5
182
100
AcDbEntity
  8
0
100
AcDbCircle
 10
2.140173
 20
1.300618
 30
0.0
 40
0.374404
100
AcDbArc
 50
345.185526
 51
0.829221
  0
LINE
  5
183
100
AcDbEntity
  8
0
100
AcDbLine
 10
2.502132
 20
1.204886
 30
0.0
 11
2.434703
 21
1.285307
 31
0.0
  0
LINE
  5
184
100
AcDbEntity
  8
0
100
AcDbLine
 10
2.259591
 20
1.284578
 30
0.0
 11
2.340682
 21
1.069814
 31
0.0
  0
ARC
  5
185
100
AcDbEntity
  8
0
100
AcDbCircle
 10
2.523757
 20
1.546762
 30
0.0
 40
0.087073
100
AcDbArc
 50
159.384461
 51
231.507634
  0
ARC
  5
186
100
AcDbEntity
  8
0
100
AcDbCircle
 10
2.523757
 20
1.546762
 30
0.0
 40
0.117073
100
AcDbArc
 50
169.63289
 51
237.710902
  0
ARC
  5
187
100
AcDbEntity
  8
0
100
AcDbCircle
 10
2.572313
 20
1.550989
 30
0.0
 40
0.117073
100
AcDbArc
 50
295.98443
 51
1.296653
  0
ARC
  5
188
100
AcDbEntity
  8
0
100
AcDbCircle
 10
2.572313
 20
1.550989
 30
0.0
 40
0.087073
100
AcDbArc
 50
299.421909
 51
11.545082
  0
ARC
  5
189
100
AcDbEntity
  8
0
100
AcDbCircle
 10
2.708788
 20
1.601278
 30
0.0
 40
0.055438
100
AcDbArc
 50
112.990791
 51
188.451196
  0
LINE
  5
18A
100
AcDbEntity
  8
0
100
AcDbLine
 10
2.657624
 20
1.568416
 30
0.0
 11
2.653952
 21
1.59313
 31
0.0
  0
LINE
  5
18B
100
AcDbEntity
  8
0
100
AcDbLine
 10
2.713653
 20
1.607093
 30
0.0
 11
2.689356
 21
1.553638
 31
0.0
  0
ARC
  5
18C
100
AcDbEntity
  8
0
100
AcDbCircle
 10
2.627987
 20
1.436761
 30
0.0
 40
0.01
100
AcDbArc
 50
115.98443
 51
186.305568
  0
ARC
  5
18D
100
AcDbEntity
  8
0
100
AcDbCircle
 10
2.455876
 20
1.439339
 30
0.0
 40
0.01
100
AcDbArc
 50
352.537661
 51
57.710902
  0
LINE
  5
18E
100
AcDbEntity
  8
0
100
AcDbLine
 10
2.514538
 20
1.306036
 30
0.0
 11
2.548424
 21
1.286785
 31
0.0
  0
LINE
  5
18F
100
AcDbEntity
  8
0
100
AcDbLine
 10
2.548424
 20
1.286785
 30
0.0
 11
2.577706
 21
1.311299
 31
0.0
  0
LINE
  5
190
100
AcDbEntity
  8
0
100
AcDbLine
 10
2.512305
 20
1.341809
 30
0.0
 11
2.545135
 21
1.323157
 31
0.0
  0
LINE
  5
191
100
AcDbEntity
  8
0
100
AcDbLine
 10
2.545135
 20
1.323157
 30
0.0
 11
2.579482
 21
1.35191
 31
0.0
  0
ARC
  5
192
100
AcDbEntity
  8
0
100
AcDbCircle
 10
2.934752
 20
1.31603
 30
0.0
 40
0.357077
100
AcDbArc
 50
180.759152
 51
197.550997
  0
ARC
  5
193
100
AcDbEntity
  8
0
100
AcDbCircle
 10
2.140173
 20
1.300618
 30
0.0
 40
0.374404
100
AcDbArc
 50
6.316336
 51
28.385612
  0
LINE
  5
194
100
AcDbEntity
  8
0
100
AcDbLine
 10
3.309837
 20
1.655462
 30
0.0
 11
3.162535
 21
1.617205
 31
0.0
  0
ENDSEC
  0
SECTION
  2
OBJECTS
  0
DICTIONARY
  5
C
100
AcDbDictionary
  3
ACAD_GROUP
350
D
  3
ACAD_MLINESTYLE
350
E
  0
DICTIONARY
  5
D
102
{ACAD_REACTORS
330
C
102
}
100
AcDbDictionary
  0
DICTIONARY
  5
E
102
{ACAD_REACTORS
330
C
102
}
100
AcDbDictionary
  3
STANDARD
350
1B
  0
MLINESTYLE
  5
1B
102
{ACAD_REACTORS
330
E
102
}
100
AcDbMlineStyle
  2
STANDARD
 70
     0
  3

 62
     0
 51
90.0
 52
90.0
 71
     2
 49
0.5
 62
   256
  6
BYLAYER
 49
-0.5
 62
   256
  6
BYLAYER
  0
ENDSEC
  0
EOF
