  0
SECTION
  2
HEADER
  9
$ACADVER
  1
AC1012
  9
$DWGCODEPAGE
  3
ansi_1252
  9
$INSBASE
 10
0.0
 20
0.0
 30
0.0
  9
$EXTMIN
 10
0.65969
 20
0.08729
 30
0.0
  9
$EXTMAX
 10
3.920385
 20
4.574208
 30
0.0
  9
$LIMMIN
 10
0.0
 20
0.0
  9
$LIMMAX
 10
12.0
 20
9.0
  9
$ORTHOMODE
 70
     0
  9
$REGENMODE
 70
     1
  9
$FILLMODE
 70
     0
  9
$QTEXTMODE
 70
     0
  9
$MIRRTEXT
 70
     1
  9
$DRAGMODE
 70
     2
  9
$LTSCALE
 40
0.15
  9
$OSMODE
 70
     0
  9
$ATTMODE
 70
     1
  9
$TEXTSIZE
 40
0.054
  9
$TRACEWID
 40
0.05
  9
$TEXTSTYLE
  7
STANDARD
  9
$CLAYER
  8
0
  9
$CELTYPE
  6
BYLAYER
  9
$CECOLOR
 62
   256
  9
$CELTSCALE
 40
1.0
  9
$DELOBJ
 70
     1
  9
$DISPSILH
 70
     0
  9
$DIMSCALE
 40
1.0
  9
$DIMASZ
 40
0.18
  9
$DIMEXO
 40
0.0625
  9
$DIMDLI
 40
0.38
  9
$DIMRND
 40
0.0
  9
$DIMDLE
 40
0.0
  9
$DIMEXE
 40
0.18
  9
$DIMTP
 40
0.0
  9
$DIMTM
 40
0.0
  9
$DIMTXT
 40
0.18
  9
$DIMCEN
 40
0.09
  9
$DIMTSZ
 40
0.0
  9
$DIMTOL
 70
     0
  9
$DIMLIM
 70
     0
  9
$DIMTIH
 70
     1
  9
$DIMTOH
 70
     1
  9
$DIMSE1
 70
     0
  9
$DIMSE2
 70
     0
  9
$DIMTAD
 70
     0
  9
$DIMZIN
 70
     0
  9
$DIMBLK
  1

  9
$DIMASO
 70
     1
  9
$DIMSHO
 70
     1
  9
$DIMPOST
  1

  9
$DIMAPOST
  1

  9
$DIMALT
 70
     0
  9
$DIMALTD
 70
     2
  9
$DIMALTF
 40
25.4
  9
$DIMLFAC
 40
1.0
  9
$DIMTOFL
 70
     0
  9
$DIMTVP
 40
0.0
  9
$DIMTIX
 70
     0
  9
$DIMSOXD
 70
     0
  9
$DIMSAH
 70
     0
  9
$DIMBLK1
  1

  9
$DIMBLK2
  1

  9
$DIMSTYLE
  2
STANDARD
  9
$DIMCLRD
 70
     0
  9
$DIMCLRE
 70
     0
  9
$DIMCLRT
 70
     0
  9
$DIMTFAC
 40
1.0
  9
$DIMGAP
 40
0.09
  9
$DIMJUST
 70
     0
  9
$DIMSD1
 70
     0
  9
$DIMSD2
 70
     0
  9
$DIMTOLJ
 70
     1
  9
$DIMTZIN
 70
     0
  9
$DIMALTZ
 70
     0
  9
$DIMALTTZ
 70
     0
  9
$DIMFIT
 70
     3
  9
$DIMUPT
 70
     0
  9
$DIMUNIT
 70
     2
  9
$DIMDEC
 70
     3
  9
$DIMTDEC
 70
     4
  9
$DIMALTU
 70
     2
  9
$DIMALTTD
 70
     2
  9
$DIMTXSTY
  7
STANDARD
  9
$DIMAUNIT
 70
     0
  9
$LUNITS
 70
     2
  9
$LUPREC
 70
     4
  9
$SKETCHINC
 40
0.1
  9
$FILLETRAD
 40
0.0
  9
$AUNITS
 70
     0
  9
$AUPREC
 70
     0
  9
$MENU
  1
.
  9
$ELEVATION
 40
0.0
  9
$PELEVATION
 40
0.0
  9
$THICKNESS
 40
0.0
  9
$LIMCHECK
 70
     0
  9
$BLIPMODE
 70
     0
  9
$CHAMFERA
 40
0.0
  9
$CHAMFERB
 40
0.0
  9
$CHAMFERC
 40
0.0
  9
$CHAMFERD
 40
0.0
  9
$SKPOLY
 70
     0
  9
$TDCREATE
 40
2449871.377631134
  9
$TDUPDATE
 40
2449871.542757870
  9
$TDINDWG
 40
0.0924790509
  9
$TDUSRTIMER
 40
0.0924790509
  9
$USRTIMER
 70
     1
  9
$ANGBASE
 50
0.0
  9
$ANGDIR
 70
     0
  9
$PDMODE
 70
     0
  9
$PDSIZE
 40
0.0
  9
$PLINEWID
 40
0.0
  9
$COORDS
 70
     1
  9
$SPLFRAME
 70
     0
  9
$SPLINETYPE
 70
     6
  9
$SPLINESEGS
 70
     8
  9
$ATTDIA
 70
     0
  9
$ATTREQ
 70
     1
  9
$HANDLING
 70
     1
  9
$HANDSEED
  5
28BC
  9
$SURFTAB1
 70
     6
  9
$SURFTAB2
 70
     6
  9
$SURFTYPE
 70
     6
  9
$SURFU
 70
     6
  9
$SURFV
 70
     6
  9
$UCSNAME
  2

  9
$UCSORG
 10
0.0
 20
0.0
 30
0.0
  9
$UCSXDIR
 10
1.0
 20
0.0
 30
0.0
  9
$UCSYDIR
 10
0.0
 20
1.0
 30
0.0
  9
$PUCSNAME
  2

  9
$PUCSORG
 10
0.0
 20
0.0
 30
0.0
  9
$PUCSXDIR
 10
1.0
 20
0.0
 30
0.0
  9
$PUCSYDIR
 10
0.0
 20
1.0
 30
0.0
  9
$USERI1
 70
     0
  9
$USERI2
 70
     0
  9
$USERI3
 70
     0
  9
$USERI4
 70
     0
  9
$USERI5
 70
     0
  9
$USERR1
 40
0.0
  9
$USERR2
 40
0.0
  9
$USERR3
 40
0.0
  9
$USERR4
 40
0.0
  9
$USERR5
 40
0.0
  9
$WORLDVIEW
 70
     1
  9
$SHADEDGE
 70
     3
  9
$SHADEDIF
 70
    70
  9
$TILEMODE
 70
     1
  9
$MAXACTVP
 70
    16
  9
$PINSBASE
 10
0.0
 20
0.0
 30
0.0
  9
$PLIMCHECK
 70
     0
  9
$PEXTMIN
 10
1.000000E+20
 20
1.000000E+20
 30
1.000000E+20
  9
$PEXTMAX
 10
-1.000000E+20
 20
-1.000000E+20
 30
-1.000000E+20
  9
$PLIMMIN
 10
0.0
 20
0.0
  9
$PLIMMAX
 10
12.0
 20
9.0
  9
$UNITMODE
 70
     0
  9
$VISRETAIN
 70
     0
  9
$PLINEGEN
 70
     0
  9
$PSLTSCALE
 70
     1
  9
$TREEDEPTH
 70
  3020
  9
$PICKSTYLE
 70
     0
  9
$CMLSTYLE
  2
STANDARD
  9
$CMLJUST
 70
     0
  9
$CMLSCALE
 40
1.0
  9
$SAVEIMAGES
 70
     0
  0
ENDSEC
  0
SECTION
  2
CLASSES
  0
ENDSEC
  0
SECTION
  2
TABLES
  0
TABLE
  2
VPORT
  5
8
100
AcDbSymbolTable
 70
     2
  0
VPORT
  5
28BB
100
AcDbSymbolTableRecord
100
AcDbViewportTableRecord
  2
*ACTIVE
 70
     0
 10
0.0
 20
0.0
 11
1.0
 21
1.0
 12
2.200485
 22
2.271038
 13
0.0
 23
0.0
 14
1.0
 24
1.0
 15
0.0
 25
0.0
 16
0.0
 26
0.0
 36
1.0
 17
0.0
 27
0.0
 37
0.0
 40
4.845265
 41
1.426117
 42
50.0
 43
0.0
 44
0.0
 50
0.0
 51
0.0
 71
     0
 72
   100
 73
     1
 74
     1
 75
     0
 76
     0
 77
     0
 78
     0
  0
ENDTAB
  0
TABLE
  2
LTYPE
  5
5
100
AcDbSymbolTable
 70
     1
  0
LTYPE
  5
14
100
AcDbSymbolTableRecord
100
AcDbLinetypeTableRecord
  2
BYBLOCK
 70
     0
  3

 72
    65
 73
     0
 40
0.0
  0
LTYPE
  5
15
100
AcDbSymbolTableRecord
100
AcDbLinetypeTableRecord
  2
BYLAYER
 70
     0
  3

 72
    65
 73
     0
 40
0.0
  0
LTYPE
  5
16
100
AcDbSymbolTableRecord
100
AcDbLinetypeTableRecord
  2
CONTINUOUS
 70
    64
  3
Solid line
 72
    65
 73
     0
 40
0.0
  0
ENDTAB
  0
TABLE
  2
LAYER
  5
2
100
AcDbSymbolTable
 70
     1
  0
LAYER
  5
F
100
AcDbSymbolTableRecord
100
AcDbLayerTableRecord
  2
0
 70
     0
 62
     7
  6
CONTINUOUS
  0
ENDTAB
  0
TABLE
  2
STYLE
  5
3
100
AcDbSymbolTable
 70
     1
  0
STYLE
  5
10
100
AcDbSymbolTableRecord
100
AcDbTextStyleTableRecord
  2
STANDARD
 70
    64
 40
0.0
 41
1.0
 50
0.0
 71
     0
 42
0.054
  3
txt
  4

  0
ENDTAB
  0
TABLE
  2
VIEW
  5
6
100
AcDbSymbolTable
 70
     0
  0
ENDTAB
  0
TABLE
  2
UCS
  5
7
100
AcDbSymbolTable
 70
     0
  0
ENDTAB
  0
TABLE
  2
APPID
  5
9
100
AcDbSymbolTable
 70
     1
  0
APPID
  5
11
100
AcDbSymbolTableRecord
100
AcDbRegAppTableRecord
  2
ACAD
 70
     0
  0
ENDTAB
  0
TABLE
  2
DIMSTYLE
  5
A
100
AcDbSymbolTable
 70
     1
  0
DIMSTYLE
105
1D
100
AcDbSymbolTableRecord
100
AcDbDimStyleTableRecord
  2
STANDARD
 70
     0
  3

  4

  5

  6

  7

 40
1.0
 41
0.18
 42
0.0625
 43
0.38
 44
0.18
 45
0.0
 46
0.0
 47
0.0
 48
0.0
140
0.18
141
0.09
142
0.0
143
25.4
144
1.0
145
0.0
146
1.0
147
0.09
 71
     0
 72
     0
 73
     1
 74
     1
 75
     0
 76
     0
 77
     0
 78
     0
170
     0
171
     2
172
     0
173
     0
174
     0
175
     0
176
     0
177
     0
178
     0
270
     2
271
     4
272
     4
273
     2
274
     2
340
10
275
     0
280
     0
281
     0
282
     0
283
     1
284
     0
285
     0
286
     0
287
     3
288
     0
  0
ENDTAB
  0
TABLE
  2
BLOCK_RECORD
  5
1
100
AcDbSymbolTable
 70
     0
  0
BLOCK_RECORD
  5
1A
100
AcDbSymbolTableRecord
100
AcDbBlockTableRecord
  2
*MODEL_SPACE
  0
BLOCK_RECORD
  5
17
100
AcDbSymbolTableRecord
100
AcDbBlockTableRecord
  2
*PAPER_SPACE
  0
ENDTAB
  0
ENDSEC
  0
SECTION
  2
BLOCKS
  0
BLOCK
  5
1B
100
AcDbEntity
  8
0
100
AcDbBlockBegin
  2
*MODEL_SPACE
 70
     0
 10
0.0
 20
0.0
 30
0.0
  3
*MODEL_SPACE
  1

  0
ENDBLK
  5
1C
100
AcDbEntity
  8
0
100
AcDbBlockEnd
  0
BLOCK
  5
18
100
AcDbEntity
 67
     1
  8
0
100
AcDbBlockBegin
  2
*PAPER_SPACE
 70
     0
 10
0.0
 20
0.0
 30
0.0
  3
*PAPER_SPACE
  1

  0
ENDBLK
  5
19
100
AcDbEntity
 67
     1
  8
0
100
AcDbBlockEnd
  0
ENDSEC
  0
SECTION
  2
ENTITIES
  0
LINE
  5
3A6
100
AcDbEntity
  8
0
 62
     7
100
AcDbLine
 10
2.702011
 20
2.006871
 30
0.0
 11
2.672942
 21
1.966509
 31
0.0
  0
LINE
  5
3A7
100
AcDbEntity
  8
0
 62
     7
100
AcDbLine
 10
2.672942
 20
1.966509
 30
0.0
 11
2.630952
 21
1.981039
 31
0.0
  0
LINE
  5
3A8
100
AcDbEntity
  8
0
 62
     7
100
AcDbLine
 10
2.630952
 20
1.981039
 30
0.0
 11
2.637412
 21
2.040775
 31
0.0
  0
LINE
  5
3A9
100
AcDbEntity
  8
0
 62
     7
100
AcDbLine
 10
2.637412
 20
2.040775
 30
0.0
 11
2.611572
 21
2.074679
 31
0.0
  0
LINE
  5
3AA
100
AcDbEntity
  8
0
 62
     7
100
AcDbLine
 10
2.611572
 20
2.074679
 30
0.0
 11
2.566353
 21
2.073065
 31
0.0
  0
LINE
  5
3AB
100
AcDbEntity
  8
0
 62
     7
100
AcDbLine
 10
2.566353
 20
2.073065
 30
0.0
 11
2.567968
 21
2.121499
 31
0.0
  0
LINE
  5
3AC
100
AcDbEntity
  8
0
 62
     7
100
AcDbLine
 10
2.567968
 20
2.121499
 30
0.0
 11
2.634182
 21
2.221597
 31
0.0
  0
LINE
  5
3AD
100
AcDbEntity
  8
0
 62
     7
100
AcDbLine
 10
2.634182
 20
2.221597
 30
0.0
 11
2.655177
 21
2.228055
 31
0.0
  0
LINE
  5
3AE
100
AcDbEntity
  8
0
 62
     7
100
AcDbLine
 10
2.655177
 20
2.228055
 30
0.0
 11
2.671327
 21
2.213525
 31
0.0
  0
LINE
  5
3AF
100
AcDbEntity
  8
0
 62
     7
100
AcDbLine
 10
2.671327
 20
2.213525
 30
0.0
 11
2.698782
 21
2.216754
 31
0.0
  0
LINE
  5
3B0
100
AcDbEntity
  8
0
 62
     7
100
AcDbLine
 10
2.698782
 20
2.216754
 30
0.0
 11
2.702011
 21
2.30555
 31
0.0
  0
LINE
  5
3B1
100
AcDbEntity
  8
0
 62
     7
100
AcDbLine
 10
2.702011
 20
2.30555
 30
0.0
 11
2.734311
 21
2.358828
 31
0.0
  0
LINE
  5
3B2
100
AcDbEntity
  8
0
 62
     7
100
AcDbLine
 10
2.734311
 20
2.358828
 30
0.0
 11
2.758536
 21
2.362057
 31
0.0
  0
LINE
  5
3B3
100
AcDbEntity
  8
0
 62
     7
100
AcDbLine
 10
2.758536
 20
2.362057
 30
0.0
 11
2.784376
 21
2.3669
 31
0.0
  0
LINE
  5
3B4
100
AcDbEntity
  8
0
 62
     7
100
AcDbLine
 10
2.784376
 20
2.3669
 30
0.0
 11
2.784376
 21
2.400805
 31
0.0
  0
LINE
  5
3B5
100
AcDbEntity
  8
0
 62
     7
100
AcDbLine
 10
2.784376
 20
2.400805
 30
0.0
 11
2.779531
 21
2.425022
 31
0.0
  0
LINE
  5
3B6
100
AcDbEntity
  8
0
 62
     7
100
AcDbLine
 10
2.779531
 20
2.425022
 30
0.0
 11
2.82152
 21
2.43148
 31
0.0
  0
LINE
  5
3B7
100
AcDbEntity
  8
0
 62
     7
100
AcDbLine
 10
2.82152
 20
2.43148
 30
0.0
 11
2.845745
 21
2.437938
 31
0.0
  0
LINE
  5
3B8
100
AcDbEntity
  8
0
 62
     7
100
AcDbLine
 10
2.845745
 20
2.437938
 30
0.0
 11
2.85059
 21
2.473456
 31
0.0
  0
LINE
  5
3B9
100
AcDbEntity
  8
0
 62
     7
100
AcDbLine
 10
2.85059
 20
2.473456
 30
0.0
 11
2.845745
 21
2.517047
 31
0.0
  0
LINE
  5
3BA
100
AcDbEntity
  8
0
 62
     7
100
AcDbLine
 10
2.845745
 20
2.517047
 30
0.0
 11
2.861895
 21
2.563867
 31
0.0
  0
LINE
  5
3BB
100
AcDbEntity
  8
0
 62
     7
100
AcDbLine
 10
2.861895
 20
2.563867
 30
0.0
 11
2.907115
 21
2.605844
 31
0.0
  0
LINE
  5
3BC
100
AcDbEntity
  8
0
 62
     7
100
AcDbLine
 10
2.907115
 20
2.605844
 30
0.0
 11
2.942644
 21
2.597771
 31
0.0
  0
LINE
  5
3BD
100
AcDbEntity
  8
0
 62
     7
100
AcDbLine
 10
2.942644
 20
2.597771
 30
0.0
 11
2.984634
 21
2.58647
 31
0.0
  0
LINE
  5
3BE
100
AcDbEntity
  8
0
 62
     7
100
AcDbLine
 10
2.984634
 20
2.58647
 30
0.0
 11
3.049233
 21
2.605844
 31
0.0
  0
LINE
  5
3BF
100
AcDbEntity
  8
0
 62
     7
100
AcDbLine
 10
3.049233
 20
2.605844
 30
0.0
 11
3.075073
 21
2.602615
 31
0.0
  0
LINE
  5
3C0
100
AcDbEntity
  8
0
 62
     7
100
AcDbLine
 10
3.075073
 20
2.602615
 30
0.0
 11
3.079918
 21
2.555795
 31
0.0
  0
LINE
  5
3C1
100
AcDbEntity
  8
0
 62
     7
100
AcDbLine
 10
3.079918
 20
2.555795
 30
0.0
 11
3.094453
 21
2.512204
 31
0.0
  0
LINE
  5
3C2
100
AcDbEntity
  8
0
 62
     7
100
AcDbLine
 10
3.094453
 20
2.512204
 30
0.0
 11
3.113833
 21
2.494445
 31
0.0
  0
LINE
  5
3C3
100
AcDbEntity
  8
0
 62
     7
100
AcDbLine
 10
3.113833
 20
2.494445
 30
0.0
 11
3.154207
 21
2.510589
 31
0.0
  0
LINE
  5
3C4
100
AcDbEntity
  8
0
 62
     7
100
AcDbLine
 10
3.154207
 20
2.510589
 30
0.0
 11
3.202657
 21
2.55418
 31
0.0
  0
LINE
  5
3C5
100
AcDbEntity
  8
0
 62
     7
100
AcDbLine
 10
3.202657
 20
2.55418
 30
0.0
 11
3.217192
 21
2.533192
 31
0.0
  0
LINE
  5
3C6
100
AcDbEntity
  8
0
 62
     7
100
AcDbLine
 10
3.217192
 20
2.533192
 30
0.0
 11
3.213962
 21
2.489601
 31
0.0
  0
LINE
  5
3C7
100
AcDbEntity
  8
0
 62
     7
100
AcDbLine
 10
3.213962
 20
2.489601
 30
0.0
 11
3.251106
 21
2.473456
 31
0.0
  0
LINE
  5
3C8
100
AcDbEntity
  8
0
 62
     7
100
AcDbLine
 10
3.251106
 20
2.473456
 30
0.0
 11
3.306016
 21
2.499288
 31
0.0
  0
LINE
  5
3C9
100
AcDbEntity
  8
0
 62
     7
100
AcDbLine
 10
3.306016
 20
2.499288
 30
0.0
 11
3.333471
 21
2.441167
 31
0.0
  0
LINE
  5
3CA
100
AcDbEntity
  8
0
 62
     7
100
AcDbLine
 10
3.333471
 20
2.441167
 30
0.0
 11
3.4013
 21
2.379816
 31
0.0
  0
LINE
  5
3CB
100
AcDbEntity
  8
0
 62
     7
100
AcDbLine
 10
3.4013
 20
2.379816
 30
0.0
 11
3.428755
 21
2.347527
 31
0.0
  0
LINE
  5
3CC
100
AcDbEntity
  8
0
 62
     7
100
AcDbLine
 10
3.428755
 20
2.347527
 30
0.0
 11
3.44006
 21
2.284562
 31
0.0
  0
LINE
  5
3CD
100
AcDbEntity
  8
0
 62
     7
100
AcDbLine
 10
3.44006
 20
2.284562
 30
0.0
 11
3.45944
 21
2.255501
 31
0.0
  0
LINE
  5
3CE
100
AcDbEntity
  8
0
 62
     7
100
AcDbLine
 10
3.45944
 20
2.255501
 30
0.0
 11
3.42714
 21
2.17962
 31
0.0
  0
LINE
  5
3CF
100
AcDbEntity
  8
0
 62
     7
100
AcDbLine
 10
3.42714
 20
2.17962
 30
0.0
 11
3.39807
 21
2.105354
 31
0.0
  0
LINE
  5
3D0
100
AcDbEntity
  8
0
 62
     7
100
AcDbLine
 10
3.39807
 20
2.105354
 30
0.0
 11
3.38838
 21
2.074679
 31
0.0
  0
LINE
  5
3D1
100
AcDbEntity
  8
0
 62
     7
100
AcDbLine
 10
3.38838
 20
2.074679
 30
0.0
 11
3.309246
 21
2.047233
 31
0.0
  0
LINE
  5
3D2
100
AcDbEntity
  8
0
 62
     7
100
AcDbLine
 10
3.309246
 20
2.047233
 30
0.0
 11
3.243032
 21
2.002027
 31
0.0
  0
LINE
  5
3D3
100
AcDbEntity
  8
0
 62
     7
100
AcDbLine
 10
3.243032
 20
2.002027
 30
0.0
 11
3.217192
 21
1.993955
 31
0.0
  0
LINE
  5
3D4
100
AcDbEntity
  8
0
 62
     7
100
AcDbLine
 10
3.217192
 20
1.993955
 30
0.0
 11
3.238187
 21
1.950364
 31
0.0
  0
LINE
  5
3D5
100
AcDbEntity
  8
0
 62
     7
100
AcDbLine
 10
3.238187
 20
1.950364
 30
0.0
 11
3.213962
 21
1.8987
 31
0.0
  0
LINE
  5
3D6
100
AcDbEntity
  8
0
 62
     7
100
AcDbLine
 10
3.213962
 20
1.8987
 30
0.0
 11
3.201042
 21
1.856724
 31
0.0
  0
LINE
  5
3D7
100
AcDbEntity
  8
0
 62
     7
100
AcDbLine
 10
3.201042
 20
1.856724
 30
0.0
 11
3.192967
 21
1.796988
 31
0.0
  0
LINE
  5
3D8
100
AcDbEntity
  8
0
 62
     7
100
AcDbLine
 10
3.192967
 20
1.796988
 30
0.0
 11
3.138058
 21
1.761469
 31
0.0
  0
LINE
  5
3D9
100
AcDbEntity
  8
0
 62
     7
100
AcDbLine
 10
2.600267
 20
3.301686
 30
0.0
 11
2.627722
 21
3.216118
 31
0.0
  0
LINE
  5
3DA
100
AcDbEntity
  8
0
 62
     7
100
AcDbLine
 10
2.627722
 20
3.216118
 30
0.0
 11
2.651947
 21
3.220962
 31
0.0
  0
LINE
  5
3DB
100
AcDbEntity
  8
0
 62
     7
100
AcDbLine
 10
2.651947
 20
3.220962
 30
0.0
 11
2.656792
 21
3.250022
 31
0.0
  0
LINE
  5
3DC
100
AcDbEntity
  8
0
 62
     7
100
AcDbLine
 10
2.656792
 20
3.250022
 30
0.0
 11
2.685862
 21
3.24195
 31
0.0
  0
LINE
  5
3DD
100
AcDbEntity
  8
0
 62
     7
100
AcDbLine
 10
2.685862
 20
3.24195
 30
0.0
 11
2.711701
 21
3.22742
 31
0.0
  0
LINE
  5
3DE
100
AcDbEntity
  8
0
 62
     7
100
AcDbLine
 10
2.711701
 20
3.22742
 30
0.0
 11
2.747231
 21
3.269396
 31
0.0
  0
LINE
  5
3DF
100
AcDbEntity
  8
0
 62
     7
100
AcDbLine
 10
2.747231
 20
3.269396
 30
0.0
 11
2.764996
 21
3.283927
 31
0.0
  0
LINE
  5
3E0
100
AcDbEntity
  8
0
 62
     7
100
AcDbLine
 10
2.764996
 20
3.283927
 30
0.0
 11
2.797296
 21
3.254866
 31
0.0
  0
LINE
  5
3E1
100
AcDbEntity
  8
0
 62
     7
100
AcDbLine
 10
2.797296
 20
3.254866
 30
0.0
 11
2.85705
 21
3.217733
 31
0.0
  0
LINE
  5
3E2
100
AcDbEntity
  8
0
 62
     7
100
AcDbLine
 10
2.85705
 20
3.217733
 30
0.0
 11
2.944259
 21
3.219347
 31
0.0
  0
LINE
  5
3E3
100
AcDbEntity
  8
0
 62
     7
100
AcDbLine
 10
2.944259
 20
3.219347
 30
0.0
 11
2.962024
 21
3.188672
 31
0.0
  0
LINE
  5
3E4
100
AcDbEntity
  8
0
 62
     7
100
AcDbLine
 10
2.962024
 20
3.188672
 30
0.0
 11
2.929724
 21
3.149924
 31
0.0
  0
LINE
  5
3E5
100
AcDbEntity
  8
0
 62
     7
100
AcDbLine
 10
2.929724
 20
3.149924
 30
0.0
 11
2.887735
 21
3.117635
 31
0.0
  0
LINE
  5
3E6
100
AcDbEntity
  8
0
 62
     7
100
AcDbLine
 10
2.887735
 20
3.117635
 30
0.0
 11
2.81506
 21
3.070815
 31
0.0
  0
LINE
  5
3E7
100
AcDbEntity
  8
0
 62
     7
100
AcDbLine
 10
2.81506
 20
3.070815
 30
0.0
 11
2.865125
 21
3.041754
 31
0.0
  0
LINE
  5
3E8
100
AcDbEntity
  8
0
 62
     7
100
AcDbLine
 10
2.865125
 20
3.041754
 30
0.0
 11
2.803756
 21
2.996549
 31
0.0
  0
LINE
  5
3E9
100
AcDbEntity
  8
0
 62
     7
100
AcDbLine
 10
2.803756
 20
2.996549
 30
0.0
 11
2.826365
 21
2.923897
 31
0.0
  0
LINE
  5
3EA
100
AcDbEntity
  8
0
 62
     7
100
AcDbLine
 10
2.826365
 20
2.923897
 30
0.0
 11
2.806986
 21
2.896451
 31
0.0
  0
LINE
  5
3EB
100
AcDbEntity
  8
0
 62
     7
100
AcDbLine
 10
2.806986
 20
2.896451
 30
0.0
 11
2.82798
 21
2.86739
 31
0.0
  0
LINE
  5
3EC
100
AcDbEntity
  8
0
 62
     7
100
AcDbLine
 10
2.82798
 20
2.86739
 30
0.0
 11
2.806986
 21
2.846402
 31
0.0
  0
LINE
  5
3ED
100
AcDbEntity
  8
0
 62
     7
100
AcDbLine
 10
2.806986
 20
2.846402
 30
0.0
 11
2.839285
 21
2.801196
 31
0.0
  0
LINE
  5
3EE
100
AcDbEntity
  8
0
 62
     7
100
AcDbLine
 10
2.839285
 20
2.801196
 30
0.0
 11
2.803756
 21
2.735002
 31
0.0
  0
LINE
  5
3EF
100
AcDbEntity
  8
0
 62
     7
100
AcDbLine
 10
2.803756
 20
2.735002
 30
0.0
 11
2.836055
 21
2.693026
 31
0.0
  0
LINE
  5
3F0
100
AcDbEntity
  8
0
 62
     7
100
AcDbLine
 10
2.836055
 20
2.693026
 30
0.0
 11
2.752076
 21
2.584856
 31
0.0
  0
LINE
  5
3F1
100
AcDbEntity
  8
0
 62
     7
100
AcDbLine
 10
2.752076
 20
2.584856
 30
0.0
 11
2.708471
 21
2.496059
 31
0.0
  0
LINE
  5
3F2
100
AcDbEntity
  8
0
 62
     7
100
AcDbLine
 10
2.708471
 20
2.496059
 30
0.0
 11
2.731081
 21
2.499288
 31
0.0
  0
LINE
  5
3F3
100
AcDbEntity
  8
0
 62
     7
100
AcDbLine
 10
2.731081
 20
2.499288
 30
0.0
 11
2.752076
 21
2.547722
 31
0.0
  0
LINE
  5
3F4
100
AcDbEntity
  8
0
 62
     7
100
AcDbLine
 10
2.752076
 20
2.547722
 30
0.0
 11
2.83444
 21
2.660736
 31
0.0
  0
LINE
  5
3F5
100
AcDbEntity
  8
0
 62
     7
100
AcDbLine
 10
2.83444
 20
2.660736
 30
0.0
 11
2.848975
 21
2.651049
 31
0.0
  0
LINE
  5
3F6
100
AcDbEntity
  8
0
 62
     7
100
AcDbLine
 10
2.848975
 20
2.651049
 30
0.0
 11
2.920035
 21
2.722087
 31
0.0
  0
LINE
  5
3F7
100
AcDbEntity
  8
0
 62
     7
100
AcDbLine
 10
2.920035
 20
2.722087
 30
0.0
 11
2.941029
 21
2.688182
 31
0.0
  0
LINE
  5
3F8
100
AcDbEntity
  8
0
 62
     7
100
AcDbLine
 10
2.941029
 20
2.688182
 30
0.0
 11
2.989479
 21
2.778593
 31
0.0
  0
LINE
  5
3F9
100
AcDbEntity
  8
0
 62
     7
100
AcDbLine
 10
2.989479
 20
2.778593
 30
0.0
 11
3.028239
 21
2.746304
 31
0.0
  0
LINE
  5
3FA
100
AcDbEntity
  8
0
 62
     7
100
AcDbLine
 10
3.028239
 20
2.746304
 30
0.0
 11
3.108988
 21
2.823799
 31
0.0
  0
LINE
  5
3FB
100
AcDbEntity
  8
0
 62
     7
100
AcDbLine
 10
3.108988
 20
2.823799
 30
0.0
 11
3.171972
 21
2.770521
 31
0.0
  0
LINE
  5
3FC
100
AcDbEntity
  8
0
 62
     7
100
AcDbLine
 10
3.171972
 20
2.770521
 30
0.0
 11
3.255951
 21
2.730159
 31
0.0
  0
CIRCLE
  5
401
100
AcDbEntity
  8
0
 62
     7
100
AcDbCircle
 10
2.400371
 20
4.184239
 30
0.0
 40
0.1875
  0
ARC
  5
402
100
AcDbEntity
  8
0
 62
     7
100
AcDbCircle
 10
2.400371
 20
4.184239
 30
0.0
 40
0.3875
100
AcDbArc
 50
6.556474
 51
174.180511
  0
ARC
  5
405
100
AcDbEntity
  8
0
 62
     7
100
AcDbCircle
 10
1.244349
 20
4.31194
 30
0.0
 40
0.775574
100
AcDbArc
 50
309.256132
 51
353.45442
  0
ARC
  5
407
100
AcDbEntity
  8
0
 62
     7
100
AcDbCircle
 10
1.886309
 20
2.221139
 30
0.0
 40
1.810806
100
AcDbArc
 50
308.072035
 51
15.293143
  0
ARC
  5
408
100
AcDbEntity
  8
0
 62
     7
100
AcDbCircle
 10
1.824835
 20
1.7658
 30
0.0
 40
2.076768
100
AcDbArc
 50
38.424647
 51
56.93344
  0
ARC
  5
409
100
AcDbEntity
  8
0
 62
     7
100
AcDbCircle
 10
3.183456
 20
3.852583
 30
0.0
 40
0.413315
100
AcDbArc
 50
231.415508
 51
236.93344
  0
ARC
  5
40B
100
AcDbEntity
  8
0
 62
     7
100
AcDbCircle
 10
1.555551
 20
4.160002
 30
0.0
 40
1.231691
100
AcDbArc
 50
354.323002
 51
3.187309
  0
ARC
  5
40C
100
AcDbEntity
  8
0
 62
     7
100
AcDbCircle
 10
3.610275
 20
3.955746
 30
0.0
 40
0.833161
100
AcDbArc
 50
174.323002
 51
201.077501
  0
ARC
  5
40D
100
AcDbEntity
  8
0
 62
     7
100
AcDbCircle
 10
1.778869
 20
2.331083
 30
0.0
 40
1.30379
100
AcDbArc
 50
101.516911
 51
112.81336
  0
ARC
  5
40E
100
AcDbEntity
  8
0
 62
     7
100
AcDbCircle
 10
1.871307
 20
2.609642
 30
0.0
 40
1.114053
100
AcDbArc
 50
131.153137
 51
145.288543
  0
ARC
  5
40F
100
AcDbEntity
  8
0
 62
     7
100
AcDbCircle
 10
0.606058
 20
2.917025
 30
0.0
 40
0.307263
100
AcDbArc
 50
334.856183
 51
15.864408
  0
ARC
  5
410
100
AcDbEntity
  8
0
 62
     7
100
AcDbCircle
 10
1.354569
 20
3.044795
 30
0.0
 40
0.455062
100
AcDbArc
 50
169.444803
 51
185.52029
  0
ARC
  5
412
100
AcDbEntity
  8
0
 62
     7
100
AcDbCircle
 10
-0.173387
 20
3.156617
 30
0.0
 40
1.120495
100
AcDbArc
 50
327.185519
 51
340.710519
  0
ARC
  5
414
100
AcDbEntity
  8
0
 62
     7
100
AcDbCircle
 10
1.181537
 20
2.417576
 30
0.0
 40
0.433743
100
AcDbArc
 50
162.307012
 51
202.658386
  0
ARC
  5
416
100
AcDbEntity
  8
0
 62
     7
100
AcDbCircle
 10
-0.020076
 20
1.938529
 30
0.0
 40
0.859926
100
AcDbArc
 50
8.70189
 51
21.270289
  0
ARC
  5
417
100
AcDbEntity
  8
0
 62
     7
100
AcDbCircle
 10
0.682085
 20
2.015483
 30
0.0
 40
0.157128
100
AcDbArc
 50
340.230222
 51
19.769778
  0
ARC
  5
418
100
AcDbEntity
  8
0
 62
     7
100
AcDbCircle
 10
0.503818
 20
2.079557
 30
0.0
 40
0.346559
100
AcDbArc
 50
320.114247
 51
340.230222
  0
ARC
  5
419
100
AcDbEntity
  8
0
 62
     7
100
AcDbCircle
 10
0.925111
 20
1.67588
 30
0.0
 40
0.238874
100
AcDbArc
 50
130.573415
 51
200.827634
  0
ARC
  5
41D
100
AcDbEntity
  8
0
 62
     7
100
AcDbCircle
 10
-3.714691
 20
0.125061
 30
0.0
 40
4.653453
100
AcDbArc
 50
13.278557
 51
18.361439
  0
ARC
  5
41F
100
AcDbEntity
  8
0
 62
     7
100
AcDbCircle
 10
1.206718
 20
0.841521
 30
0.0
 40
0.413088
100
AcDbArc
 50
159.146463
 51
181.420731
  0
ARC
  5
420
100
AcDbEntity
  8
0
 62
     7
100
AcDbCircle
 10
0.833182
 20
0.983814
 30
0.0
 40
0.013367
100
AcDbArc
 50
47.326652
 51
159.146463
  0
ARC
  5
421
100
AcDbEntity
  8
0
 62
     7
100
AcDbCircle
 10
0.791098
 20
0.938166
 30
0.0
 40
0.075454
100
AcDbArc
 50
11.404105
 51
47.326652
  0
ARC
  5
422
100
AcDbEntity
  8
0
 62
     7
100
AcDbCircle
 10
0.872164
 20
0.954517
 30
0.0
 40
0.007244
100
AcDbArc
 50
191.404105
 51
19.097071
  0
ARC
  5
423
100
AcDbEntity
  8
0
 62
     7
100
AcDbCircle
 10
0.637543
 20
0.873286
 30
0.0
 40
0.255529
100
AcDbArc
 50
19.097071
 51
30.05075
  0
ARC
  5
424
100
AcDbEntity
  8
0
 62
     7
100
AcDbCircle
 10
1.095303
 20
1.138115
 30
0.0
 40
0.273317
100
AcDbArc
 50
190.396732
 51
210.05075
  0
ARC
  5
425
100
AcDbEntity
  8
0
 62
     7
100
AcDbCircle
 10
0.604362
 20
1.125049
 30
0.0
 40
0.220986
100
AcDbArc
 50
356.747517
 51
18.151288
  0
ARC
  5
426
100
AcDbEntity
  8
0
 62
     7
100
AcDbCircle
 10
0.824935
 20
0.835149
 30
0.0
 40
0.033344
100
AcDbArc
 50
249.201879
 51
257.01946
  0
ARC
  5
427
100
AcDbEntity
  8
0
 62
     7
100
AcDbCircle
 10
0.674835
 20
0.183982
 30
0.0
 40
0.634898
100
AcDbArc
 50
68.204074
 51
77.01946
  0
ARC
  5
428
100
AcDbEntity
  8
0
 62
     7
100
AcDbCircle
 10
0.915798
 20
0.786559
 30
0.0
 40
0.014072
100
AcDbArc
 50
248.204074
 51
25.249533
  0
ARC
  5
429
100
AcDbEntity
  8
0
 62
     7
100
AcDbCircle
 10
1.003004
 20
0.827687
 30
0.0
 40
0.082345
100
AcDbArc
 50
181.02639
 51
205.249533
  0
ARC
  5
42A
100
AcDbEntity
  8
0
 62
     7
100
AcDbCircle
 10
0.81179
 20
0.642119
 30
0.0
 40
0.213882
100
AcDbArc
 50
39.048055
 51
59.397949
  0
LINE
  5
42B
100
AcDbEntity
  8
0
 62
     7
100
AcDbLine
 10
0.977895
 20
0.776858
 30
0.0
 11
1.072145
 21
0.770128
 31
0.0
  0
ARC
  5
42D
100
AcDbEntity
  8
0
 62
     7
100
AcDbCircle
 10
1.068517
 20
0.75899
 30
0.0
 40
0.011714
100
AcDbArc
 50
272.030262
 51
71.960584
  0
ARC
  5
42E
100
AcDbEntity
  8
0
 62
     7
100
AcDbCircle
 10
0.950553
 20
2.648159
 30
0.0
 40
1.903932
100
AcDbArc
 50
265.144409
 51
272.468269
  0
ARC
  5
42F
100
AcDbEntity
  8
0
 62
     7
100
AcDbCircle
 10
0.788257
 20
0.73766
 30
0.0
 40
0.013448
100
AcDbArc
 50
85.144409
 51
165.287179
  0
ARC
  5
430
100
AcDbEntity
  8
0
 62
     7
100
AcDbCircle
 10
0.974369
 20
0.668968
 30
0.0
 40
0.211032
100
AcDbArc
 50
167.28524
 51
213.48972
  0
ARC
  5
431
100
AcDbEntity
  8
0
 62
     7
100
AcDbCircle
 10
0.219569
 20
0.169572
 30
0.0
 40
0.69402
100
AcDbArc
 50
12.290164
 51
33.48972
  0
ARC
  5
432
100
AcDbEntity
  8
0
 62
     7
100
AcDbCircle
 10
1.139195
 20
0.400017
 30
0.0
 40
0.303138
100
AcDbArc
 50
249.456925
 51
272.076883
  0
ARC
  5
433
100
AcDbEntity
  8
0
 62
     7
100
AcDbCircle
 10
0.650498
 20
0.253751
 30
0.0
 40
0.255224
100
AcDbArc
 50
6.266321
 51
14.418642
  0
ARC
  5
435
100
AcDbEntity
  8
0
 62
     7
100
AcDbCircle
 10
1.557995
 20
0.389825
 30
0.0
 40
0.300264
100
AcDbArc
 50
240.840202
 51
300.917857
  0
ARC
  5
436
100
AcDbEntity
  8
0
 62
     7
100
AcDbCircle
 10
1.323274
 20
-0.098194
 30
0.0
 40
0.244058
100
AcDbArc
 50
74.006054
 51
120.905646
  0
ARC
  5
437
100
AcDbEntity
  8
0
 62
     7
100
AcDbCircle
 10
1.900439
 20
-0.11802
 30
0.0
 40
0.313097
100
AcDbArc
 50
89.117632
 51
126.940443
  0
ARC
  5
438
100
AcDbEntity
  8
0
 62
     7
100
AcDbCircle
 10
2.053933
 20
0.231081
 30
0.0
 40
0.067246
100
AcDbArc
 50
251.420814
 51
318.356126
  0
ARC
  5
439
100
AcDbEntity
  8
0
 62
     7
100
AcDbCircle
 10
1.904995
 20
-0.11229
 30
0.0
 40
0.30733
100
AcDbArc
 50
65.486826
 51
89.950398
  0
ARC
  5
43A
100
AcDbEntity
  8
0
 62
     7
100
AcDbCircle
 10
2.860736
 20
0.764588
 30
0.0
 40
0.051324
100
AcDbArc
 50
173.481908
 51
291.741885
  0
ARC
  5
43B
100
AcDbEntity
  8
0
 62
     7
100
AcDbCircle
 10
2.735602
 20
1.078369
 30
0.0
 40
0.389136
100
AcDbArc
 50
291.741885
 51
313.394556
  0
ARC
  5
43C
100
AcDbEntity
  8
0
 62
     7
100
AcDbCircle
 10
3.127405
 20
0.976325
 30
0.0
 40
0.290813
100
AcDbArc
 50
169.994365
 51
190.908776
  0
ARC
  5
43D
100
AcDbEntity
  8
0
 62
     7
100
AcDbCircle
 10
2.647392
 20
0.883813
 30
0.0
 40
0.198033
100
AcDbArc
 50
325.066761
 51
10.908776
  0
ARC
  5
43E
100
AcDbEntity
  8
0
 62
     7
100
AcDbCircle
 10
2.973839
 20
0.918412
 30
0.0
 40
0.205787
100
AcDbArc
 50
111.014051
 51
151.141069
  0
ARC
  5
43F
100
AcDbEntity
  8
0
 62
     7
100
AcDbCircle
 10
2.530546
 20
1.162708
 30
0.0
 40
0.300364
100
AcDbArc
 50
305.010811
 51
331.141069
  0
ARC
  5
440
100
AcDbEntity
  8
0
 62
     7
100
AcDbCircle
 10
2.776434
 20
0.811685
 30
0.0
 40
0.128213
100
AcDbArc
 50
125.010811
 51
158.756723
  0
ARC
  5
441
100
AcDbEntity
  8
0
 62
     7
100
AcDbCircle
 10
2.306968
 20
0.994187
 30
0.0
 40
0.375479
100
AcDbArc
 50
302.927562
 51
338.756723
  0
ARC
  5
442
100
AcDbEntity
  8
0
 62
     7
100
AcDbCircle
 10
1.643737
 20
2.018305
 30
0.0
 40
1.595599
100
AcDbArc
 50
298.138027
 51
302.927562
  0
ARC
  5
443
100
AcDbEntity
  8
0
 62
     7
100
AcDbCircle
 10
2.445404
 20
0.519312
 30
0.0
 40
0.104298
100
AcDbArc
 50
118.138027
 51
150.23029
  0
ARC
  5
444
100
AcDbEntity
  8
0
 62
     7
100
AcDbCircle
 10
4.376498
 20
-0.854208
 30
0.0
 40
2.473555
100
AcDbArc
 50
144.815075
 51
152.091317
  0
ARC
  5
445
100
AcDbEntity
  8
0
 62
     7
100
AcDbCircle
 10
1.860613
 20
0.456564
 30
0.0
 40
0.363755
100
AcDbArc
 50
312.03642
 51
335.128406
  0
ARC
  5
446
100
AcDbEntity
  8
0
 62
     7
100
AcDbCircle
 10
2.896419
 20
1.104513
 30
0.0
 40
0.00701
100
AcDbArc
 50
313.827959
 51
58.855838
  0
LINE
  5
447
100
AcDbEntity
  8
0
 62
     7
100
AcDbLine
 10
2.901273
 20
1.099456
 30
0.0
 11
2.85924
 21
1.060363
 31
0.0
  0
ARC
  5
448
100
AcDbEntity
  8
0
 62
     7
100
AcDbCircle
 10
1.231765
 20
1.89198
 30
0.0
 40
0.553533
100
AcDbArc
 50
9.428057
 51
61.191444
  0
ARC
  5
449
100
AcDbEntity
  8
0
 62
     7
100
AcDbCircle
 10
1.294249
 20
1.902355
 30
0.0
 40
0.490194
100
AcDbArc
 50
343.536664
 51
9.428057
  0
ARC
  5
44A
100
AcDbEntity
  8
0
 62
     7
100
AcDbCircle
 10
1.606565
 20
1.794798
 30
0.0
 40
0.134593
100
AcDbArc
 50
246.27296
 51
277.841538
  0
ARC
  5
44C
100
AcDbEntity
  8
0
 62
     7
100
AcDbCircle
 10
1.642057
 20
1.806913
 30
0.0
 40
0.129788
100
AcDbArc
 50
303.503904
 51
340.42693
  0
ARC
  5
44D
100
AcDbEntity
  8
0
 62
     7
100
AcDbCircle
 10
1.605562
 20
1.832098
 30
0.0
 40
0.17173
100
AcDbArc
 50
276.47494
 51
309.027245
  0
ARC
  5
44E
100
AcDbEntity
  8
0
 62
     7
100
AcDbCircle
 10
1.362343
 20
2.245222
 30
0.0
 40
0.192617
100
AcDbArc
 50
81.108747
 51
140.233332
  0
ARC
  5
44F
100
AcDbEntity
  8
0
 62
     7
100
AcDbCircle
 10
1.236592
 20
2.026812
 30
0.0
 40
0.437301
100
AcDbArc
 50
53.206842
 51
69.167321
  0
ARC
  5
450
100
AcDbEntity
  8
0
 62
     7
100
AcDbCircle
 10
1.269213
 20
2.326491
 30
0.0
 40
0.069108
100
AcDbArc
 50
142.635369
 51
195.334869
  0
ARC
  5
451
100
AcDbEntity
  8
0
 62
     7
100
AcDbCircle
 10
1.635113
 20
2.426829
 30
0.0
 40
0.448516
100
AcDbArc
 50
195.334869
 51
206.547897
  0
ARC
  5
452
100
AcDbEntity
  8
0
 62
     7
100
AcDbCircle
 10
1.357379
 20
2.243509
 30
0.0
 40
0.124675
100
AcDbArc
 50
187.902866
 51
221.542162
  0
ARC
  5
453
100
AcDbEntity
  8
0
 62
     7
100
AcDbCircle
 10
1.654304
 20
2.506596
 30
0.0
 40
0.521386
100
AcDbArc
 50
221.542162
 51
227.905566
  0
ARC
  5
454
100
AcDbEntity
  8
0
 62
     7
100
AcDbCircle
 10
1.259874
 20
2.069986
 30
0.0
 40
0.067006
100
AcDbArc
 50
7.022523
 51
47.905566
  0
ARC
  5
455
100
AcDbEntity
  8
0
 62
     7
100
AcDbCircle
 10
1.107416
 20
2.051205
 30
0.0
 40
0.220615
100
AcDbArc
 50
342.071846
 51
7.022523
  0
ARC
  5
456
100
AcDbEntity
  8
0
 62
     7
100
AcDbCircle
 10
1.383795
 20
1.961787
 30
0.0
 40
0.069869
100
AcDbArc
 50
162.071846
 51
192.641439
  0
ARC
  5
457
100
AcDbEntity
  8
0
 62
     7
100
AcDbCircle
 10
1.98255
 20
2.09608
 30
0.0
 40
0.683499
100
AcDbArc
 50
192.641439
 51
201.792791
  0
ARC
  5
458
100
AcDbEntity
  8
0
 62
     7
100
AcDbCircle
 10
1.558573
 20
1.926563
 30
0.0
 40
0.226889
100
AcDbArc
 50
201.792791
 51
214.28972
  0
ARC
  5
459
100
AcDbEntity
  8
0
 62
     7
100
AcDbCircle
 10
1.581985
 20
2.051726
 30
0.0
 40
0.339716
100
AcDbArc
 50
181.941963
 51
228.39037
  0
ARC
  5
45A
100
AcDbEntity
  8
0
 62
     7
100
AcDbCircle
 10
1.23013
 20
2.029423
 30
0.0
 40
0.016388
100
AcDbArc
 50
41.182873
 51
149.896592
  0
ARC
  5
45B
100
AcDbEntity
  8
0
 62
     7
100
AcDbCircle
 10
1.305194
 20
1.985904
 30
0.0
 40
0.103155
100
AcDbArc
 50
149.896592
 51
175.469964
  0
ARC
  5
45C
100
AcDbEntity
  8
0
 62
     7
100
AcDbCircle
 10
1.436212
 20
1.975523
 30
0.0
 40
0.234585
100
AcDbArc
 50
175.469964
 51
184.201567
  0
ARC
  5
45D
100
AcDbEntity
  8
0
 62
     7
100
AcDbCircle
 10
1.423084
 20
1.911009
 30
0.0
 40
0.199659
100
AcDbArc
 50
207.572713
 51
236.271655
  0
ARC
  5
45E
100
AcDbEntity
  8
0
 62
     7
100
AcDbCircle
 10
1.514195
 20
1.979455
 30
0.0
 40
0.312651
100
AcDbArc
 50
183.873082
 51
210.964775
  0
ARC
  5
45F
100
AcDbEntity
  8
0
 62
     7
100
AcDbCircle
 10
1.350037
 20
1.815496
 30
0.0
 40
0.080035
100
AcDbArc
 50
241.805156
 51
287.809196
  0
ARC
  5
460
100
AcDbEntity
  8
0
 62
     7
100
AcDbCircle
 10
1.339239
 20
1.849109
 30
0.0
 40
0.11534
100
AcDbArc
 50
287.809196
 51
303.458899
  0
ARC
  5
461
100
AcDbEntity
  8
0
 62
     7
100
AcDbCircle
 10
1.417271
 20
1.731031
 30
0.0
 40
0.026192
100
AcDbArc
 50
56.541101
 51
123.458899
  0
ARC
  5
462
100
AcDbEntity
  8
0
 62
     7
100
AcDbCircle
 10
-3.115125
 20
-5.127357
 30
0.0
 40
8.246903
100
AcDbArc
 50
55.530048
 51
56.541101
  0
ARC
  5
468
100
AcDbEntity
  8
0
 62
     7
100
AcDbCircle
 10
0.429565
 20
2.565315
 30
0.0
 40
0.836125
100
AcDbArc
 50
301.17865
 51
327.874056
  0
ARC
  5
469
100
AcDbEntity
  8
0
 62
     7
100
AcDbCircle
 10
1.079087
 20
2.157461
 30
0.0
 40
0.069168
100
AcDbArc
 50
327.874056
 51
16.931977
  0
ARC
  5
46A
100
AcDbEntity
  8
0
 62
     7
100
AcDbCircle
 10
1.313121
 20
2.228709
 30
0.0
 40
0.175471
100
AcDbArc
 50
184.920291
 51
196.931977
  0
ARC
  5
46B
100
AcDbEntity
  8
0
 62
     7
100
AcDbCircle
 10
1.154974
 20
2.215094
 30
0.0
 40
0.016739
100
AcDbArc
 50
42.063768
 51
184.920291
  0
ARC
  5
46C
100
AcDbEntity
  8
0
 62
     7
100
AcDbCircle
 10
1.152821
 20
2.213151
 30
0.0
 40
0.019639
100
AcDbArc
 50
26.403666
 51
42.063768
  0
ARC
  5
46E
100
AcDbEntity
  8
0
 62
     7
100
AcDbCircle
 10
0.757362
 20
2.156553
 30
0.0
 40
0.422065
100
AcDbArc
 50
339.313813
 51
5.442007
  0
LINE
  5
46F
100
AcDbEntity
  8
0
 62
     7
100
AcDbLine
 10
1.177525
 20
2.196581
 30
0.0
 11
1.170412
 21
2.221885
 31
0.0
  0
ARC
  5
473
100
AcDbEntity
  8
0
 62
     7
100
AcDbCircle
 10
1.062548
 20
2.367783
 30
0.0
 40
0.06216
100
AcDbArc
 50
347.246806
 51
72.968527
  0
ARC
  5
474
100
AcDbEntity
  8
0
 62
     7
100
AcDbCircle
 10
1.028456
 20
2.375499
 30
0.0
 40
0.097113
100
AcDbArc
 50
329.999858
 51
347.246806
  0
ARC
  5
475
100
AcDbEntity
  8
0
 62
     7
100
AcDbCircle
 10
1.332143
 20
2.200164
 30
0.0
 40
0.253554
100
AcDbArc
 50
149.999858
 51
156.855764
  0
ARC
  5
476
100
AcDbEntity
  8
0
 62
     7
100
AcDbCircle
 10
0.885461
 20
2.391098
 30
0.0
 40
0.232224
100
AcDbArc
 50
318.536167
 51
336.855764
  0
ARC
  5
477
100
AcDbEntity
  8
0
 62
     7
100
AcDbCircle
 10
1.148973
 20
2.158259
 30
0.0
 40
0.119419
100
AcDbArc
 50
138.536167
 51
161.245713
  0
ARC
  5
478
100
AcDbEntity
  8
0
 62
     7
100
AcDbCircle
 10
1.199692
 20
2.141038
 30
0.0
 40
0.172982
100
AcDbArc
 50
161.245713
 51
188.953056
  0
ARC
  5
479
100
AcDbEntity
  8
0
 62
     7
100
AcDbCircle
 10
0.984067
 20
2.107067
 30
0.0
 40
0.045302
100
AcDbArc
 50
344.108359
 51
8.953056
  0
ARC
  5
47A
100
AcDbEntity
  8
0
 62
     7
100
AcDbCircle
 10
1.012852
 20
2.098872
 30
0.0
 40
0.015374
100
AcDbArc
 50
254.591831
 51
344.108359
  0
ARC
  5
47B
100
AcDbEntity
  8
0
 62
     7
100
AcDbCircle
 10
0.991235
 20
2.020435
 30
0.0
 40
0.065987
100
AcDbArc
 50
74.591831
 51
91.162548
  0
ARC
  5
47C
100
AcDbEntity
  8
0
 62
     7
100
AcDbCircle
 10
0.992446
 20
1.960763
 30
0.0
 40
0.125672
100
AcDbArc
 50
91.162548
 51
115.673066
  0
ARC
  5
47D
100
AcDbEntity
  8
0
 62
     7
100
AcDbCircle
 10
0.942156
 20
2.065383
 30
0.0
 40
0.009593
100
AcDbArc
 50
115.673066
 51
170.570116
  0
ARC
  5
47E
100
AcDbEntity
  8
0
 62
     7
100
AcDbCircle
 10
1.872878
 20
1.569533
 30
0.0
 40
1.063662
100
AcDbArc
 50
152.118168
 51
156.067198
  0
ARC
  5
47F
100
AcDbEntity
  8
0
 62
     7
100
AcDbCircle
 10
0.925469
 20
2.024626
 30
0.0
 40
0.034237
100
AcDbArc
 50
196.199517
 51
223.58208
  0
ARC
  5
480
100
AcDbEntity
  8
0
 62
     7
100
AcDbCircle
 10
0.949621
 20
2.031643
 30
0.0
 40
0.059387
100
AcDbArc
 50
158.513721
 51
196.199517
  0
ARC
  5
481
100
AcDbEntity
  8
0
 62
     7
100
AcDbCircle
 10
0.747939
 20
2.111031
 30
0.0
 40
0.157357
100
AcDbArc
 50
338.513721
 51
352.082892
  0
ARC
  5
482
100
AcDbEntity
  8
0
 62
     7
100
AcDbCircle
 10
1.125166
 20
2.138424
 30
0.0
 40
0.226742
100
AcDbArc
 50
165.581262
 51
192.497815
  0
ARC
  5
483
100
AcDbEntity
  8
0
 62
     7
100
AcDbCircle
 10
0.860332
 20
2.206515
 30
0.0
 40
0.046705
100
AcDbArc
 50
345.581262
 51
17.083927
  0
ARC
  5
484
100
AcDbEntity
  8
0
 62
     7
100
AcDbCircle
 10
0.643137
 20
2.139763
 30
0.0
 40
0.273926
100
AcDbArc
 50
17.083927
 51
30.310609
  0
ARC
  5
485
100
AcDbEntity
  8
0
 62
     7
100
AcDbCircle
 10
0.98157
 20
2.337612
 30
0.0
 40
0.118097
100
AcDbArc
 50
193.304485
 51
210.310609
  0
ARC
  5
486
100
AcDbEntity
  8
0
 62
     7
100
AcDbCircle
 10
-0.171105
 20
2.065036
 30
0.0
 40
1.066369
100
AcDbArc
 50
13.304485
 51
15.824719
  0
ARC
  5
487
100
AcDbEntity
  8
0
 62
     7
100
AcDbCircle
 10
0.904943
 20
2.370028
 30
0.0
 40
0.052067
100
AcDbArc
 50
127.660903
 51
195.824719
  0
ARC
  5
488
100
AcDbEntity
  8
0
 62
     7
100
AcDbCircle
 10
0.999107
 20
2.131067
 30
0.0
 40
0.307198
100
AcDbArc
 50
74.586827
 51
114.210087
  0
ARC
  5
48C
100
AcDbEntity
  8
0
 62
     7
100
AcDbCircle
 10
1.358099
 20
3.005403
 30
0.0
 40
0.512871
100
AcDbArc
 50
213.590269
 51
242.453048
  0
ARC
  5
48D
100
AcDbEntity
  8
0
 62
     7
100
AcDbCircle
 10
0.941709
 20
2.69644
 30
0.0
 40
0.027448
100
AcDbArc
 50
113.259813
 51
205.244575
  0
ARC
  5
48E
100
AcDbEntity
  8
0
 62
     7
100
AcDbCircle
 10
1.639311
 20
3.02537
 30
0.0
 40
0.798709
100
AcDbArc
 50
205.244575
 51
209.910362
  0
ARC
  5
48F
100
AcDbEntity
  8
0
 62
     7
100
AcDbCircle
 10
0.942185
 20
2.624337
 30
0.0
 40
0.005538
100
AcDbArc
 50
282.817844
 51
29.910362
  0
ARC
  5
490
100
AcDbEntity
  8
0
 62
     7
100
AcDbCircle
 10
3.06007
 20
-6.684146
 30
0.0
 40
9.540838
100
AcDbArc
 50
102.817844
 51
103.050482
  0
ARC
  5
491
100
AcDbEntity
  8
0
 62
     7
100
AcDbCircle
 10
0.927111
 20
2.517717
 30
0.0
 40
0.095004
100
AcDbArc
 50
103.050482
 51
125.08702
  0
ARC
  5
492
100
AcDbEntity
  8
0
 62
     7
100
AcDbCircle
 10
0.936066
 20
2.386053
 30
0.0
 40
0.206137
100
AcDbArc
 50
69.513792
 51
105.596189
  0
ARC
  5
493
100
AcDbEntity
  8
0
 62
     7
100
AcDbCircle
 10
0.892941
 20
2.270625
 30
0.0
 40
0.329359
100
AcDbArc
 50
52.43004
 51
69.513792
  0
LINE
  5
494
100
AcDbEntity
  8
0
 62
     7
100
AcDbLine
 10
1.093761
 20
2.531677
 30
0.0
 11
1.120909
 21
2.550675
 31
0.0
  0
ARC
  5
495
100
AcDbEntity
  8
0
 62
     7
100
AcDbCircle
 10
0.876959
 20
2.590318
 30
0.0
 40
0.006803
100
AcDbArc
 50
130.946754
 51
302.810178
  0
ARC
  5
497
100
AcDbEntity
  8
0
 62
     7
100
AcDbCircle
 10
1.679889
 20
2.863203
 30
0.0
 40
0.095414
100
AcDbArc
 50
297.971078
 51
349.918766
  0
ARC
  5
49C
100
AcDbEntity
  8
0
 62
     7
100
AcDbCircle
 10
1.827867
 20
2.389238
 30
0.0
 40
0.429864
100
AcDbArc
 50
133.62833
 51
140.41569
  0
ARC
  5
49D
100
AcDbEntity
  8
0
 62
     7
100
AcDbCircle
 10
0.961406
 20
3.105637
 30
0.0
 40
0.694405
100
AcDbArc
 50
314.022387
 51
320.41569
  0
ARC
  5
49E
100
AcDbEntity
  8
0
 62
     7
100
AcDbCircle
 10
1.465706
 20
2.816347
 30
0.0
 40
0.211156
100
AcDbArc
 50
218.930568
 51
264.093109
  0
ARC
  5
49F
100
AcDbEntity
  8
0
 62
     7
100
AcDbCircle
 10
1.337618
 20
2.636686
 30
0.0
 40
0.059288
100
AcDbArc
 50
127.596271
 51
245.901392
  0
ARC
  5
4A0
100
AcDbEntity
  8
0
 62
     7
100
AcDbCircle
 10
0.728989
 20
0.281893
 30
0.0
 40
2.373739
100
AcDbArc
 50
71.505177
 51
75.747071
  0
ARC
  5
4A1
100
AcDbEntity
  8
0
 62
     7
100
AcDbCircle
 10
1.664172
 20
2.428564
 30
0.0
 40
0.193607
100
AcDbArc
 50
92.649928
 51
130.810382
  0
ARC
  5
4A2
100
AcDbEntity
  8
0
 62
     7
100
AcDbCircle
 10
1.752746
 20
1.559116
 30
0.0
 40
1.067314
100
AcDbArc
 50
86.09614
 51
95.242711
  0
ARC
  5
4A3
100
AcDbEntity
  8
0
 62
     7
100
AcDbCircle
 10
1.784392
 20
2.613407
 30
0.0
 40
0.042354
100
AcDbArc
 50
14.418321
 51
80.37135
  0
ARC
  5
4A4
100
AcDbEntity
  8
0
 62
     7
100
AcDbCircle
 10
1.712618
 20
2.190342
 30
0.0
 40
0.471464
100
AcDbArc
 50
80.37135
 51
94.112145
  0
ARC
  5
4A5
100
AcDbEntity
  8
0
 62
     7
100
AcDbCircle
 10
1.677406
 20
2.680121
 30
0.0
 40
0.01958
100
AcDbArc
 50
165.516573
 51
274.112145
  0
ARC
  5
4A6
100
AcDbEntity
  8
0
 62
     7
100
AcDbCircle
 10
1.772672
 20
2.828551
 30
0.0
 40
0.017988
100
AcDbArc
 50
351.396726
 51
86.311394
  0
ARC
  5
4A7
100
AcDbEntity
  8
0
 62
     7
100
AcDbCircle
 10
1.691209
 20
2.840876
 30
0.0
 40
0.100378
100
AcDbArc
 50
315.419327
 51
351.396726
  0
ARC
  5
4A8
100
AcDbEntity
  8
0
 62
     7
100
AcDbCircle
 10
0.369374
 20
4.143502
 30
0.0
 40
1.956202
100
AcDbArc
 50
313.262054
 51
315.419327
  0
ARC
  5
4A9
100
AcDbEntity
  8
0
 62
     7
100
AcDbCircle
 10
1.587344
 20
2.849308
 30
0.0
 40
0.179017
100
AcDbArc
 50
293.40299
 51
313.262054
  0
LINE
  5
4AA
100
AcDbEntity
  8
0
 62
     7
100
AcDbLine
 10
1.481984
 20
2.533034
 30
0.0
 11
1.537638
 21
2.575101
 31
0.0
  0
ARC
  5
4AB
100
AcDbEntity
  8
0
 62
     7
100
AcDbCircle
 10
1.589474
 20
2.639328
 30
0.0
 40
0.084356
100
AcDbArc
 50
71.481154
 51
133.628574
  0
ARC
  5
4AD
100
AcDbEntity
  8
0
 62
     7
100
AcDbCircle
 10
1.539918
 20
2.986408
 30
0.0
 40
0.27779
100
AcDbArc
 50
285.952756
 51
311.680165
  0
ARC
  5
4AE
100
AcDbEntity
  8
0
 62
     7
100
AcDbCircle
 10
0.880347
 20
1.652252
 30
0.0
 40
0.096448
100
AcDbArc
 50
108.863129
 51
196.583396
  0
ARC
  5
4AF
100
AcDbEntity
  8
0
 62
     7
100
AcDbCircle
 10
0.634564
 20
1.359408
 30
0.0
 40
0.236016
100
AcDbArc
 50
334.698945
 51
13.699023
  0
LINE
  5
4B0
100
AcDbEntity
  8
0
 62
     7
100
AcDbLine
 10
0.863866
 20
1.415302
 30
0.0
 11
0.787911
 21
1.624724
 31
0.0
  0
ARC
  5
4B1
100
AcDbEntity
  8
0
 62
     7
100
AcDbCircle
 10
0.854494
 20
1.72974
 30
0.0
 40
0.014774
100
AcDbArc
 50
344.408007
 51
111.141183
  0
ARC
  5
4B2
100
AcDbEntity
  8
0
 62
     7
100
AcDbCircle
 10
0.94372
 20
1.704841
 30
0.0
 40
0.077861
100
AcDbArc
 50
164.408007
 51
215.776258
  0
ARC
  5
4B4
100
AcDbEntity
  8
0
 62
     7
100
AcDbCircle
 10
0.494258
 20
1.483561
 30
0.0
 40
0.424398
100
AcDbArc
 50
349.569863
 51
24.465285
  0
ARC
  5
4B5
100
AcDbEntity
  8
0
 62
     7
100
AcDbCircle
 10
1.23183
 20
1.369637
 30
0.0
 40
0.322328
100
AcDbArc
 50
173.391948
 51
191.998307
  0
ARC
  5
4B6
100
AcDbEntity
  8
0
 62
     7
100
AcDbCircle
 10
0.990733
 20
1.183261
 30
0.0
 40
0.140545
100
AcDbArc
 50
121.8613
 51
152.407342
  0
ARC
  5
4B7
100
AcDbEntity
  8
0
 62
     7
100
AcDbCircle
 10
0.856915
 20
1.253198
 30
0.0
 40
0.010446
100
AcDbArc
 50
149.231676
 51
332.407342
  0
ARC
  5
4B9
100
AcDbEntity
  8
0
 62
     7
100
AcDbCircle
 10
1.038923
 20
1.751017
 30
0.0
 40
0.055109
100
AcDbArc
 50
31.293398
 51
122.233507
  0
ARC
  5
4BA
100
AcDbEntity
  8
0
 62
     7
100
AcDbCircle
 10
0.959681
 20
1.7109
 30
0.0
 40
0.049138
100
AcDbArc
 50
111.841955
 51
208.094391
  0
ARC
  5
4BB
100
AcDbEntity
  8
0
 62
     7
100
AcDbCircle
 10
0.955377
 20
1.810352
 30
0.0
 40
0.055626
100
AcDbArc
 50
255.447025
 51
346.782135
  0
ARC
  5
4BC
100
AcDbEntity
  8
0
 62
     7
100
AcDbCircle
 10
2.691777
 20
1.933659
 30
0.0
 40
1.613132
100
AcDbArc
 50
185.478781
 51
196.416443
  0
ARC
  5
4BD
100
AcDbEntity
  8
0
 62
     7
100
AcDbCircle
 10
1.150466
 20
1.545117
 30
0.0
 40
0.067628
100
AcDbArc
 50
264.860665
 51
316.518445
  0
ARC
  5
4BE
100
AcDbEntity
  8
0
 62
     7
100
AcDbCircle
 10
0.355107
 20
1.369086
 30
0.0
 40
0.645389
100
AcDbArc
 50
5.081392
 51
29.588699
  0
ARC
  5
4BF
100
AcDbEntity
  8
0
 62
     7
100
AcDbCircle
 10
0.862761
 20
1.414227
 30
0.0
 40
0.135732
100
AcDbArc
 50
345.388374
 51
5.081392
  0
ARC
  5
4C0
100
AcDbEntity
  8
0
 62
     7
100
AcDbCircle
 10
0.778765
 20
1.436124
 30
0.0
 40
0.222536
100
AcDbArc
 50
311.542335
 51
345.388374
  0
ARC
  5
4C1
100
AcDbEntity
  8
0
 62
     7
100
AcDbCircle
 10
0.987413
 20
1.102727
 30
0.0
 40
0.177662
100
AcDbArc
 50
69.808074
 51
110.104559
  0
ARC
  5
4C2
100
AcDbEntity
  8
0
 62
     7
100
AcDbCircle
 10
1.075507
 20
1.342264
 30
0.0
 40
0.077561
100
AcDbArc
 50
249.808074
 51
313.684781
  0
ARC
  5
4C3
100
AcDbEntity
  8
0
 62
     7
100
AcDbCircle
 10
0.961364
 20
1.461772
 30
0.0
 40
0.242821
100
AcDbArc
 50
313.684781
 51
330.44077
  0
ARC
  5
4C4
100
AcDbEntity
  8
0
 62
     7
100
AcDbCircle
 10
1.58164
 20
1.352189
 30
0.0
 40
0.409187
100
AcDbArc
 50
159.037141
 51
181.429272
  0
ARC
  5
4C6
100
AcDbEntity
  8
0
 62
     7
100
AcDbCircle
 10
2.890955
 20
1.125713
 30
0.0
 40
0.197826
100
AcDbArc
 50
100.563166
 51
190.103436
  0
ARC
  5
4C7
100
AcDbEntity
  8
0
 62
     7
100
AcDbCircle
 10
2.797249
 20
1.121128
 30
0.0
 40
0.20718
100
AcDbArc
 50
73.903941
 51
144.087542
  0
ARC
  5
4C8
100
AcDbEntity
  8
0
 62
     7
100
AcDbCircle
 10
2.687084
 20
1.200911
 30
0.0
 40
0.071159
100
AcDbArc
 50
144.087542
 51
212.216096
  0
ARC
  5
4C9
100
AcDbEntity
  8
0
 62
     7
100
AcDbCircle
 10
2.369204
 20
-0.586325
 30
0.0
 40
1.768177
100
AcDbArc
 50
81.620441
 51
86.417348
  0
ARC
  5
4CA
100
AcDbEntity
  8
0
 62
     7
100
AcDbCircle
 10
2.477171
 20
1.138097
 30
0.0
 40
0.040378
100
AcDbArc
 50
86.417348
 51
166.454485
  0
ARC
  5
4CB
100
AcDbEntity
  8
0
 62
     7
100
AcDbCircle
 10
2.490955
 20
1.134776
 30
0.0
 40
0.054556
100
AcDbArc
 50
166.454485
 51
216.172259
  0
ARC
  5
4CC
100
AcDbEntity
  8
0
 62
     7
100
AcDbCircle
 10
2.639264
 20
2.555922
 30
0.0
 40
1.466018
100
AcDbArc
 50
262.460743
 51
272.225629
  0
ARC
  5
4CF
100
AcDbEntity
  8
0
 62
     7
100
AcDbCircle
 10
2.670884
 20
1.792413
 30
0.0
 40
0.201313
100
AcDbArc
 50
213.145068
 51
274.793391
  0
ARC
  5
4D0
100
AcDbEntity
  8
0
 62
     7
100
AcDbCircle
 10
2.868504
 20
1.716091
 30
0.0
 40
0.219398
100
AcDbArc
 50
214.506227
 51
254.023977
  0
ARC
  5
4D1
100
AcDbEntity
  8
0
 62
     7
100
AcDbCircle
 10
2.778073
 20
1.400224
 30
0.0
 40
0.10916
100
AcDbArc
 50
21.534204
 51
74.023977
  0
ARC
  5
4D2
100
AcDbEntity
  8
0
 62
     7
100
AcDbCircle
 10
2.874233
 20
1.438168
 30
0.0
 40
0.005785
100
AcDbArc
 50
240.276825
 51
21.534204
  0
LINE
  5
4D3
100
AcDbEntity
  8
0
 62
     7
100
AcDbLine
 10
2.871365
 20
1.433144
 30
0.0
 11
2.863665
 21
1.440291
 31
0.0
  0
ARC
  5
4D4
100
AcDbEntity
  8
0
 62
     7
100
AcDbCircle
 10
2.747078
 20
1.29579
 30
0.0
 40
0.18567
100
AcDbArc
 50
51.10258
 51
82.513158
  0
ARC
  5
4D5
100
AcDbEntity
  8
0
 62
     7
100
AcDbCircle
 10
2.794305
 20
1.655152
 30
0.0
 40
0.176783
100
AcDbArc
 50
235.75551
 51
262.513158
  0
ARC
  5
4D6
100
AcDbEntity
  8
0
 62
     7
100
AcDbCircle
 10
2.609305
 20
1.393745
 30
0.0
 40
0.15114
100
AcDbArc
 50
70.091558
 51
119.558418
  0
LINE
  5
4D7
100
AcDbEntity
  8
0
 62
     7
100
AcDbLine
 10
2.694825
 20
1.509016
 30
0.0
 11
2.670183
 21
1.530334
 31
0.0
  0
ARC
  5
4D9
100
AcDbEntity
  8
0
 62
     7
100
AcDbCircle
 10
2.466226
 20
1.619174
 30
0.0
 40
0.125086
100
AcDbArc
 50
254.614907
 51
285.962043
  0
ARC
  5
4DA
100
AcDbEntity
  8
0
 62
     7
100
AcDbCircle
 10
2.705678
 20
1.301504
 30
0.0
 40
0.336402
100
AcDbArc
 50
127.190072
 51
144.140172
  0
ARC
  5
4DB
100
AcDbEntity
  8
0
 62
     7
100
AcDbCircle
 10
2.854913
 20
1.625947
 30
0.0
 40
0.357068
100
AcDbArc
 50
170.912682
 51
189.096811
  0
ARC
  5
4DC
100
AcDbEntity
  8
0
 62
     7
100
AcDbCircle
 10
2.366193
 20
2.302793
 30
0.0
 40
0.404143
100
AcDbArc
 50
146.430247
 51
213.453956
  0
ARC
  5
4DD
100
AcDbEntity
  8
0
 62
     7
100
AcDbCircle
 10
1.593347
 20
1.79215
 30
0.0
 40
0.522165
100
AcDbArc
 50
0.206926
 51
33.453956
  0
ARC
  5
4DE
100
AcDbEntity
  8
0
 62
     7
100
AcDbCircle
 10
1.647167
 20
1.792345
 30
0.0
 40
0.468345
100
AcDbArc
 50
338.708297
 51
0.206926
  0
ARC
  5
4DF
100
AcDbEntity
  8
0
 62
     7
100
AcDbCircle
 10
2.125162
 20
1.606062
 30
0.0
 40
0.044666
100
AcDbArc
 50
158.708297
 51
213.960869
  0
ARC
  5
4E0
100
AcDbEntity
  8
0
 62
     7
100
AcDbCircle
 10
2.103232
 20
1.591292
 30
0.0
 40
0.018225
100
AcDbArc
 50
213.960869
 51
307.397635
  0
ARC
  5
4E1
100
AcDbEntity
  8
0
 62
     7
100
AcDbCircle
 10
2.100582
 20
1.594758
 30
0.0
 40
0.022588
100
AcDbArc
 50
307.397635
 51
351.11558
  0
ARC
  5
4E2
100
AcDbEntity
  8
0
 62
     7
100
AcDbCircle
 10
2.302164
 20
1.450026
 30
0.0
 40
0.228223
100
AcDbArc
 50
123.426872
 51
141.765341
  0
LINE
  5
4E3
100
AcDbEntity
  8
0
 62
     7
100
AcDbLine
 10
2.176442
 20
1.640498
 30
0.0
 11
2.190512
 21
1.666675
 31
0.0
  0
LINE
  5
4E4
100
AcDbEntity
  8
0
 62
     7
100
AcDbLine
 10
2.190512
 20
1.666675
 30
0.0
 11
2.196765
 21
1.663159
 31
0.0
  0
LINE
  5
4E5
100
AcDbEntity
  8
0
 62
     7
100
AcDbLine
 10
2.196765
 20
1.663159
 30
0.0
 11
2.179569
 21
1.609632
 31
0.0
  0
ARC
  5
4E6
100
AcDbEntity
  8
0
 62
     7
100
AcDbCircle
 10
2.006778
 20
1.552336
 30
0.0
 40
0.082693
100
AcDbArc
 50
144.35112
 51
248.517152
  0
ARC
  5
4E7
100
AcDbEntity
  8
0
 62
     7
100
AcDbCircle
 10
2.113298
 20
1.520757
 30
0.0
 40
0.058216
100
AcDbArc
 50
271.198233
 51
329.028508
  0
ARC
  5
4E8
100
AcDbEntity
  8
0
 62
     7
100
AcDbCircle
 10
2.6549
 20
1.501711
 30
0.0
 40
0.487429
100
AcDbArc
 50
167.208189
 51
179.498919
  0
ARC
  5
4E9
100
AcDbEntity
  8
0
 62
     7
100
AcDbCircle
 10
2.09558
 20
2.007446
 30
0.0
 40
0.545222
100
AcDbArc
 50
257.383954
 51
271.990248
  0
ARC
  5
4EA
100
AcDbEntity
  8
0
 62
     7
100
AcDbCircle
 10
2.117324
 20
2.352773
 30
0.0
 40
0.231304
100
AcDbArc
 50
121.349383
 51
176.584259
  0
ARC
  5
4EB
100
AcDbEntity
  8
0
 62
     7
100
AcDbCircle
 10
2.474386
 20
2.331461
 30
0.0
 40
0.589002
100
AcDbArc
 50
176.584259
 51
202.957806
  0
ARC
  5
4EC
100
AcDbEntity
  8
0
 62
     7
100
AcDbCircle
 10
1.554296
 20
1.829061
 30
0.0
 40
0.462583
100
AcDbArc
 50
337.907167
 51
29.805611
  0
LINE
  5
4ED
100
AcDbEntity
  8
0
 62
     7
100
AcDbLine
 10
1.955687
 20
2.058992
 30
0.0
 11
1.933162
 21
2.099497
 31
0.0
  0
LINE
  5
4EE
100
AcDbEntity
  8
0
 62
     7
100
AcDbLine
 10
1.982914
 20
1.65508
 30
0.0
 11
1.939582
 21
1.600531
 31
0.0
  0
ARC
  5
4EF
100
AcDbEntity
  8
0
 62
     7
100
AcDbCircle
 10
2.049327
 20
1.756014
 30
0.0
 40
0.931683
100
AcDbArc
 50
164.342728
 51
175.507962
  0
ARC
  5
4F0
100
AcDbEntity
  8
0
 62
     7
100
AcDbCircle
 10
1.211626
 20
1.821825
 30
0.0
 40
0.0914
100
AcDbArc
 50
175.507962
 51
210.1083
  0
LINE
  5
4F1
100
AcDbEntity
  8
0
 62
     7
100
AcDbLine
 10
1.132557
 20
1.775975
 30
0.0
 11
1.147621
 21
1.760314
 31
0.0
  0
LINE
  5
4F2
100
AcDbEntity
  8
0
 62
     7
100
AcDbLine
 10
1.147621
 20
1.760314
 30
0.0
 11
1.142008
 21
1.748737
 31
0.0
  0
LINE
  5
4F3
100
AcDbEntity
  8
0
 62
     7
100
AcDbLine
 10
1.142008
 20
1.748737
 30
0.0
 11
1.121109
 21
1.763928
 31
0.0
  0
ARC
  5
4F4
100
AcDbEntity
  8
0
 62
     7
100
AcDbCircle
 10
1.297313
 20
1.895285
 30
0.0
 40
0.219778
100
AcDbArc
 50
167.022985
 51
216.703751
  0
ARC
  5
4F5
100
AcDbEntity
  8
0
 62
     7
100
AcDbCircle
 10
0.739541
 20
2.215423
 30
0.0
 40
0.437481
100
AcDbArc
 50
307.32458
 51
321.759506
  0
ARC
  5
4F6
100
AcDbEntity
  8
0
 62
     7
100
AcDbCircle
 10
0.994542
 20
1.880985
 30
0.0
 40
0.016918
100
AcDbArc
 50
174.541826
 51
307.32458
  0
ARC
  5
4F7
100
AcDbEntity
  8
0
 62
     7
100
AcDbCircle
 10
0.967868
 20
1.883534
 30
0.0
 40
0.009878
100
AcDbArc
 50
354.541826
 51
130.657647
  0
ARC
  5
4F8
100
AcDbEntity
  8
0
 62
     7
100
AcDbCircle
 10
0.782413
 20
2.099468
 30
0.0
 40
0.274764
100
AcDbArc
 50
287.497205
 51
310.657647
  0
LINE
  5
4F9
100
AcDbEntity
  8
0
 62
     7
100
AcDbLine
 10
0.865023
 20
1.837417
 30
0.0
 11
0.862434
 21
1.849962
 31
0.0
  0
CIRCLE
  5
4FA
100
AcDbEntity
  8
0
 62
     7
100
AcDbCircle
 10
2.299668
 20
0.922478
 30
0.0
 40
0.1875
  0
LINE
  5
4FE
100
AcDbEntity
  8
0
 62
     7
100
AcDbLine
 10
1.090442
 20
0.879398
 30
0.0
 11
1.125738
 21
0.880809
 31
0.0
  0
ARC
  5
4FF
100
AcDbEntity
  8
0
 62
     7
100
AcDbCircle
 10
1.235436
 20
0.907229
 30
0.0
 40
0.112834
100
AcDbArc
 50
140.326644
 51
193.54115
  0
ARC
  5
500
100
AcDbEntity
  8
0
 62
     7
100
AcDbCircle
 10
1.208745
 20
0.992058
 30
0.0
 40
0.061503
100
AcDbArc
 50
192.007273
 51
264.165362
  0
ARC
  5
501
100
AcDbEntity
  8
0
 62
     7
100
AcDbCircle
 10
1.196789
 20
0.875056
 30
0.0
 40
0.056108
100
AcDbArc
 50
29.219354
 51
84.165362
  0
ARC
  5
502
100
AcDbEntity
  8
0
 62
     7
100
AcDbCircle
 10
1.133941
 20
1.064266
 30
0.0
 40
0.196696
100
AcDbArc
 50
304.644405
 51
329.156113
  0
ARC
  5
503
100
AcDbEntity
  8
0
 62
     7
100
AcDbCircle
 10
1.344347
 20
1.004267
 30
0.0
 40
0.058252
100
AcDbArc
 50
224.524805
 51
264.640637
  0
ARC
  5
504
100
AcDbEntity
  8
0
 62
     7
100
AcDbCircle
 10
1.335403
 20
0.908926
 30
0.0
 40
0.037509
100
AcDbArc
 50
23.832672
 51
84.640637
  0
ARC
  5
505
100
AcDbEntity
  8
0
 62
     7
100
AcDbCircle
 10
1.462009
 20
0.957585
 30
0.0
 40
0.098188
100
AcDbArc
 50
109.805772
 51
199.950839
  0
ARC
  5
506
100
AcDbEntity
  8
0
 62
     7
100
AcDbCircle
 10
1.045131
 20
1.157735
 30
0.0
 40
0.152975
100
AcDbArc
 50
227.993275
 51
276.210417
  0
ARC
  5
507
100
AcDbEntity
  8
0
 62
     7
100
AcDbCircle
 10
0.997606
 20
1.686453
 30
0.0
 40
0.732896
100
AcDbArc
 50
293.087492
 51
304.900442
  0
LINE
  5
508
100
AcDbEntity
  8
0
 62
     7
100
AcDbLine
 10
1.285001
 20
1.012256
 30
0.0
 11
1.06168
 21
1.005658
 31
0.0
  0
ARC
  5
50C
100
AcDbEntity
  8
0
 62
     7
100
AcDbCircle
 10
2.210235
 20
1.320157
 30
0.0
 40
0.322295
100
AcDbArc
 50
197.534715
 51
227.681415
  0
ARC
  5
50D
100
AcDbEntity
  8
0
 62
     7
100
AcDbCircle
 10
1.900116
 20
0.979562
 30
0.0
 40
0.138334
100
AcDbArc
 50
4.203524
 51
47.681415
  0
ARC
  5
50E
100
AcDbEntity
  8
0
 62
     7
100
AcDbCircle
 10
2.451228
 20
1.020067
 30
0.0
 40
0.414264
100
AcDbArc
 50
184.203524
 51
198.491529
  0
ARC
  5
50F
100
AcDbEntity
  8
0
 62
     7
100
AcDbCircle
 10
2.050348
 20
1.163789
 30
0.0
 40
0.158898
100
AcDbArc
 50
158.100431
 51
206.485085
  0
ARC
  5
510
100
AcDbEntity
  8
0
 62
     7
100
AcDbCircle
 10
2.06344
 20
1.170312
 30
0.0
 40
0.173525
100
AcDbArc
 50
206.485085
 51
232.577684
  0
LINE
  5
511
100
AcDbEntity
  8
0
 62
     7
100
AcDbLine
 10
1.957992
 20
1.032502
 30
0.0
 11
1.975715
 21
1.016527
 31
0.0
  0
ARC
  5
512
100
AcDbEntity
  8
0
 62
     7
100
AcDbCircle
 10
1.912484
 20
1.08952
 30
0.0
 40
0.096572
100
AcDbArc
 50
238.334051
 51
310.901563
  0
ARC
  5
513
100
AcDbEntity
  8
0
 62
     7
100
AcDbCircle
 10
1.718292
 20
1.145965
 30
0.0
 40
0.114667
100
AcDbArc
 50
221.647999
 51
302.371513
  0
ARC
  5
514
100
AcDbEntity
  8
0
 62
     7
100
AcDbCircle
 10
1.796153
 20
1.023141
 30
0.0
 40
0.030757
100
AcDbArc
 50
65.516425
 51
122.371513
  0
LINE
  5
515
100
AcDbEntity
  8
0
 62
     7
100
AcDbLine
 10
1.861787
 20
1.007325
 30
0.0
 11
1.8089
 21
1.051132
 31
0.0
  0
ARC
  5
516
100
AcDbEntity
  8
0
 62
     7
100
AcDbCircle
 10
1.351452
 20
2.2242
 30
0.0
 40
1.213708
100
AcDbArc
 50
273.371834
 51
281.812782
  0
ARC
  5
517
100
AcDbEntity
  8
0
 62
     7
100
AcDbCircle
 10
2.147805
 20
0.535266
 30
0.0
 40
0.74237
100
AcDbArc
 50
133.946613
 51
137.563605
  0
ARC
  5
518
100
AcDbEntity
  8
0
 62
     7
100
AcDbCircle
 10
1.593129
 20
0.980234
 30
0.0
 40
0.04055
100
AcDbArc
 50
184.306292
 51
242.140933
  0
ARC
  5
519
100
AcDbEntity
  8
0
 62
     7
100
AcDbCircle
 10
1.52975
 20
0.860323
 30
0.0
 40
0.09508
100
AcDbArc
 50
38.265467
 51
62.140933
  0
ARC
  5
51A
100
AcDbEntity
  8
0
 62
     7
100
AcDbCircle
 10
1.567101
 20
1.044923
 30
0.0
 40
0.131133
100
AcDbArc
 50
286.526225
 51
324.921186
  0
LINE
  5
51B
100
AcDbEntity
  8
0
 62
     7
100
AcDbLine
 10
1.674415
 20
0.96956
 30
0.0
 11
1.70813
 21
0.969321
 31
0.0
  0
ARC
  5
51C
100
AcDbEntity
  8
0
 62
     7
100
AcDbCircle
 10
1.583186
 20
0.849617
 30
0.0
 40
0.173032
100
AcDbArc
 50
10.38554
 51
43.773075
  0
LINE
  5
51D
100
AcDbEntity
  8
0
 62
     7
100
AcDbLine
 10
1.753383
 20
0.880809
 30
0.0
 11
1.765189
 21
0.880809
 31
0.0
  0
ARC
  5
51E
100
AcDbEntity
  8
0
 62
     7
100
AcDbCircle
 10
1.918843
 20
0.857954
 30
0.0
 40
0.155345
100
AcDbArc
 50
139.430317
 51
171.539497
  0
LINE
  5
51F
100
AcDbEntity
  8
0
 62
     7
100
AcDbLine
 10
1.800841
 20
0.958986
 30
0.0
 11
1.880423
 21
0.957476
 31
0.0
  0
ARC
  5
520
100
AcDbEntity
  8
0
 62
     7
100
AcDbCircle
 10
2.784165
 20
1.239014
 30
0.0
 40
0.94658
100
AcDbArc
 50
197.303112
 51
201.08289
  0
ARC
  5
521
100
AcDbEntity
  8
0
 62
     7
100
AcDbCircle
 10
1.56627
 20
0.898586
 30
0.0
 40
0.079766
100
AcDbArc
 50
99.798782
 51
150.106068
  0
ARC
  5
522
100
AcDbEntity
  8
0
 62
     7
100
AcDbCircle
 10
1.047979
 20
1.196543
 30
0.0
 40
0.518066
100
AcDbArc
 50
319.937909
 51
330.106068
  0
ARC
  5
523
100
AcDbEntity
  8
0
 62
     7
100
AcDbCircle
 10
1.167657
 20
0.907464
 30
0.0
 40
0.275987
100
AcDbArc
 50
3.171313
 51
22.390836
  0
ARC
  5
524
100
AcDbEntity
  8
0
 62
     7
100
AcDbCircle
 10
1.416115
 20
0.92123
 30
0.0
 40
0.027148
100
AcDbArc
 50
320.879903
 51
3.171313
  0
ARC
  5
525
100
AcDbEntity
  8
0
 62
     7
100
AcDbCircle
 10
1.473649
 20
0.87444
 30
0.0
 40
0.04701
100
AcDbArc
 50
140.879903
 51
188.062714
  0
ARC
  5
526
100
AcDbEntity
  8
0
 62
     7
100
AcDbCircle
 10
1.436813
 20
0.869222
 30
0.0
 40
0.009807
100
AcDbArc
 50
188.062714
 51
321.421615
  0
ARC
  5
527
100
AcDbEntity
  8
0
 62
     7
100
AcDbCircle
 10
1.73755
 20
1.13203
 30
0.0
 40
0.285009
100
AcDbArc
 50
304.981511
 51
326.832791
  0
ARC
  5
528
100
AcDbEntity
  8
0
 62
     7
100
AcDbCircle
 10
1.946561
 20
0.936001
 30
0.0
 40
0.049824
100
AcDbArc
 50
3.851738
 51
53.60397
  0
ARC
  5
529
100
AcDbEntity
  8
0
 62
     7
100
AcDbCircle
 10
2.064164
 20
0.943919
 30
0.0
 40
0.068046
100
AcDbArc
 50
183.851738
 51
226.535116
  0
LINE
  5
52A
100
AcDbEntity
  8
0
 62
     7
100
AcDbLine
 10
2.017355
 20
0.894532
 30
0.0
 11
2.058352
 21
0.888677
 31
0.0
  0
ARC
  5
52B
100
AcDbEntity
  8
0
 62
     7
100
AcDbCircle
 10
1.091245
 20
0.877857
 30
0.0
 40
0.121265
100
AcDbArc
 50
138.93436
 51
184.185032
  0
ARC
  5
52C
100
AcDbEntity
  8
0
 62
     7
100
AcDbCircle
 10
1.02077
 20
0.912308
 30
0.0
 40
0.048943
100
AcDbArc
 50
15.397876
 51
59.29837
  0
ARC
  5
52D
100
AcDbEntity
  8
0
 62
     7
100
AcDbCircle
 10
1.200678
 20
0.961856
 30
0.0
 40
0.137664
100
AcDbArc
 50
195.397876
 51
216.797057
  0
LINE
  5
52E
100
AcDbEntity
  8
0
 62
     7
100
AcDbLine
 10
1.045759
 20
0.954391
 30
0.0
 11
0.999816
 21
0.957519
 31
0.0
  0
LINE
  5
52F
100
AcDbEntity
  8
0
 62
     7
100
AcDbLine
 10
0.970303
 20
0.869008
 30
0.0
 11
0.94079
 21
0.882776
 31
0.0
  0
ARC
  5
530
100
AcDbEntity
  8
0
 62
     7
100
AcDbCircle
 10
1.134174
 20
0.855775
 30
0.0
 40
0.19526
100
AcDbArc
 50
154.545218
 51
172.051408
  0
ARC
  5
531
100
AcDbEntity
  8
0
 62
     7
100
AcDbCircle
 10
0.922516
 20
0.956525
 30
0.0
 40
0.039153
100
AcDbArc
 50
334.545218
 51
39.404625
  0
ARC
  5
532
100
AcDbEntity
  8
0
 62
     7
100
AcDbCircle
 10
1.061818
 20
1.070968
 30
0.0
 40
0.14113
100
AcDbArc
 50
193.987277
 51
219.404625
  0
LINE
  5
533
100
AcDbEntity
  8
0
 62
     7
100
AcDbLine
 10
0.924873
 20
1.036856
 30
0.0
 11
0.942757
 21
1.044064
 31
0.0
  0
ARC
  5
534
100
AcDbEntity
  8
0
 62
     7
100
AcDbCircle
 10
1.271964
 20
0.630942
 30
0.0
 40
0.159223
100
AcDbArc
 50
156.68861
 51
221.80928
  0
ARC
  5
535
100
AcDbEntity
  8
0
 62
     7
100
AcDbCircle
 10
1.223523
 20
0.582039
 30
0.0
 40
0.148614
100
AcDbArc
 50
131.145794
 51
170.711919
  0
ARC
  5
536
100
AcDbEntity
  8
0
 62
     7
100
AcDbCircle
 10
1.100569
 20
0.708848
 30
0.0
 40
0.161825
100
AcDbArc
 50
184.837236
 51
230.597915
  0
ARC
  5
537
100
AcDbEntity
  8
0
 62
     7
100
AcDbCircle
 10
0.816068
 20
0.709963
 30
0.0
 40
0.12291
100
AcDbArc
 50
298.064977
 51
353.081373
  0
ARC
  5
538
100
AcDbEntity
  8
0
 62
     7
100
AcDbCircle
 10
0.854305
 20
1.322188
 30
0.0
 40
0.770459
100
AcDbArc
 50
272.040889
 51
276.658567
  0
ARC
  5
539
100
AcDbEntity
  8
0
 62
     7
100
AcDbCircle
 10
0.957685
 20
0.436626
 30
0.0
 40
0.121117
100
AcDbArc
 50
73.168057
 51
96.658567
  0
ARC
  5
53A
100
AcDbEntity
  8
0
 62
     7
100
AcDbCircle
 10
1.147983
 20
1.065654
 30
0.0
 40
0.536067
100
AcDbArc
 50
253.168057
 51
264.908205
  0
ARC
  5
53B
100
AcDbEntity
  8
0
 62
     7
100
AcDbCircle
 10
1.042706
 20
-0.115853
 30
0.0
 40
0.650122
100
AcDbArc
 50
80.207096
 51
84.908205
  0
LINE
  5
53C
100
AcDbEntity
  8
0
 62
     7
100
AcDbLine
 10
0.881743
 20
0.552217
 30
0.0
 11
0.873893
 21
0.601506
 31
0.0
  0
ARC
  5
53D
100
AcDbEntity
  8
0
 62
     7
100
AcDbCircle
 10
1.250126
 20
0.583375
 30
0.0
 40
0.252278
100
AcDbArc
 50
161.715302
 51
179.902586
  0
ARC
  5
53E
100
AcDbEntity
  8
0
 62
     7
100
AcDbCircle
 10
1.019076
 20
0.639158
 30
0.0
 40
0.040334
100
AcDbArc
 50
7.897875
 51
37.782209
  0
ARC
  5
53F
100
AcDbEntity
  8
0
 62
     7
100
AcDbCircle
 10
1.13178
 20
0.654792
 30
0.0
 40
0.073448
100
AcDbArc
 50
187.897875
 51
221.602734
  0
LINE
  5
540
100
AcDbEntity
  8
0
 62
     7
100
AcDbLine
 10
1.050954
 20
0.663869
 30
0.0
 11
1.010586
 21
0.662524
 31
0.0
  0
ARC
  5
541
100
AcDbEntity
  8
0
 62
     7
100
AcDbCircle
 10
1.369333
 20
0.886911
 30
0.0
 40
0.245444
100
AcDbArc
 50
204.174616
 51
220.536409
  0
LINE
  5
542
100
AcDbEntity
  8
0
 62
     7
100
AcDbLine
 10
1.182797
 20
0.727389
 30
0.0
 11
1.271336
 21
0.701819
 31
0.0
  0
ARC
  5
543
100
AcDbEntity
  8
0
 62
     7
100
AcDbCircle
 10
1.735187
 20
0.483019
 30
0.0
 40
0.512865
100
AcDbArc
 50
154.746627
 51
173.949662
  0
ARC
  5
544
100
AcDbEntity
  8
0
 62
     7
100
AcDbCircle
 10
1.231981
 20
0.536356
 30
0.0
 40
0.006841
100
AcDbArc
 50
173.949662
 51
270.04244
  0
ARC
  5
545
100
AcDbEntity
  8
0
 62
     7
100
AcDbCircle
 10
1.232274
 20
0.141006
 30
0.0
 40
0.388509
100
AcDbArc
 50
76.572376
 51
90.04244
  0
ARC
  5
546
100
AcDbEntity
  8
0
 62
     7
100
AcDbCircle
 10
1.805005
 20
0.027671
 30
0.0
 40
0.688563
100
AcDbArc
 50
124.91767
 51
134.487418
  0
ARC
  5
547
100
AcDbEntity
  8
0
 62
     7
100
AcDbCircle
 10
1.424812
 20
0.572306
 30
0.0
 40
0.024354
100
AcDbArc
 50
60.059877
 51
124.91767
  0
ARC
  5
548
100
AcDbEntity
  8
0
 62
     7
100
AcDbCircle
 10
1.471109
 20
0.652689
 30
0.0
 40
0.068408
100
AcDbArc
 50
240.059877
 51
267.69451
  0
ARC
  5
549
100
AcDbEntity
  8
0
 62
     7
100
AcDbCircle
 10
1.47859
 20
0.838504
 30
0.0
 40
0.254373
100
AcDbArc
 50
267.69451
 51
284.195538
  0
ARC
  5
54A
100
AcDbEntity
  8
0
 62
     7
100
AcDbCircle
 10
1.558866
 20
0.521156
 30
0.0
 40
0.07297
100
AcDbArc
 50
69.780778
 51
104.195538
  0
ARC
  5
54B
100
AcDbEntity
  8
0
 62
     7
100
AcDbCircle
 10
1.635688
 20
0.729738
 30
0.0
 40
0.149309
100
AcDbArc
 50
249.780778
 51
265.2858
  0
ARC
  5
54C
100
AcDbEntity
  8
0
 62
     7
100
AcDbCircle
 10
1.626991
 20
0.624275
 30
0.0
 40
0.043489
100
AcDbArc
 50
265.2858
 51
290.648494
  0
ARC
  5
54D
100
AcDbEntity
  8
0
 62
     7
100
AcDbCircle
 10
1.679504
 20
0.484927
 30
0.0
 40
0.105426
100
AcDbArc
 50
92.858903
 51
110.648494
  0
ARC
  5
54E
100
AcDbEntity
  8
0
 62
     7
100
AcDbCircle
 10
1.672725
 20
0.620666
 30
0.0
 40
0.030483
100
AcDbArc
 50
272.858903
 51
315.418865
  0
ARC
  5
54F
100
AcDbEntity
  8
0
 62
     7
100
AcDbCircle
 10
2.288985
 20
0.013351
 30
0.0
 40
0.834739
100
AcDbArc
 50
125.954564
 51
135.418865
  0
ARC
  5
550
100
AcDbEntity
  8
0
 62
     7
100
AcDbCircle
 10
1.763951
 20
0.586042
 30
0.0
 40
0.134731
100
AcDbArc
 50
29.054174
 51
54.639301
  0
ARC
  5
551
100
AcDbEntity
  8
0
 62
     7
100
AcDbCircle
 10
2.065872
 20
0.753773
 30
0.0
 40
0.210653
100
AcDbArc
 50
209.054174
 51
227.736273
  0
ARC
  5
552
100
AcDbEntity
  8
0
 62
     7
100
AcDbCircle
 10
1.938317
 20
0.613413
 30
0.0
 40
0.020992
100
AcDbArc
 50
227.736273
 51
299.228117
  0
ARC
  5
553
100
AcDbEntity
  8
0
 62
     7
100
AcDbCircle
 10
2.035794
 20
0.439199
 30
0.0
 40
0.178638
100
AcDbArc
 50
104.048532
 51
119.228117
  0
ARC
  5
554
100
AcDbEntity
  8
0
 62
     7
100
AcDbCircle
 10
2.005521
 20
0.560181
 30
0.0
 40
0.053927
100
AcDbArc
 50
68.649306
 51
104.048532
  0
ARC
  5
555
100
AcDbEntity
  8
0
 62
     7
100
AcDbCircle
 10
2.048452
 20
0.670006
 30
0.0
 40
0.063992
100
AcDbArc
 50
248.649306
 51
274.70448
  0
LINE
  5
556
100
AcDbEntity
  8
0
 62
     7
100
AcDbLine
 10
1.841923
 20
0.695918
 30
0.0
 11
1.798874
 21
0.689058
 31
0.0
  0
ARC
  5
557
100
AcDbEntity
  8
0
 62
     7
100
AcDbCircle
 10
2.007012
 20
0.709583
 30
0.0
 40
0.059166
100
AcDbArc
 50
122.726718
 51
241.197341
  0
ARC
  5
558
100
AcDbEntity
  8
0
 62
     7
100
AcDbCircle
 10
1.867849
 20
0.886606
 30
0.0
 40
0.16637
100
AcDbArc
 50
310.105749
 51
340.999624
  0
LINE
  5
559
100
AcDbEntity
  8
0
 62
     7
100
AcDbLine
 10
1.978506
 20
0.657736
 30
0.0
 11
2.000786
 21
0.652168
 31
0.0
  0
LINE
  5
55A
100
AcDbEntity
  8
0
 62
     7
100
AcDbLine
 10
2.000786
 20
0.652168
 30
0.0
 11
2.048827
 21
0.652168
 31
0.0
  0
LINE
  5
55B
100
AcDbEntity
  8
0
 62
     7
100
AcDbLine
 10
2.048827
 20
0.652168
 30
0.0
 11
2.074092
 21
0.642811
 31
0.0
  0
LINE
  5
55C
100
AcDbEntity
  8
0
 62
     7
100
AcDbLine
 10
2.074092
 20
0.642811
 30
0.0
 11
2.053701
 21
0.60623
 31
0.0
  0
ARC
  5
55D
100
AcDbEntity
  8
0
 62
     7
100
AcDbCircle
 10
1.335688
 20
0.76107
 30
0.0
 40
0.174669
100
AcDbArc
 50
323.729305
 51
342.500024
  0
ARC
  5
55E
100
AcDbEntity
  8
0
 62
     7
100
AcDbCircle
 10
1.458746
 20
0.670565
 30
0.0
 40
0.026901
100
AcDbArc
 50
185.092548
 51
234.412624
  0
ARC
  5
55F
100
AcDbEntity
  8
0
 62
     7
100
AcDbCircle
 10
1.396059
 20
0.664978
 30
0.0
 40
0.036034
100
AcDbArc
 50
5.092548
 51
75.421922
  0
LINE
  5
560
100
AcDbEntity
  8
0
 62
     7
100
AcDbLine
 10
1.443091
 20
0.648688
 30
0.0
 11
1.476511
 21
0.657736
 31
0.0
  0
ARC
  5
561
100
AcDbEntity
  8
0
 62
     7
100
AcDbCircle
 10
1.337776
 20
0.704188
 30
0.0
 40
0.067492
100
AcDbArc
 50
307.685714
 51
356.316894
  0
ARC
  5
562
100
AcDbEntity
  8
0
 62
     7
100
AcDbCircle
 10
1.65429
 20
0.294456
 30
0.0
 40
0.450254
100
AcDbArc
 50
127.685714
 51
139.355098
  0
ARC
  5
563
100
AcDbEntity
  8
0
 62
     7
100
AcDbCircle
 10
1.415885
 20
0.65234
 30
0.0
 40
0.103609
100
AcDbArc
 50
116.464142
 51
162.503417
  0
ARC
  5
564
100
AcDbEntity
  8
0
 62
     7
100
AcDbCircle
 10
1.806864
 20
0.52909
 30
0.0
 40
0.513554
100
AcDbArc
 50
162.503417
 51
173.241762
  0
ARC
  5
565
100
AcDbEntity
  8
0
 62
     7
100
AcDbCircle
 10
1.304762
 20
0.588591
 30
0.0
 40
0.007939
100
AcDbArc
 50
173.241762
 51
353.826882
  0
ARC
  5
566
100
AcDbEntity
  8
0
 62
     7
100
AcDbCircle
 10
1.29776
 20
0.798271
 30
0.0
 40
0.050554
100
AcDbArc
 50
161.951537
 51
219.203266
  0
ARC
  5
567
100
AcDbEntity
  8
0
 62
     7
100
AcDbCircle
 10
1.128357
 20
0.561062
 30
0.0
 40
0.22598
100
AcDbArc
 50
62.465261
 51
85.671132
  0
LINE
  5
568
100
AcDbEntity
  8
0
 62
     7
100
AcDbLine
 10
1.232824
 20
0.761445
 30
0.0
 11
1.258585
 21
0.766317
 31
0.0
  0
ARC
  5
569
100
AcDbEntity
  8
0
 62
     7
100
AcDbCircle
 10
1.199156
 20
0.740804
 30
0.0
 40
0.088893
100
AcDbArc
 50
28.35446
 51
55.352707
  0
ARC
  5
56A
100
AcDbEntity
  8
0
 62
     7
100
AcDbCircle
 10
1.318613
 20
0.805272
 30
0.0
 40
0.04685
100
AcDbArc
 50
208.35446
 51
275.786039
  0
LINE
  5
56B
100
AcDbEntity
  8
0
 62
     7
100
AcDbLine
 10
1.326427
 20
0.75886
 30
0.0
 11
1.34807
 21
0.770661
 31
0.0
  0
LINE
  5
56C
100
AcDbEntity
  8
0
 62
     7
100
AcDbLine
 10
1.34807
 20
0.770661
 30
0.0
 11
1.357908
 21
0.804099
 31
0.0
  0
LINE
  5
56D
100
AcDbEntity
  8
0
 62
     7
100
AcDbLine
 10
1.357908
 20
0.804099
 30
0.0
 11
1.371681
 21
0.806066
 31
0.0
  0
LINE
  5
56E
100
AcDbEntity
  8
0
 62
     7
100
AcDbLine
 10
1.371681
 20
0.806066
 30
0.0
 11
1.369713
 21
0.745091
 31
0.0
  0
ARC
  5
56F
100
AcDbEntity
  8
0
 62
     7
100
AcDbCircle
 10
1.809579
 20
0.67424
 30
0.0
 40
0.130833
100
AcDbArc
 50
145.13743
 51
166.058113
  0
ARC
  5
570
100
AcDbEntity
  8
0
 62
     7
100
AcDbCircle
 10
1.637756
 20
0.716895
 30
0.0
 40
0.046206
100
AcDbArc
 50
295.345566
 51
346.058113
  0
ARC
  5
571
100
AcDbEntity
  8
0
 62
     7
100
AcDbCircle
 10
1.563431
 20
0.104584
 30
0.0
 40
0.578261
100
AcDbArc
 50
80.634187
 51
89.230115
  0
ARC
  5
572
100
AcDbEntity
  8
0
 62
     7
100
AcDbCircle
 10
1.572666
 20
0.791836
 30
0.0
 40
0.109052
100
AcDbArc
 50
229.796394
 51
269.230115
  0
ARC
  5
573
100
AcDbEntity
  8
0
 62
     7
100
AcDbCircle
 10
1.807752
 20
0.878614
 30
0.0
 40
0.167119
100
AcDbArc
 50
230.844066
 51
253.269951
  0
ARC
  5
574
100
AcDbEntity
  8
0
 62
     7
100
AcDbCircle
 10
1.707419
 20
0.808681
 30
0.0
 40
0.104152
100
AcDbArc
 50
300.095251
 51
323.568049
  0
ARC
  5
575
100
AcDbEntity
  8
0
 62
     7
100
AcDbCircle
 10
1.930527
 20
0.643998
 30
0.0
 40
0.173153
100
AcDbArc
 50
117.058474
 51
143.568049
  0
ARC
  5
576
100
AcDbEntity
  8
0
 62
     7
100
AcDbCircle
 10
2.051092
 20
1.03697
 30
0.0
 40
0.311039
100
AcDbArc
 50
230.144224
 51
244.652211
  0
ARC
  5
577
100
AcDbEntity
  8
0
 62
     7
100
AcDbCircle
 10
1.95722
 20
0.733001
 30
0.0
 40
0.045462
100
AcDbArc
 50
122.858131
 51
149.788542
  0
ARC
  5
578
100
AcDbEntity
  8
0
 62
     7
100
AcDbCircle
 10
1.825139
 20
0.937493
 30
0.0
 40
0.197977
100
AcDbArc
 50
302.858131
 51
323.062237
  0
LINE
  5
579
100
AcDbEntity
  8
0
 62
     7
100
AcDbLine
 10
1.98338
 20
0.81852
 30
0.0
 11
2.025155
 21
0.83244
 31
0.0
  0
ARC
  5
57A
100
AcDbEntity
  8
0
 62
     7
100
AcDbCircle
 10
1.716179
 20
1.077729
 30
0.0
 40
0.256524
100
AcDbArc
 50
243.70283
 51
292.126441
  0
ARC
  5
57B
100
AcDbEntity
  8
0
 62
     7
100
AcDbCircle
 10
1.471315
 20
1.130724
 30
0.0
 40
0.311914
100
AcDbArc
 50
262.749812
 51
294.877676
  0
ARC
  5
57C
100
AcDbEntity
  8
0
 62
     7
100
AcDbCircle
 10
1.629136
 20
0.129092
 30
0.0
 40
0.664966
100
AcDbArc
 50
85.568899
 51
107.626866
  0
ARC
  5
57D
100
AcDbEntity
  8
0
 62
     7
100
AcDbCircle
 10
1.698286
 20
1.021445
 30
0.0
 40
0.230063
100
AcDbArc
 50
265.568899
 51
301.947534
  0
LINE
  5
57E
100
AcDbEntity
  8
0
 62
     7
100
AcDbLine
 10
1.820022
 20
0.82623
 30
0.0
 11
1.812799
 21
0.840097
 31
0.0
  0
LINE
  5
57F
100
AcDbEntity
  8
0
 62
     7
100
AcDbLine
 10
1.427774
 20
0.762837
 30
0.0
 11
1.431951
 21
0.821304
 31
0.0
  0
LINE
  5
6B1
100
AcDbEntity
  8
0
 62
     7
100
AcDbLine
 10
2.029456
 20
2.526265
 30
0.0
 11
1.996987
 21
2.550309
 31
0.0
  0
LINE
  5
6B2
100
AcDbEntity
  8
0
 62
     7
100
AcDbLine
 10
1.428739
 20
1.049965
 30
0.0
 11
1.416934
 21
1.08537
 31
0.0
  0
LINE
  5
6B5
100
AcDbEntity
  8
0
 62
     7
100
AcDbLine
 10
3.109832
 20
2.796889
 30
0.0
 11
3.161006
 21
2.753602
 31
0.0
  0
LINE
  5
6B6
100
AcDbEntity
  8
0
 62
     7
100
AcDbLine
 10
3.161006
 20
2.753602
 30
0.0
 11
3.247288
 21
2.712133
 31
0.0
  0
LINE
  5
6B7
100
AcDbEntity
  8
0
 62
     7
100
AcDbLine
 10
3.029181
 20
2.719488
 30
0.0
 11
3.109832
 21
2.796889
 31
0.0
  0
LINE
  5
6B8
100
AcDbEntity
  8
0
 62
     7
100
AcDbLine
 10
2.995522
 20
2.747528
 30
0.0
 11
3.029181
 21
2.719488
 31
0.0
  0
LINE
  5
6B9
100
AcDbEntity
  8
0
 62
     7
100
AcDbLine
 10
2.94228
 20
2.648174
 30
0.0
 11
2.995522
 21
2.747528
 31
0.0
  0
LINE
  5
6BA
100
AcDbEntity
  8
0
 62
     7
100
AcDbLine
 10
2.916321
 20
2.690095
 30
0.0
 11
2.94228
 21
2.648174
 31
0.0
  0
LINE
  5
6BB
100
AcDbEntity
  8
0
 62
     7
100
AcDbLine
 10
2.851523
 20
2.625317
 30
0.0
 11
2.916321
 21
2.690095
 31
0.0
  0
LINE
  5
6BC
100
AcDbEntity
  8
0
 62
     7
100
AcDbLine
 10
2.839308
 20
2.633458
 30
0.0
 11
2.851523
 21
2.625317
 31
0.0
  0
LINE
  5
6BD
100
AcDbEntity
  8
0
 62
     7
100
AcDbLine
 10
2.769545
 20
2.537734
 30
0.0
 11
2.839308
 21
2.633458
 31
0.0
  0
LINE
  5
6BE
100
AcDbEntity
  8
0
 62
     7
100
AcDbLine
 10
2.744983
 20
2.48107
 30
0.0
 11
2.769545
 21
2.537734
 31
0.0
  0
LINE
  5
6BF
100
AcDbEntity
  8
0
 62
     7
100
AcDbLine
 10
2.673841
 20
2.47091
 30
0.0
 11
2.744983
 21
2.48107
 31
0.0
  0
LINE
  5
6C0
100
AcDbEntity
  8
0
 62
     7
100
AcDbLine
 10
2.735025
 20
2.595506
 30
0.0
 11
2.673841
 21
2.47091
 31
0.0
  0
LINE
  5
6C1
100
AcDbEntity
  8
0
 62
     7
100
AcDbLine
 10
2.810778
 20
2.69308
 30
0.0
 11
2.735025
 21
2.595506
 31
0.0
  0
LINE
  5
6C2
100
AcDbEntity
  8
0
 62
     7
100
AcDbLine
 10
3.247288
 20
2.712133
 30
0.0
 11
3.255951
 21
2.730159
 31
0.0
  0
LINE
  5
6C3
100
AcDbEntity
  8
0
 62
     7
100
AcDbLine
 10
2.780014
 20
2.73306
 30
0.0
 11
2.810778
 21
2.69308
 31
0.0
  0
LINE
  5
6C4
100
AcDbEntity
  8
0
 62
     7
100
AcDbLine
 10
2.815779
 20
2.799692
 30
0.0
 11
2.780014
 21
2.73306
 31
0.0
  0
LINE
  5
6C5
100
AcDbEntity
  8
0
 62
     7
100
AcDbLine
 10
2.78086
 20
2.848564
 30
0.0
 11
2.815779
 21
2.799692
 31
0.0
  0
LINE
  5
6C6
100
AcDbEntity
  8
0
 62
     7
100
AcDbLine
 10
2.801791
 20
2.869489
 30
0.0
 11
2.78086
 21
2.848564
 31
0.0
  0
LINE
  5
6C7
100
AcDbEntity
  8
0
 62
     7
100
AcDbLine
 10
2.782408
 20
2.896318
 30
0.0
 11
2.801791
 21
2.869489
 31
0.0
  0
LINE
  5
6C8
100
AcDbEntity
  8
0
 62
     7
100
AcDbLine
 10
2.804337
 20
2.927374
 30
0.0
 11
2.782408
 21
2.896318
 31
0.0
  0
LINE
  5
6C9
100
AcDbEntity
  8
0
 62
     7
100
AcDbLine
 10
2.780427
 20
3.004205
 30
0.0
 11
2.804337
 21
2.927374
 31
0.0
  0
LINE
  5
6CA
100
AcDbEntity
  8
0
 62
     7
100
AcDbLine
 10
2.828707
 20
3.039768
 30
0.0
 11
2.780427
 21
3.004205
 31
0.0
  0
LINE
  5
6CB
100
AcDbEntity
  8
0
 62
     7
100
AcDbLine
 10
2.776752
 20
3.069926
 30
0.0
 11
2.828707
 21
3.039768
 31
0.0
  0
LINE
  5
6CC
100
AcDbEntity
  8
0
 62
     7
100
AcDbLine
 10
2.876203
 20
3.133997
 30
0.0
 11
2.776752
 21
3.069926
 31
0.0
  0
LINE
  5
6CD
100
AcDbEntity
  8
0
 62
     7
100
AcDbLine
 10
2.915779
 20
3.16443
 30
0.0
 11
2.876203
 21
3.133997
 31
0.0
  0
LINE
  5
6CE
100
AcDbEntity
  8
0
 62
     7
100
AcDbLine
 10
2.937713
 20
3.190743
 30
0.0
 11
2.915779
 21
3.16443
 31
0.0
  0
LINE
  5
6CF
100
AcDbEntity
  8
0
 62
     7
100
AcDbLine
 10
2.932854
 20
3.199133
 30
0.0
 11
2.937713
 21
3.190743
 31
0.0
  0
LINE
  5
6D0
100
AcDbEntity
  8
0
 62
     7
100
AcDbLine
 10
2.851512
 20
3.197627
 30
0.0
 11
2.932854
 21
3.199133
 31
0.0
  0
LINE
  5
6D1
100
AcDbEntity
  8
0
 62
     7
100
AcDbLine
 10
2.785235
 20
3.238813
 30
0.0
 11
2.851512
 21
3.197627
 31
0.0
  0
LINE
  5
6D2
100
AcDbEntity
  8
0
 62
     7
100
AcDbLine
 10
2.763841
 20
3.258063
 30
0.0
 11
2.785235
 21
3.238813
 31
0.0
  0
LINE
  5
6D4
100
AcDbEntity
  8
0
 62
     7
100
AcDbLine
 10
2.716296
 20
3.201891
 30
0.0
 11
2.763841
 21
3.258063
 31
0.0
  0
LINE
  5
6D5
100
AcDbEntity
  8
0
 62
     7
100
AcDbLine
 10
2.673094
 20
3.226184
 30
0.0
 11
2.716296
 21
3.201891
 31
0.0
  0
LINE
  5
6D6
100
AcDbEntity
  8
0
 62
     7
100
AcDbLine
 10
2.672863
 20
3.224803
 30
0.0
 11
2.678173
 21
3.223328
 31
0.0
  0
LINE
  5
6D7
100
AcDbEntity
  8
0
 62
     7
100
AcDbLine
 10
2.669405
 20
3.204056
 30
0.0
 11
2.673094
 21
3.226184
 31
0.0
  0
LINE
  5
6D8
100
AcDbEntity
  8
0
 62
     7
100
AcDbLine
 10
2.614134
 20
3.193006
 30
0.0
 11
2.669405
 21
3.204056
 31
0.0
  0
LINE
  5
6D9
100
AcDbEntity
  8
0
 62
     7
100
AcDbLine
 10
2.581224
 20
3.295576
 30
0.0
 11
2.614134
 21
3.193006
 31
0.0
  0
LINE
  5
6DA
100
AcDbEntity
  8
0
 62
     7
100
AcDbLine
 10
2.581224
 20
3.295576
 30
0.0
 11
2.600267
 21
3.301686
 31
0.0
  0
LINE
  5
6DB
100
AcDbEntity
  8
0
 62
     7
100
AcDbLine
 10
3.17438
 20
1.808784
 30
0.0
 11
3.127195
 21
1.778262
 31
0.0
  0
LINE
  5
6DC
100
AcDbEntity
  8
0
 62
     7
100
AcDbLine
 10
3.181443
 20
1.861034
 30
0.0
 11
3.17438
 21
1.808784
 31
0.0
  0
LINE
  5
6DD
100
AcDbEntity
  8
0
 62
     7
100
AcDbLine
 10
3.195259
 20
1.905923
 30
0.0
 11
3.181443
 21
1.861034
 31
0.0
  0
LINE
  5
6DE
100
AcDbEntity
  8
0
 62
     7
100
AcDbLine
 10
3.216043
 20
1.950249
 30
0.0
 11
3.195259
 21
1.905923
 31
0.0
  0
LINE
  5
6DF
100
AcDbEntity
  8
0
 62
     7
100
AcDbLine
 10
3.189124
 20
2.00614
 30
0.0
 11
3.216043
 21
1.950249
 31
0.0
  0
LINE
  5
6E0
100
AcDbEntity
  8
0
 62
     7
100
AcDbLine
 10
3.234219
 20
2.020228
 30
0.0
 11
3.189124
 21
2.00614
 31
0.0
  0
LINE
  5
6E1
100
AcDbEntity
  8
0
 62
     7
100
AcDbLine
 10
3.300172
 20
2.065255
 30
0.0
 11
3.234219
 21
2.020228
 31
0.0
  0
LINE
  5
6E2
100
AcDbEntity
  8
0
 62
     7
100
AcDbLine
 10
3.372335
 20
2.090283
 30
0.0
 11
3.300172
 21
2.065255
 31
0.0
  0
LINE
  5
6E4
100
AcDbEntity
  8
0
 62
     7
100
AcDbLine
 10
3.379201
 20
2.112019
 30
0.0
 11
3.372335
 21
2.090283
 31
0.0
  0
LINE
  5
6E5
100
AcDbEntity
  8
0
 62
     7
100
AcDbLine
 10
3.408623
 20
2.187184
 30
0.0
 11
3.379201
 21
2.112019
 31
0.0
  0
LINE
  5
6E6
100
AcDbEntity
  8
0
 62
     7
100
AcDbLine
 10
3.436806
 20
2.253393
 30
0.0
 11
3.408623
 21
2.187184
 31
0.0
  0
LINE
  5
6E7
100
AcDbEntity
  8
0
 62
     7
100
AcDbLine
 10
3.42111
 20
2.276929
 30
0.0
 11
3.436806
 21
2.253393
 31
0.0
  0
LINE
  5
6E8
100
AcDbEntity
  8
0
 62
     7
100
AcDbLine
 10
3.410023
 20
2.338682
 30
0.0
 11
3.42111
 21
2.276929
 31
0.0
  0
LINE
  5
6E9
100
AcDbEntity
  8
0
 62
     7
100
AcDbLine
 10
3.386912
 20
2.365863
 30
0.0
 11
3.410023
 21
2.338682
 31
0.0
  0
LINE
  5
6EA
100
AcDbEntity
  8
0
 62
     7
100
AcDbLine
 10
3.317093
 20
2.429013
 30
0.0
 11
3.386912
 21
2.365863
 31
0.0
  0
LINE
  5
6EB
100
AcDbEntity
  8
0
 62
     7
100
AcDbLine
 10
3.296461
 20
2.47269
 30
0.0
 11
3.317093
 21
2.429013
 31
0.0
  0
LINE
  5
6EC
100
AcDbEntity
  8
0
 62
     7
100
AcDbLine
 10
3.251433
 20
2.451507
 30
0.0
 11
3.296461
 21
2.47269
 31
0.0
  0
LINE
  5
6ED
100
AcDbEntity
  8
0
 62
     7
100
AcDbLine
 10
3.192967
 20
2.476919
 30
0.0
 11
3.251433
 21
2.451507
 31
0.0
  0
LINE
  5
6EE
100
AcDbEntity
  8
0
 62
     7
100
AcDbLine
 10
3.196273
 20
2.521533
 30
0.0
 11
3.192967
 21
2.476919
 31
0.0
  0
LINE
  5
6F0
100
AcDbEntity
  8
0
 62
     7
100
AcDbLine
 10
3.164938
 20
2.493341
 30
0.0
 11
3.196273
 21
2.521533
 31
0.0
  0
LINE
  5
6F1
100
AcDbEntity
  8
0
 62
     7
100
AcDbLine
 10
3.109588
 20
2.471207
 30
0.0
 11
3.164938
 21
2.493341
 31
0.0
  0
LINE
  5
6F2
100
AcDbEntity
  8
0
 62
     7
100
AcDbLine
 10
3.077119
 20
2.50096
 30
0.0
 11
3.109588
 21
2.471207
 31
0.0
  0
LINE
  5
6F3
100
AcDbEntity
  8
0
 62
     7
100
AcDbLine
 10
3.06025
 20
2.551552
 30
0.0
 11
3.077119
 21
2.50096
 31
0.0
  0
LINE
  5
6F4
100
AcDbEntity
  8
0
 62
     7
100
AcDbLine
 10
3.056565
 20
2.587163
 30
0.0
 11
3.06025
 21
2.551552
 31
0.0
  0
LINE
  5
6F5
100
AcDbEntity
  8
0
 62
     7
100
AcDbLine
 10
2.98493
 20
2.565679
 30
0.0
 11
3.056565
 21
2.587163
 31
0.0
  0
LINE
  5
6F6
100
AcDbEntity
  8
0
 62
     7
100
AcDbLine
 10
2.913852
 20
2.584809
 30
0.0
 11
2.98493
 21
2.565679
 31
0.0
  0
LINE
  5
6F7
100
AcDbEntity
  8
0
 62
     7
100
AcDbLine
 10
2.87917
 20
2.552614
 30
0.0
 11
2.913852
 21
2.584809
 31
0.0
  0
LINE
  5
6F8
100
AcDbEntity
  8
0
 62
     7
100
AcDbLine
 10
2.86612
 20
2.514782
 30
0.0
 11
2.87917
 21
2.552614
 31
0.0
  0
LINE
  5
6F9
100
AcDbEntity
  8
0
 62
     7
100
AcDbLine
 10
2.870741
 20
2.473206
 30
0.0
 11
2.86612
 21
2.514782
 31
0.0
  0
LINE
  5
6FA
100
AcDbEntity
  8
0
 62
     7
100
AcDbLine
 10
2.863762
 20
2.422042
 30
0.0
 11
2.870741
 21
2.473206
 31
0.0
  0
LINE
  5
6FB
100
AcDbEntity
  8
0
 62
     7
100
AcDbLine
 10
2.825628
 20
2.411876
 30
0.0
 11
2.863762
 21
2.422042
 31
0.0
  0
LINE
  5
6FC
100
AcDbEntity
  8
0
 62
     7
100
AcDbLine
 10
2.804376
 20
2.408608
 30
0.0
 11
2.825628
 21
2.411876
 31
0.0
  0
LINE
  5
6FD
100
AcDbEntity
  8
0
 62
     7
100
AcDbLine
 10
2.804376
 20
2.350301
 30
0.0
 11
2.804376
 21
2.408608
 31
0.0
  0
LINE
  5
6FE
100
AcDbEntity
  8
0
 62
     7
100
AcDbLine
 10
2.745883
 20
2.339337
 30
0.0
 11
2.804376
 21
2.350301
 31
0.0
  0
LINE
  5
6FF
100
AcDbEntity
  8
0
 62
     7
100
AcDbLine
 10
2.721809
 20
2.299627
 30
0.0
 11
2.745883
 21
2.339337
 31
0.0
  0
LINE
  5
700
100
AcDbEntity
  8
0
 62
     7
100
AcDbLine
 10
2.718145
 20
2.198893
 30
0.0
 11
2.721809
 21
2.299627
 31
0.0
  0
LINE
  5
701
100
AcDbEntity
  8
0
 62
     7
100
AcDbLine
 10
2.664676
 20
2.192605
 30
0.0
 11
2.718145
 21
2.198893
 31
0.0
  0
LINE
  5
703
100
AcDbEntity
  8
0
 62
     7
100
AcDbLine
 10
2.64857
 20
2.207096
 30
0.0
 11
2.664676
 21
2.192605
 31
0.0
  0
LINE
  5
704
100
AcDbEntity
  8
0
 62
     7
100
AcDbLine
 10
2.587768
 20
2.115181
 30
0.0
 11
2.64857
 21
2.207096
 31
0.0
  0
LINE
  5
705
100
AcDbEntity
  8
0
 62
     7
100
AcDbLine
 10
2.587056
 20
2.093816
 30
0.0
 11
2.587768
 21
2.115181
 31
0.0
  0
LINE
  5
706
100
AcDbEntity
  8
0
 62
     7
100
AcDbLine
 10
2.621204
 20
2.095036
 30
0.0
 11
2.587056
 21
2.093816
 31
0.0
  0
LINE
  5
707
100
AcDbEntity
  8
0
 62
     7
100
AcDbLine
 10
2.658154
 20
2.046554
 30
0.0
 11
2.621204
 21
2.095036
 31
0.0
  0
LINE
  5
708
100
AcDbEntity
  8
0
 62
     7
100
AcDbLine
 10
2.652549
 20
1.994729
 30
0.0
 11
2.658154
 21
2.046554
 31
0.0
  0
LINE
  5
709
100
AcDbEntity
  8
0
 62
     7
100
AcDbLine
 10
2.665413
 20
1.990278
 30
0.0
 11
2.652549
 21
1.994729
 31
0.0
  0
LINE
  5
70A
100
AcDbEntity
  8
0
 62
     7
100
AcDbLine
 10
2.685783
 20
2.018559
 30
0.0
 11
2.665413
 21
1.990278
 31
0.0
  0
LINE
  5
70B
100
AcDbEntity
  8
0
 62
     7
100
AcDbLine
 10
2.702011
 20
2.006871
 30
0.0
 11
2.685783
 21
2.018559
 31
0.0
  0
LINE
  5
70C
100
AcDbEntity
  8
0
 62
     7
100
AcDbLine
 10
3.138058
 20
1.761469
 30
0.0
 11
3.127195
 21
1.778262
 31
0.0
  0
LINE
  5
DCD
100
AcDbEntity
  8
0
 62
     7
100
AcDbLine
 10
1.933162
 20
2.099497
 30
0.0
 11
1.932038
 21
2.101719
 31
0.0
  0
ARC
  5
DCE
100
AcDbEntity
  8
0
 62
     7
100
AcDbCircle
 10
2.900102
 20
1.016427
 30
0.0
 40
0.06
100
AcDbArc
 50
132.924256
 51
169.994365
  0
ARC
  5
DD0
100
AcDbEntity
  8
0
 62
     7
100
AcDbCircle
 10
1.103003
 20
0.303439
 30
0.0
 40
0.2
100
AcDbArc
 50
186.266321
 51
249.456925
  0
ARC
  5
DD2
100
AcDbEntity
  8
0
 62
     7
100
AcDbCircle
 10
1.146557
 20
0.197013
 30
0.0
 40
0.1
100
AcDbArc
 50
272.076883
 51
300.905646
  0
ARC
  5
DD3
100
AcDbEntity
  8
0
 62
     7
100
AcDbCircle
 10
1.362967
 20
0.040288
 30
0.0
 40
0.1
100
AcDbArc
 50
60.840202
 51
74.006054
  0
LINE
  5
DD4
100
AcDbEntity
  8
0
 62
     7
100
AcDbLine
 10
0.768512
 20
0.715416
 30
0.0
 11
0.775249
 21
0.741076
 31
0.0
  0
LINE
  5
DD5
100
AcDbEntity
  8
0
 62
     7
100
AcDbLine
 10
0.938083
 20
0.695158
 30
0.0
 11
0.939319
 21
0.695202
 31
0.0
  0
LINE
  5
DD6
100
AcDbEntity
  8
0
 62
     7
100
AcDbLine
 10
1.032548
 20
0.745994
 30
0.0
 11
1.068932
 21
0.747283
 31
0.0
  0
ARC
  5
DD7
100
AcDbEntity
  8
0
 62
     7
100
AcDbCircle
 10
0.823748
 20
0.832023
 30
0.0
 40
0.03
100
AcDbArc
 50
181.420731
 51
249.201879
  0
ARC
  5
DD8
100
AcDbEntity
  8
0
 62
     7
100
AcDbCircle
 10
0.924831
 20
1.106837
 30
0.0
 40
0.1
100
AcDbArc
 50
176.747517
 51
190.396732
  0
LINE
  5
DD9
100
AcDbEntity
  8
0
 62
     7
100
AcDbLine
 10
1.356396
 20
1.797725
 30
0.0
 11
1.371118
 21
1.798739
 31
0.0
  0
ARC
  5
1009
100
AcDbEntity
  8
0
 62
     7
100
AcDbCircle
 10
1.418729
 20
4.098556
 30
0.0
 40
0.5
100
AcDbArc
 50
281.516911
 51
309.256132
  0
ARC
  5
100A
100
AcDbEntity
  8
0
 62
     7
100
AcDbCircle
 10
1.467215
 20
3.071996
 30
0.0
 40
0.5
100
AcDbArc
 50
112.81336
 51
131.153137
  0
ARC
  5
100C
100
AcDbEntity
  8
0
 62
     7
100
AcDbCircle
 10
1.202131
 20
3.0732
 30
0.0
 40
0.3
100
AcDbArc
 50
145.288543
 51
169.444803
  0
ARC
  5
100D
100
AcDbEntity
  8
0
 62
     7
100
AcDbCircle
 10
3.112785
 20
3.764005
 30
0.0
 40
0.3
100
AcDbArc
 50
201.077501
 51
231.415508
  0
ARC
  5
100E
100
AcDbEntity
  8
0
 62
     7
100
AcDbCircle
 10
2.668403
 20
2.434995
 30
0.0
 40
1.0
100
AcDbArc
 50
15.293143
 51
38.424647
  0
ARC
  5
16C8
100
AcDbEntity
  8
0
 62
     7
100
AcDbCircle
 10
2.137491
 20
1.506236
 30
0.0
 40
0.03
100
AcDbArc
 50
329.028508
 51
359.498919
  0
LINE
  5
16C9
100
AcDbEntity
  8
0
 62
     7
100
AcDbLine
 10
2.529018
 20
1.520997
 30
0.0
 11
2.512901
 21
1.505876
 31
0.0
  0
ARC
  5
16CA
100
AcDbEntity
  8
0
 62
     7
100
AcDbCircle
 10
2.650555
 20
1.507646
 30
0.0
 40
0.03
100
AcDbArc
 50
49.13642
 51
70.091558
  0
ARC
  5
16CB
100
AcDbEntity
  8
0
 62
     7
100
AcDbCircle
 10
2.549545
 20
1.499119
 30
0.0
 40
0.03
100
AcDbArc
 50
119.558418
 51
133.175353
  0
ARC
  5
16CC
100
AcDbEntity
  8
0
 62
     7
100
AcDbCircle
 10
2.492374
 20
1.527754
 30
0.0
 40
0.03
100
AcDbArc
 50
285.962043
 51
313.175353
  0
LINE
  5
28B7
100
AcDbEntity
  8
0
100
AcDbLine
 10
1.326427
 20
0.75886
 30
0.0
 11
1.323336
 21
0.758661
 31
0.0
  0
ENDSEC
  0
SECTION
  2
OBJECTS
  0
DICTIONARY
  5
C
100
AcDbDictionary
  3
ACAD_GROUP
350
D
  3
ACAD_MLINESTYLE
350
E
  0
DICTIONARY
  5
D
102
{ACAD_REACTORS
330
C
102
}
100
AcDbDictionary
  0
DICTIONARY
  5
E
102
{ACAD_REACTORS
330
C
102
}
100
AcDbDictionary
  3
STANDARD
350
13
  0
MLINESTYLE
  5
13
102
{ACAD_REACTORS
330
E
102
}
100
AcDbMlineStyle
  2
STANDARD
 70
     0
  3

 62
     0
 51
90.0
 52
90.0
 71
     2
 49
0.5
 62
   256
  6
BYLAYER
 49
-0.5
 62
   256
  6
BYLAYER
  0
ENDSEC
  0
EOF
