999
"DXF R12 Output" (www.mydxf.blogspot.com)
 0 
SECTION
 2 
HEADER
 9 
$ACADVER
 1 
AC1009
 9 
$EXTMIN
 10 
 0 
 20 
 0 
 9 
$EXTMAX
 10 
 8.5 
 20 
 11 
 0 
ENDSEC
 0 
SECTION
 2 
ENTITIES
0
LINE
8
Layer 1
10
119.444620
20
22.988789
11
118.789661
21
23.999793
0
LINE
8
Layer 1
10
118.789661
20
23.999793
11
118.412728
21
24.977420
0
LINE
8
Layer 1
10
118.412728
20
24.977420
11
118.218478
21
25.651084
0
LINE
8
Layer 1
10
118.218478
20
25.651084
11
118.002733
21
25.931281
0
LINE
8
Layer 1
10
118.002733
20
25.931281
11
117.004222
21
24.823841
0
LINE
8
Layer 1
10
117.004222
20
24.823841
11
115.433552
21
23.068143
0
LINE
8
Layer 1
10
115.433552
20
23.068143
11
114.668362
21
22.484503
0
LINE
8
Layer 1
10
114.668362
20
22.484503
11
114.103875
21
22.262392
0
LINE
8
Layer 1
10
114.103875
20
22.262392
11
113.782127
21
22.407471
0
LINE
8
Layer 1
10
113.782127
20
22.407471
11
113.539072
21
22.756281
0
LINE
8
Layer 1
10
113.539072
20
22.756281
11
112.983685
21
23.622906
0
LINE
8
Layer 1
10
112.983685
20
23.622906
11
111.857364
21
25.288994
0
LINE
8
Layer 1
10
111.857364
20
25.288994
11
110.750162
21
27.671934
0
LINE
8
Layer 1
10
110.750162
20
27.671934
11
110.170520
21
30.063636
0
LINE
8
Layer 1
10
110.170520
20
30.063636
11
110.138416
21
32.312550
0
LINE
8
Layer 1
10
110.138416
20
32.312550
11
110.333934
21
33.336100
0
LINE
8
Layer 1
10
110.333934
20
33.336100
11
110.673828
21
34.267120
0
LINE
8
Layer 1
10
110.673828
20
34.267120
11
111.872017
21
35.850623
0
LINE
8
Layer 1
10
111.872017
20
35.850623
11
113.963806
21
38.065933
0
LINE
8
Layer 1
10
113.963806
20
38.065933
11
116.070912
21
40.037322
0
LINE
8
Layer 1
10
116.070912
20
40.037322
11
117.315056
21
40.889058
0
LINE
8
Layer 1
10
117.315056
20
40.889058
11
117.941724
21
40.557889
0
LINE
8
Layer 1
10
117.941724
20
40.557889
11
118.963178
21
39.761674
0
LINE
8
Layer 1
10
118.963178
20
39.761674
11
120.106583
21
38.916642
0
LINE
8
Layer 1
10
120.106583
20
38.916642
11
121.026453
21
38.468102
0
LINE
8
Layer 1
10
121.026453
20
38.468102
11
122.256493
21
38.111781
0
LINE
8
Layer 1
10
122.256493
20
38.111781
11
122.449938
21
37.905642
0
LINE
8
Layer 1
10
122.449938
20
37.905642
11
122.492694
21
37.604028
0
LINE
8
Layer 1
10
122.492694
20
37.604028
11
122.359567
21
37.117553
0
LINE
8
Layer 1
10
122.359567
20
37.117553
11
122.039496
21
36.622725
0
LINE
8
Layer 1
10
122.039496
20
36.622725
11
121.623301
21
35.718566
0
LINE
8
Layer 1
10
121.623301
20
35.718566
11
121.221958
21
34.150439
0
LINE
8
Layer 1
10
121.221958
20
34.150439
11
120.919434
21
32.323366
0
LINE
8
Layer 1
10
120.919434
20
32.323366
11
120.799693
21
30.642365
0
LINE
8
Layer 1
10
120.799693
20
30.642365
11
121.099304
21
28.140946
0
LINE
8
Layer 1
10
121.099304
20
28.140946
11
121.388724
21
27.124362
0
LINE
8
Layer 1
10
121.388724
20
27.124362
11
121.695207
21
26.606441
0
LINE
8
Layer 1
10
121.695207
20
26.606441
11
122.085104
21
26.713152
0
LINE
8
Layer 1
10
122.085104
20
26.713152
11
122.654630
21
27.197081
0
LINE
8
Layer 1
10
122.654630
20
27.197081
11
123.210143
21
27.677388
0
LINE
8
Layer 1
10
123.210143
20
27.677388
11
123.650875
21
27.809754
0
LINE
8
Layer 1
10
123.650875
20
27.809754
11
123.958998
21
27.596115
0
LINE
8
Layer 1
10
123.958998
20
27.596115
11
124.116685
21
27.038404
0
LINE
8
Layer 1
10
124.116685
20
27.038404
11
123.777597
21
26.013135
0
LINE
8
Layer 1
10
123.777597
20
26.013135
11
122.564463
21
24.261417
0
LINE
8
Layer 1
10
122.564463
20
24.261417
11
120.619020
21
22.061119
0
LINE
8
Layer 1
10
120.619020
20
22.061119
11
120.141440
21
22.289441
0
LINE
8
Layer 1
10
120.141440
20
22.289441
11
119.444620
21
22.988789
0
LINE
8
Layer 1
10
119.444620
20
22.988789
11
119.444620
21
22.988789
0
LINE
8
Layer 1
10
116.738781
20
27.893329
11
117.224464
21
29.401166
0
LINE
8
Layer 1
10
117.224464
20
29.401166
11
117.514113
21
31.406648
0
LINE
8
Layer 1
10
117.514113
20
31.406648
11
117.872408
21
34.891836
0
LINE
8
Layer 1
10
117.872408
20
34.891836
11
117.929500
21
35.812871
0
LINE
8
Layer 1
10
117.929500
20
35.812871
11
117.853604
21
36.024360
0
LINE
8
Layer 1
10
117.853604
20
36.024360
11
117.705087
21
36.091281
0
LINE
8
Layer 1
10
117.705087
20
36.091281
11
116.552370
21
36.665450
0
LINE
8
Layer 1
10
116.552370
20
36.665450
11
115.746022
21
37.239620
0
LINE
8
Layer 1
10
115.746022
20
37.239620
11
115.000238
21
36.594895
0
LINE
8
Layer 1
10
115.000238
20
36.594895
11
114.225129
21
35.775210
0
LINE
8
Layer 1
10
114.225129
20
35.775210
11
113.724405
21
34.843645
0
LINE
8
Layer 1
10
113.724405
20
34.843645
11
113.457677
21
33.690489
0
LINE
8
Layer 1
10
113.457677
20
33.690489
11
113.384559
21
32.206034
0
LINE
8
Layer 1
10
113.384559
20
32.206034
11
113.498977
21
30.489600
0
LINE
8
Layer 1
10
113.498977
20
30.489600
11
113.756615
21
29.242701
0
LINE
8
Layer 1
10
113.756615
20
29.242701
11
114.236735
21
28.266856
0
LINE
8
Layer 1
10
114.236735
20
28.266856
11
114.829598
21
27.378877
0
LINE
8
Layer 1
10
114.829598
20
27.378877
11
115.400734
21
26.753586
0
LINE
8
Layer 1
10
115.400734
20
26.753586
11
115.815669
21
26.565806
0
LINE
8
Layer 1
10
115.815669
20
26.565806
11
116.221730
21
26.996995
0
LINE
8
Layer 1
10
116.221730
20
26.996995
11
116.738781
21
27.893329
0
LINE
8
Layer 1
10
116.738781
20
27.893329
11
116.738781
21
27.893329
0
LINE
8
Layer 1
10
128.225883
20
23.221956
11
127.530349
21
24.007656
0
LINE
8
Layer 1
10
127.530349
20
24.007656
11
126.724266
21
24.559017
0
LINE
8
Layer 1
10
126.724266
20
24.559017
11
126.017366
21
25.022936
0
LINE
8
Layer 1
10
126.017366
20
25.022936
11
125.989800
21
25.790169
0
LINE
8
Layer 1
10
125.989800
20
25.790169
11
126.529655
21
29.443258
0
LINE
8
Layer 1
10
126.529655
20
29.443258
11
126.737708
21
32.563503
0
LINE
8
Layer 1
10
126.737708
20
32.563503
11
126.652098
21
34.608511
0
LINE
8
Layer 1
10
126.652098
20
34.608511
11
126.344149
21
35.920130
0
LINE
8
Layer 1
10
126.344149
20
35.920130
11
126.125900
21
36.257852
0
LINE
8
Layer 1
10
126.125900
20
36.257852
11
125.874990
21
36.360544
0
LINE
8
Layer 1
10
125.874990
20
36.360544
11
125.599059
21
36.210980
0
LINE
8
Layer 1
10
125.599059
20
36.210980
11
125.305749
21
35.791933
0
LINE
8
Layer 1
10
125.305749
20
35.791933
11
124.893827
21
35.381449
0
LINE
8
Layer 1
10
124.893827
20
35.381449
11
124.380666
21
35.292421
0
LINE
8
Layer 1
10
124.380666
20
35.292421
11
123.922438
21
35.504987
0
LINE
8
Layer 1
10
123.922438
20
35.504987
11
123.675318
21
35.999287
0
LINE
8
Layer 1
10
123.675318
20
35.999287
11
123.742021
21
36.391506
0
LINE
8
Layer 1
10
123.742021
20
36.391506
11
124.051551
21
36.934482
0
LINE
8
Layer 1
10
124.051551
20
36.934482
11
125.494666
21
38.609843
0
LINE
8
Layer 1
10
125.494666
20
38.609843
11
126.767283
21
39.849294
0
LINE
8
Layer 1
10
126.767283
20
39.849294
11
127.656216
21
40.470740
0
LINE
8
Layer 1
10
127.656216
20
40.470740
11
128.234884
21
40.507089
0
LINE
8
Layer 1
10
128.234884
20
40.507089
11
128.576705
21
39.991247
0
LINE
8
Layer 1
10
128.576705
20
39.991247
11
129.264551
21
38.565864
0
LINE
8
Layer 1
10
129.264551
20
38.565864
11
129.757015
21
37.756070
0
LINE
8
Layer 1
10
129.757015
20
37.756070
11
130.789660
21
39.193433
0
LINE
8
Layer 1
10
130.789660
20
39.193433
11
131.640706
21
40.255288
0
LINE
8
Layer 1
10
131.640706
20
40.255288
11
132.236743
21
40.789832
0
LINE
8
Layer 1
10
132.236743
20
40.789832
11
132.944177
21
40.636016
0
LINE
8
Layer 1
10
132.944177
20
40.636016
11
134.063049
21
40.042877
0
LINE
8
Layer 1
10
134.063049
20
40.042877
11
134.926011
21
39.395270
0
LINE
8
Layer 1
10
134.926011
20
39.395270
11
135.384624
21
38.815676
0
LINE
8
Layer 1
10
135.384624
20
38.815676
11
135.442694
21
38.295997
0
LINE
8
Layer 1
10
135.442694
20
38.295997
11
135.104025
21
37.828138
0
LINE
8
Layer 1
10
135.104025
20
37.828138
11
134.062131
21
36.087710
0
LINE
8
Layer 1
10
134.062131
20
36.087710
11
133.409759
21
34.968402
0
LINE
8
Layer 1
10
133.409759
20
34.968402
11
133.123720
21
34.764068
0
LINE
8
Layer 1
10
133.123720
20
34.764068
11
132.810247
21
34.738189
0
LINE
8
Layer 1
10
132.810247
20
34.738189
11
132.339763
21
35.008285
0
LINE
8
Layer 1
10
132.339763
20
35.008285
11
132.140923
21
35.738503
0
LINE
8
Layer 1
10
132.140923
20
35.738503
11
131.956769
21
36.444300
0
LINE
8
Layer 1
10
131.956769
20
36.444300
11
131.548796
21
36.655725
0
LINE
8
Layer 1
10
131.548796
20
36.655725
11
131.240469
21
36.540622
0
LINE
8
Layer 1
10
131.240469
20
36.540622
11
130.953595
21
36.205041
0
LINE
8
Layer 1
10
130.953595
20
36.205041
11
130.459559
21
34.930824
0
LINE
8
Layer 1
10
130.459559
20
34.930824
11
130.097396
21
32.949826
0
LINE
8
Layer 1
10
130.097396
20
32.949826
11
129.897815
21
30.378801
0
LINE
8
Layer 1
10
129.897815
20
30.378801
11
129.873252
21
27.584514
0
LINE
8
Layer 1
10
129.873252
20
27.584514
11
130.003505
21
27.080415
0
LINE
8
Layer 1
10
130.003505
20
27.080415
11
130.259091
21
26.877978
0
LINE
8
Layer 1
10
130.259091
20
26.877978
11
130.687566
21
26.862345
0
LINE
8
Layer 1
10
130.687566
20
26.862345
11
131.008320
21
27.157680
0
LINE
8
Layer 1
10
131.008320
20
27.157680
11
131.396008
21
27.487452
0
LINE
8
Layer 1
10
131.396008
20
27.487452
11
131.961162
21
27.624614
0
LINE
8
Layer 1
10
131.961162
20
27.624614
11
132.513593
21
27.454532
0
LINE
8
Layer 1
10
132.513593
20
27.454532
11
132.625737
21
26.938593
0
LINE
8
Layer 1
10
132.625737
20
26.938593
11
132.296254
21
26.068259
0
LINE
8
Layer 1
10
132.296254
20
26.068259
11
131.523805
21
24.834988
0
LINE
8
Layer 1
10
131.523805
20
24.834988
11
130.726527
21
23.556914
0
LINE
8
Layer 1
10
130.726527
20
23.556914
11
130.394916
21
22.744021
0
LINE
8
Layer 1
10
130.394916
20
22.744021
11
130.211177
21
22.377241
0
LINE
8
Layer 1
10
130.211177
20
22.377241
11
129.618805
21
22.265886
0
LINE
8
Layer 1
10
129.618805
20
22.265886
11
128.878509
21
22.482762
0
LINE
8
Layer 1
10
128.878509
20
22.482762
11
128.225883
21
23.221956
0
LINE
8
Layer 1
10
128.225883
20
23.221956
11
128.225883
21
23.221956
0
LINE
8
Layer 1
10
98.628858
20
26.311499
11
96.752528
21
28.347420
0
LINE
8
Layer 1
10
96.752528
20
28.347420
11
95.590975
21
30.021958
0
LINE
8
Layer 1
10
95.590975
20
30.021958
11
94.999877
21
31.603208
0
LINE
8
Layer 1
10
94.999877
20
31.603208
11
94.834916
21
33.359262
0
LINE
8
Layer 1
10
94.834916
20
33.359262
11
95.107279
21
35.406577
0
LINE
8
Layer 1
10
95.107279
20
35.406577
11
95.461962
21
36.370336
0
LINE
8
Layer 1
10
95.461962
20
36.370336
11
95.974963
21
37.314109
0
LINE
8
Layer 1
10
95.974963
20
37.314109
11
97.513863
21
39.201537
0
LINE
8
Layer 1
10
97.513863
20
39.201537
11
99.799874
21
41.188541
0
LINE
8
Layer 1
10
99.799874
20
41.188541
11
100.917765
21
41.973628
0
LINE
8
Layer 1
10
100.917765
20
41.973628
11
101.587292
21
42.300169
0
LINE
8
Layer 1
10
101.587292
20
42.300169
11
102.104283
21
42.030735
0
LINE
8
Layer 1
10
102.104283
20
42.030735
11
102.855440
21
41.382947
0
LINE
8
Layer 1
10
102.855440
20
41.382947
11
104.878022
21
39.573008
0
LINE
8
Layer 1
10
104.878022
20
39.573008
11
106.641023
21
37.997088
0
LINE
8
Layer 1
10
106.641023
20
37.997088
11
107.743180
21
36.577997
0
LINE
8
Layer 1
10
107.743180
20
36.577997
11
108.305328
21
35.105824
0
LINE
8
Layer 1
10
108.305328
20
35.105824
11
108.448297
21
33.370655
0
LINE
8
Layer 1
10
108.448297
20
33.370655
11
108.310831
21
31.981915
0
LINE
8
Layer 1
10
108.310831
20
31.981915
11
107.910430
21
30.677523
0
LINE
8
Layer 1
10
107.910430
20
30.677523
11
107.205348
21
29.358410
0
LINE
8
Layer 1
10
107.205348
20
29.358410
11
106.153839
21
27.925505
0
LINE
8
Layer 1
10
106.153839
20
27.925505
11
103.394962
21
24.992334
0
LINE
8
Layer 1
10
103.394962
20
24.992334
11
102.239658
21
24.040700
0
LINE
8
Layer 1
10
102.239658
20
24.040700
11
101.527872
21
23.700943
0
LINE
8
Layer 1
10
101.527872
20
23.700943
11
100.534817
21
24.479112
0
LINE
8
Layer 1
10
100.534817
20
24.479112
11
98.628858
21
26.311499
0
LINE
8
Layer 1
10
98.628858
20
26.311499
11
98.628858
21
26.311499
0
LINE
8
Layer 1
10
104.509192
20
28.853536
11
105.247175
21
30.737488
0
LINE
8
Layer 1
10
105.247175
20
30.737488
11
105.439690
21
32.071128
0
LINE
8
Layer 1
10
105.439690
20
32.071128
11
104.995119
21
33.627063
0
LINE
8
Layer 1
10
104.995119
20
33.627063
11
104.326824
21
34.953895
0
LINE
8
Layer 1
10
104.326824
20
34.953895
11
103.370055
21
36.227189
0
LINE
8
Layer 1
10
103.370055
20
36.227189
11
102.216484
21
37.343158
0
LINE
8
Layer 1
10
102.216484
20
37.343158
11
100.957778
21
38.198019
0
LINE
8
Layer 1
10
100.957778
20
38.198019
11
99.960887
21
38.609399
0
LINE
8
Layer 1
10
99.960887
20
38.609399
11
99.617435
21
38.498297
0
LINE
8
Layer 1
10
99.617435
20
38.498297
11
99.153328
21
38.172881
0
LINE
8
Layer 1
10
99.153328
20
38.172881
11
98.499121
21
37.441700
0
LINE
8
Layer 1
10
98.499121
20
37.441700
11
98.109848
21
36.472079
0
LINE
8
Layer 1
10
98.109848
20
36.472079
11
97.974111
21
35.329380
0
LINE
8
Layer 1
10
97.974111
20
35.329380
11
98.080510
21
34.078964
0
LINE
8
Layer 1
10
98.080510
20
34.078964
11
98.417646
21
32.786192
0
LINE
8
Layer 1
10
98.417646
20
32.786192
11
98.974121
21
31.516426
0
LINE
8
Layer 1
10
98.974121
20
31.516426
11
99.738534
21
30.335025
0
LINE
8
Layer 1
10
99.738534
20
30.335025
11
100.699488
21
29.307353
0
LINE
8
Layer 1
10
100.699488
20
29.307353
11
101.902828
21
28.437379
0
LINE
8
Layer 1
10
101.902828
20
28.437379
11
102.952945
21
28.070078
0
LINE
8
Layer 1
10
102.952945
20
28.070078
11
103.828760
21
28.207960
0
LINE
8
Layer 1
10
103.828760
20
28.207960
11
104.509192
21
28.853536
0
LINE
8
Layer 1
10
104.509192
20
28.853536
11
104.509192
21
28.853536
0
LINE
8
Layer 1
10
140.570249
20
24.078362
11
139.054027
21
25.091427
0
LINE
8
Layer 1
10
139.054027
20
25.091427
11
137.317540
21
26.230418
0
LINE
8
Layer 1
10
137.317540
20
26.230418
11
136.120838
21
27.606531
0
LINE
8
Layer 1
10
136.120838
20
27.606531
11
135.426947
21
29.279397
0
LINE
8
Layer 1
10
135.426947
20
29.279397
11
135.198891
21
31.308647
0
LINE
8
Layer 1
10
135.198891
20
31.308647
11
135.343234
21
33.061328
0
LINE
8
Layer 1
10
135.343234
20
33.061328
11
135.891177
21
34.554202
0
LINE
8
Layer 1
10
135.891177
20
34.554202
11
136.808716
21
36.069364
0
LINE
8
Layer 1
10
136.808716
20
36.069364
11
138.005432
21
37.679032
0
LINE
8
Layer 1
10
138.005432
20
37.679032
11
139.137770
21
38.957221
0
LINE
8
Layer 1
10
139.137770
20
38.957221
11
139.862173
21
39.477947
0
LINE
8
Layer 1
10
139.862173
20
39.477947
11
140.201856
21
39.546094
0
LINE
8
Layer 1
10
140.201856
20
39.546094
11
140.241838
21
39.724379
0
LINE
8
Layer 1
10
140.241838
20
39.724379
11
139.496583
21
40.254445
0
LINE
8
Layer 1
10
139.496583
20
40.254445
11
136.815472
21
42.039148
0
LINE
8
Layer 1
10
136.815472
20
42.039148
11
135.274147
21
43.394252
0
LINE
8
Layer 1
10
135.274147
20
43.394252
11
134.952217
21
44.006737
0
LINE
8
Layer 1
10
134.952217
20
44.006737
11
134.951757
21
44.672189
0
LINE
8
Layer 1
10
134.951757
20
44.672189
11
135.289506
21
45.462866
0
LINE
8
Layer 1
10
135.289506
20
45.462866
11
135.982202
21
46.451028
0
LINE
8
Layer 1
10
135.982202
20
46.451028
11
138.499382
21
49.308839
0
LINE
8
Layer 1
10
138.499382
20
49.308839
11
139.971628
21
50.907947
0
LINE
8
Layer 1
10
139.971628
20
50.907947
11
140.605456
21
50.275699
0
LINE
8
Layer 1
10
140.605456
20
50.275699
11
141.239288
21
49.643451
0
LINE
8
Layer 1
10
141.239288
20
49.643451
11
140.224914
21
48.582366
0
LINE
8
Layer 1
10
140.224914
20
48.582366
11
138.920431
21
46.913722
0
LINE
8
Layer 1
10
138.920431
20
46.913722
11
138.705179
21
46.306393
0
LINE
8
Layer 1
10
138.705179
20
46.306393
11
138.779098
21
45.846314
0
LINE
8
Layer 1
10
138.779098
20
45.846314
11
140.380293
21
44.416953
0
LINE
8
Layer 1
10
140.380293
20
44.416953
11
144.506027
21
41.536555
0
LINE
8
Layer 1
10
144.506027
20
41.536555
11
146.927084
21
39.838840
0
LINE
8
Layer 1
10
146.927084
20
39.838840
11
148.288512
21
38.595399
0
LINE
8
Layer 1
10
148.288512
20
38.595399
11
148.664443
21
38.030893
0
LINE
8
Layer 1
10
148.664443
20
38.030893
11
148.886560
21
37.444190
0
LINE
8
Layer 1
10
148.886560
20
37.444190
11
149.017476
21
36.023169
0
LINE
8
Layer 1
10
149.017476
20
36.023169
11
148.817086
21
33.976795
0
LINE
8
Layer 1
10
148.817086
20
33.976795
11
148.202992
21
31.987737
0
LINE
8
Layer 1
10
148.202992
20
31.987737
11
147.141147
21
29.974686
0
LINE
8
Layer 1
10
147.141147
20
29.974686
11
145.597499
21
27.856332
0
LINE
8
Layer 1
10
145.597499
20
27.856332
11
143.555818
21
25.461412
0
LINE
8
Layer 1
10
143.555818
20
25.461412
11
142.162779
21
24.127679
0
LINE
8
Layer 1
10
142.162779
20
24.127679
11
141.650721
21
23.814585
0
LINE
8
Layer 1
10
141.650721
20
23.814585
11
141.230288
21
23.713780
0
LINE
8
Layer 1
10
141.230288
20
23.713780
11
140.877968
21
23.807595
0
LINE
8
Layer 1
10
140.877968
20
23.807595
11
140.570249
21
24.078362
0
LINE
8
Layer 1
10
140.570249
20
24.078362
11
140.570249
21
24.078362
0
LINE
8
Layer 1
10
143.818144
20
28.585919
11
144.288961
21
29.119608
0
LINE
8
Layer 1
10
144.288961
20
29.119608
11
144.826470
21
30.062280
0
LINE
8
Layer 1
10
144.826470
20
30.062280
11
145.892749
21
32.754943
0
LINE
8
Layer 1
10
145.892749
20
32.754943
11
146.020552
21
33.473295
0
LINE
8
Layer 1
10
146.020552
20
33.473295
11
145.952075
21
34.205170
0
LINE
8
Layer 1
10
145.952075
20
34.205170
11
145.685740
21
34.952727
0
LINE
8
Layer 1
10
145.685740
20
34.952727
11
145.219972
21
35.718126
0
LINE
8
Layer 1
10
145.219972
20
35.718126
11
143.683828
21
37.311084
0
LINE
8
Layer 1
10
143.683828
20
37.311084
11
141.331027
21
39.001316
0
LINE
8
Layer 1
10
141.331027
20
39.001316
11
140.662743
21
39.347591
0
LINE
8
Layer 1
10
140.662743
20
39.347591
11
140.554916
21
38.948668
0
LINE
8
Layer 1
10
140.554916
20
38.948668
11
140.306208
21
38.092871
0
LINE
8
Layer 1
10
140.306208
20
38.092871
11
139.708249
21
36.796836
0
LINE
8
Layer 1
10
139.708249
20
36.796836
11
139.237626
21
35.697978
0
LINE
8
Layer 1
10
139.237626
20
35.697978
11
138.947535
21
34.561364
0
LINE
8
Layer 1
10
138.947535
20
34.561364
11
138.833664
21
33.419932
0
LINE
8
Layer 1
10
138.833664
20
33.419932
11
138.891698
21
32.306618
0
LINE
8
Layer 1
10
138.891698
20
32.306618
11
139.117322
21
31.254356
0
LINE
8
Layer 1
10
139.117322
20
31.254356
11
139.506224
21
30.296085
0
LINE
8
Layer 1
10
139.506224
20
30.296085
11
140.054088
21
29.464738
0
LINE
8
Layer 1
10
140.054088
20
29.464738
11
140.756600
21
28.793254
0
LINE
8
Layer 1
10
140.756600
20
28.793254
11
141.507460
21
28.393284
0
LINE
8
Layer 1
10
141.507460
20
28.393284
11
142.327591
21
28.221370
0
LINE
8
Layer 1
10
142.327591
20
28.221370
11
143.127613
21
28.283564
0
LINE
8
Layer 1
10
143.127613
20
28.283564
11
143.818144
21
28.585919
0
LINE
8
Layer 1
10
143.818144
20
28.585919
11
143.818144
21
28.585919
0
LINE
8
Layer 1
10
153.872446
20
28.294485
11
152.152797
21
29.705299
0
LINE
8
Layer 1
10
152.152797
20
29.705299
11
150.957662
21
31.265467
0
LINE
8
Layer 1
10
150.957662
20
31.265467
11
150.287644
21
32.985007
0
LINE
8
Layer 1
10
150.287644
20
32.985007
11
150.143343
21
34.873940
0
LINE
8
Layer 1
10
150.143343
20
34.873940
11
150.525362
21
36.942285
0
LINE
8
Layer 1
10
150.525362
20
36.942285
11
151.434303
21
39.200059
0
LINE
8
Layer 1
10
151.434303
20
39.200059
11
152.870768
21
41.657284
0
LINE
8
Layer 1
10
152.870768
20
41.657284
11
154.835358
21
44.323976
0
LINE
8
Layer 1
10
154.835358
20
44.323976
11
156.267783
21
45.922762
0
LINE
8
Layer 1
10
156.267783
20
45.922762
11
156.700792
21
46.034299
0
LINE
8
Layer 1
10
156.700792
20
46.034299
11
157.237365
21
45.876199
0
LINE
8
Layer 1
10
157.237365
20
45.876199
11
157.993644
21
45.448710
0
LINE
8
Layer 1
10
157.993644
20
45.448710
11
158.562542
21
44.884986
0
LINE
8
Layer 1
10
158.562542
20
44.884986
11
159.062856
21
44.345051
0
LINE
8
Layer 1
10
159.062856
20
44.345051
11
159.654237
21
43.974749
0
LINE
8
Layer 1
10
159.654237
20
43.974749
11
160.186759
21
43.574130
0
LINE
8
Layer 1
10
160.186759
20
43.574130
11
160.254456
21
42.951791
0
LINE
8
Layer 1
10
160.254456
20
42.951791
11
159.856668
21
42.104786
0
LINE
8
Layer 1
10
159.856668
20
42.104786
11
158.992731
21
41.030169
0
LINE
8
Layer 1
10
158.992731
20
41.030169
11
154.539829
21
36.133541
0
LINE
8
Layer 1
10
154.539829
20
36.133541
11
153.742660
21
35.154103
0
LINE
8
Layer 1
10
153.742660
20
35.154103
11
153.537138
21
34.737271
0
LINE
8
Layer 1
10
153.537138
20
34.737271
11
153.871106
21
34.185048
0
LINE
8
Layer 1
10
153.871106
20
34.185048
11
154.655551
21
33.298104
0
LINE
8
Layer 1
10
154.655551
20
33.298104
11
156.271107
21
31.882481
0
LINE
8
Layer 1
10
156.271107
20
31.882481
11
156.647200
21
31.773629
0
LINE
8
Layer 1
10
156.647200
20
31.773629
11
157.026782
21
31.952945
0
LINE
8
Layer 1
10
157.026782
20
31.952945
11
158.387773
21
33.677600
0
LINE
8
Layer 1
10
158.387773
20
33.677600
11
159.367517
21
34.937576
0
LINE
8
Layer 1
10
159.367517
20
34.937576
11
160.111866
21
35.627515
0
LINE
8
Layer 1
10
160.111866
20
35.627515
11
160.644166
21
35.762501
0
LINE
8
Layer 1
10
160.644166
20
35.762501
11
160.987760
21
35.357618
0
LINE
8
Layer 1
10
160.987760
20
35.357618
11
161.034132
21
34.921569
0
LINE
8
Layer 1
10
161.034132
20
34.921569
11
160.788597
21
34.274865
0
LINE
8
Layer 1
10
160.788597
20
34.274865
11
158.969916
21
31.481437
0
LINE
8
Layer 1
10
158.969916
20
31.481437
11
157.488249
21
29.145665
0
LINE
8
Layer 1
10
157.488249
20
29.145665
11
156.753941
21
27.991000
0
LINE
8
Layer 1
10
156.753941
20
27.991000
11
155.851109
21
27.075299
0
LINE
8
Layer 1
10
155.851109
20
27.075299
11
153.872446
21
28.294485
0
LINE
8
Layer 1
10
153.872446
20
28.294485
11
153.872446
21
28.294485
0
LINE
8
Layer 1
10
155.055381
20
39.232482
11
155.994798
21
40.546961
0
LINE
8
Layer 1
10
155.994798
20
40.546961
11
156.018259
21
40.990258
0
LINE
8
Layer 1
10
156.018259
20
40.990258
11
155.798627
21
41.453503
0
LINE
8
Layer 1
10
155.798627
20
41.453503
11
155.567541
21
41.654144
0
LINE
8
Layer 1
10
155.567541
20
41.654144
11
155.277643
21
41.659433
0
LINE
8
Layer 1
10
155.277643
20
41.659433
11
154.602438
21
41.173540
0
LINE
8
Layer 1
10
154.602438
20
41.173540
11
153.935056
21
40.174990
0
LINE
8
Layer 1
10
153.935056
20
40.174990
11
153.437542
21
38.842947
0
LINE
8
Layer 1
10
153.437542
20
38.842947
11
153.397852
21
38.219670
0
LINE
8
Layer 1
10
153.397852
20
38.219670
11
153.683425
21
38.083854
0
LINE
8
Layer 1
10
153.683425
20
38.083854
11
154.250516
21
38.424969
0
LINE
8
Layer 1
10
154.250516
20
38.424969
11
155.055381
21
39.232482
0
LINE
8
Layer 1
10
155.055381
20
39.232482
11
155.055381
21
39.232482
0
LINE
8
Layer 1
10
79.805268
20
29.908082
11
77.907416
21
31.677462
0
LINE
8
Layer 1
10
77.907416
20
31.677462
11
76.221816
21
33.000750
0
LINE
8
Layer 1
10
76.221816
20
33.000750
11
74.834816
21
33.817799
0
LINE
8
Layer 1
10
74.834816
20
33.817799
11
73.832762
21
34.068458
0
LINE
8
Layer 1
10
73.832762
20
34.068458
11
72.803903
21
34.163097
0
LINE
8
Layer 1
10
72.803903
20
34.163097
11
72.300350
21
34.560361
0
LINE
8
Layer 1
10
72.300350
20
34.560361
11
72.360880
21
35.171947
0
LINE
8
Layer 1
10
72.360880
20
35.171947
11
73.024272
21
35.909552
0
LINE
8
Layer 1
10
73.024272
20
35.909552
11
74.574065
21
36.903682
0
LINE
8
Layer 1
10
74.574065
20
36.903682
11
75.887732
21
37.222371
0
LINE
8
Layer 1
10
75.887732
20
37.222371
11
76.542632
21
37.402312
0
LINE
8
Layer 1
10
76.542632
20
37.402312
11
76.990191
21
37.996549
0
LINE
8
Layer 1
10
76.990191
20
37.996549
11
77.163363
21
38.449004
0
LINE
8
Layer 1
10
77.163363
20
38.449004
11
77.125313
21
38.797066
0
LINE
8
Layer 1
10
77.125313
20
38.797066
11
76.143525
21
39.740222
0
LINE
8
Layer 1
10
76.143525
20
39.740222
11
74.156064
21
41.540171
0
LINE
8
Layer 1
10
74.156064
20
41.540171
11
72.319466
21
43.577823
0
LINE
8
Layer 1
10
72.319466
20
43.577823
11
70.762725
21
45.695227
0
LINE
8
Layer 1
10
70.762725
20
45.695227
11
69.614838
21
47.734432
0
LINE
8
Layer 1
10
69.614838
20
47.734432
11
68.744128
21
50.185159
0
LINE
8
Layer 1
10
68.744128
20
50.185159
11
68.319838
21
52.677979
0
LINE
8
Layer 1
10
68.319838
20
52.677979
11
68.360486
21
54.981364
0
LINE
8
Layer 1
10
68.360486
20
54.981364
11
68.560949
21
55.989664
0
LINE
8
Layer 1
10
68.560949
20
55.989664
11
68.884591
21
56.863782
0
LINE
8
Layer 1
10
68.884591
20
56.863782
11
69.460037
21
57.894062
0
LINE
8
Layer 1
10
69.460037
20
57.894062
11
70.072960
21
58.482377
0
LINE
8
Layer 1
10
70.072960
20
58.482377
11
70.928040
21
58.747755
0
LINE
8
Layer 1
10
70.928040
20
58.747755
11
72.229957
21
58.809224
0
LINE
8
Layer 1
10
72.229957
20
58.809224
11
74.016932
21
58.647414
0
LINE
8
Layer 1
10
74.016932
20
58.647414
11
75.502694
21
57.836531
0
LINE
8
Layer 1
10
75.502694
20
57.836531
11
77.281049
21
56.426365
0
LINE
8
Layer 1
10
77.281049
20
56.426365
11
78.838323
21
54.121751
0
LINE
8
Layer 1
10
78.838323
20
54.121751
11
79.885086
21
51.853759
0
LINE
8
Layer 1
10
79.885086
20
51.853759
11
80.265705
21
50.541792
0
LINE
8
Layer 1
10
80.265705
20
50.541792
11
81.044113
21
51.769216
0
LINE
8
Layer 1
10
81.044113
20
51.769216
11
81.813726
21
52.745015
0
LINE
8
Layer 1
10
81.813726
20
52.745015
11
82.767073
21
53.590929
0
LINE
8
Layer 1
10
82.767073
20
53.590929
11
83.803073
21
54.231432
0
LINE
8
Layer 1
10
83.803073
20
54.231432
11
84.820644
21
54.590995
0
LINE
8
Layer 1
10
84.820644
20
54.590995
11
85.537904
21
54.565456
0
LINE
8
Layer 1
10
85.537904
20
54.565456
11
86.289509
21
54.088861
0
LINE
8
Layer 1
10
86.289509
20
54.088861
11
87.239182
21
53.011685
0
LINE
8
Layer 1
10
87.239182
20
53.011685
11
88.550643
21
51.184404
0
LINE
8
Layer 1
10
88.550643
20
51.184404
11
89.785576
21
49.609810
0
LINE
8
Layer 1
10
89.785576
20
49.609810
11
90.259400
21
49.240976
0
LINE
8
Layer 1
10
90.259400
20
49.240976
11
90.714655
21
49.075904
0
LINE
8
Layer 1
10
90.714655
20
49.075904
11
91.380489
21
48.830485
0
LINE
8
Layer 1
10
91.380489
20
48.830485
11
91.837775
21
48.441963
0
LINE
8
Layer 1
10
91.837775
20
48.441963
11
91.918098
21
48.113248
0
LINE
8
Layer 1
10
91.918098
20
48.113248
11
91.712674
21
47.662601
0
LINE
8
Layer 1
10
91.712674
20
47.662601
11
90.104067
21
45.895325
0
LINE
8
Layer 1
10
90.104067
20
45.895325
11
88.240685
21
43.876349
0
LINE
8
Layer 1
10
88.240685
20
43.876349
11
88.124595
21
43.519722
0
LINE
8
Layer 1
10
88.124595
20
43.519722
11
88.437878
21
43.429058
0
LINE
8
Layer 1
10
88.437878
20
43.429058
11
88.848045
21
43.257709
0
LINE
8
Layer 1
10
88.848045
20
43.257709
11
89.425988
21
42.797803
0
LINE
8
Layer 1
10
89.425988
20
42.797803
11
90.810931
21
41.337168
0
LINE
8
Layer 1
10
90.810931
20
41.337168
11
92.044163
21
39.696845
0
LINE
8
Layer 1
10
92.044163
20
39.696845
11
92.577138
21
38.526531
0
LINE
8
Layer 1
10
92.577138
20
38.526531
11
92.859360
21
37.925725
0
LINE
8
Layer 1
10
92.859360
20
37.925725
11
93.058680
21
37.436826
0
LINE
8
Layer 1
10
93.058680
20
37.436826
11
93.141583
21
36.506322
0
LINE
8
Layer 1
10
93.141583
20
36.506322
11
92.949684
21
35.200765
0
LINE
8
Layer 1
10
92.949684
20
35.200765
11
92.444847
21
33.773320
0
LINE
8
Layer 1
10
92.444847
20
33.773320
11
91.733361
21
32.463208
0
LINE
8
Layer 1
10
91.733361
20
32.463208
11
90.921515
21
31.509654
0
LINE
8
Layer 1
10
90.921515
20
31.509654
11
89.522122
21
30.668615
0
LINE
8
Layer 1
10
89.522122
20
30.668615
11
87.471351
21
29.766787
0
LINE
8
Layer 1
10
87.471351
20
29.766787
11
85.389139
21
29.047354
0
LINE
8
Layer 1
10
85.389139
20
29.047354
11
83.895424
21
28.753503
0
LINE
8
Layer 1
10
83.895424
20
28.753503
11
83.421633
21
28.670600
0
LINE
8
Layer 1
10
83.421633
20
28.670600
11
83.122694
21
28.471281
0
LINE
8
Layer 1
10
83.122694
20
28.471281
11
82.642776
21
28.176547
0
LINE
8
Layer 1
10
82.642776
20
28.176547
11
81.893167
21
28.333678
0
LINE
8
Layer 1
10
81.893167
20
28.333678
11
80.928964
21
28.918811
0
LINE
8
Layer 1
10
80.928964
20
28.918811
11
79.805268
21
29.908082
0
LINE
8
Layer 1
10
79.805268
20
29.908082
11
79.805268
21
29.908082
0
LINE
8
Layer 1
10
86.227138
20
31.293503
11
86.494975
21
31.492822
0
LINE
8
Layer 1
10
86.494975
20
31.492822
11
86.893987
21
31.575725
0
LINE
8
Layer 1
10
86.893987
20
31.575725
11
87.515345
21
31.857990
0
LINE
8
Layer 1
10
87.515345
20
31.857990
11
88.317756
21
32.536627
0
LINE
8
Layer 1
10
88.317756
20
32.536627
11
88.814958
21
33.099537
0
LINE
8
Layer 1
10
88.814958
20
33.099537
11
89.097979
21
33.611009
0
LINE
8
Layer 1
10
89.097979
20
33.611009
11
89.263254
21
35.147182
0
LINE
8
Layer 1
10
89.263254
20
35.147182
11
89.160049
21
36.416373
0
LINE
8
Layer 1
10
89.160049
20
36.416373
11
88.825137
21
37.603504
0
LINE
8
Layer 1
10
88.825137
20
37.603504
11
88.254402
21
38.719045
0
LINE
8
Layer 1
10
88.254402
20
38.719045
11
87.443728
21
39.773462
0
LINE
8
Layer 1
10
87.443728
20
39.773462
11
85.822907
21
41.152654
0
LINE
8
Layer 1
10
85.822907
20
41.152654
11
85.040636
21
41.578394
0
LINE
8
Layer 1
10
85.040636
20
41.578394
11
84.419683
21
41.735725
0
LINE
8
Layer 1
10
84.419683
20
41.735725
11
83.916528
21
41.885801
0
LINE
8
Layer 1
10
83.916528
20
41.885801
11
83.947768
21
42.359999
0
LINE
8
Layer 1
10
83.947768
20
42.359999
11
84.530267
21
43.194274
0
LINE
8
Layer 1
10
84.530267
20
43.194274
11
85.680889
21
44.424580
0
LINE
8
Layer 1
10
85.680889
20
44.424580
11
86.963245
21
45.832826
0
LINE
8
Layer 1
10
86.963245
20
45.832826
11
87.444778
21
46.617029
0
LINE
8
Layer 1
10
87.444778
20
46.617029
11
86.831006
21
47.649421
0
LINE
8
Layer 1
10
86.831006
20
47.649421
11
85.612000
21
49.328140
0
LINE
8
Layer 1
10
85.612000
20
49.328140
11
84.363269
21
50.896032
0
LINE
8
Layer 1
10
84.363269
20
50.896032
11
83.660324
21
51.595943
0
LINE
8
Layer 1
10
83.660324
20
51.595943
11
83.271129
21
51.454149
0
LINE
8
Layer 1
10
83.271129
20
51.454149
11
82.834273
21
51.010881
0
LINE
8
Layer 1
10
82.834273
20
51.010881
11
81.922905
21
49.355725
0
LINE
8
Layer 1
10
81.922905
20
49.355725
11
81.268811
21
47.100506
0
LINE
8
Layer 1
10
81.268811
20
47.100506
11
80.563077
21
43.036871
0
LINE
8
Layer 1
10
80.563077
20
43.036871
11
80.439929
21
42.221350
0
LINE
8
Layer 1
10
80.439929
20
42.221350
11
81.863390
21
42.389939
0
LINE
8
Layer 1
10
81.863390
20
42.389939
11
83.124198
21
42.424911
0
LINE
8
Layer 1
10
83.124198
20
42.424911
11
83.382278
21
42.216665
0
LINE
8
Layer 1
10
83.382278
20
42.216665
11
83.574848
21
41.794348
0
LINE
8
Layer 1
10
83.574848
20
41.794348
11
84.268883
21
40.210698
0
LINE
8
Layer 1
10
84.268883
20
40.210698
11
84.614589
21
39.319554
0
LINE
8
Layer 1
10
84.614589
20
39.319554
11
84.667581
21
38.636945
0
LINE
8
Layer 1
10
84.667581
20
38.636945
11
84.428705
21
38.168107
0
LINE
8
Layer 1
10
84.428705
20
38.168107
11
83.898805
21
37.918271
0
LINE
8
Layer 1
10
83.898805
20
37.918271
11
82.091301
21
37.486302
0
LINE
8
Layer 1
10
82.091301
20
37.486302
11
81.131086
21
37.355268
0
LINE
8
Layer 1
10
81.131086
20
37.355268
11
80.309040
21
37.499135
0
LINE
8
Layer 1
10
80.309040
20
37.499135
11
79.301569
21
37.784614
0
LINE
8
Layer 1
10
79.301569
20
37.784614
11
78.969501
21
37.521402
0
LINE
8
Layer 1
10
78.969501
20
37.521402
11
78.603716
21
36.918155
0
LINE
8
Layer 1
10
78.603716
20
36.918155
11
78.342565
21
36.254460
0
LINE
8
Layer 1
10
78.342565
20
36.254460
11
78.324397
21
35.809899
0
LINE
8
Layer 1
10
78.324397
20
35.809899
11
80.625947
21
33.803546
0
LINE
8
Layer 1
10
80.625947
20
33.803546
11
83.549688
21
31.613314
0
LINE
8
Layer 1
10
83.549688
20
31.613314
11
84.365023
21
31.229549
0
LINE
8
Layer 1
10
84.365023
20
31.229549
11
85.168033
21
31.038173
0
LINE
8
Layer 1
10
85.168033
20
31.038173
11
85.831233
21
31.054416
0
LINE
8
Layer 1
10
85.831233
20
31.054416
11
86.227138
21
31.293503
0
LINE
8
Layer 1
10
86.227138
20
31.293503
11
86.227138
21
31.293503
0
LINE
8
Layer 1
10
80.288418
20
40.344115
11
79.992055
21
40.588175
0
LINE
8
Layer 1
10
79.992055
20
40.588175
11
79.877138
21
40.166846
0
LINE
8
Layer 1
10
79.877138
20
40.166846
11
79.961393
21
39.908177
0
LINE
8
Layer 1
10
79.961393
20
39.908177
11
80.163964
21
39.904125
0
LINE
8
Layer 1
10
80.163964
20
39.904125
11
80.318838
21
40.106495
0
LINE
8
Layer 1
10
80.318838
20
40.106495
11
80.288418
21
40.344115
0
LINE
8
Layer 1
10
80.288418
20
40.344115
11
80.288418
21
40.344115
0
LINE
8
Layer 1
10
77.604202
20
48.085725
11
76.470882
21
51.420849
0
LINE
8
Layer 1
10
76.470882
20
51.420849
11
75.289687
21
53.798301
0
LINE
8
Layer 1
10
75.289687
20
53.798301
11
73.924658
21
55.555314
0
LINE
8
Layer 1
10
73.924658
20
55.555314
11
73.189852
21
56.130071
0
LINE
8
Layer 1
10
73.189852
20
56.130071
11
72.294984
21
56.620308
0
LINE
8
Layer 1
10
72.294984
20
56.620308
11
71.727314
21
56.870733
0
LINE
8
Layer 1
10
71.727314
20
56.870733
11
71.366168
21
56.915317
0
LINE
8
Layer 1
10
71.366168
20
56.915317
11
71.061858
21
56.720200
0
LINE
8
Layer 1
10
71.061858
20
56.720200
11
70.664697
21
56.251520
0
LINE
8
Layer 1
10
70.664697
20
56.251520
11
70.322408
21
55.745219
0
LINE
8
Layer 1
10
70.322408
20
55.745219
11
70.120986
21
55.181607
0
LINE
8
Layer 1
10
70.120986
20
55.181607
11
70.000763
21
53.249559
0
LINE
8
Layer 1
10
70.000763
20
53.249559
11
70.094402
21
51.482329
0
LINE
8
Layer 1
10
70.094402
20
51.482329
11
70.321500
21
50.286226
0
LINE
8
Layer 1
10
70.321500
20
50.286226
11
71.547941
21
47.632048
0
LINE
8
Layer 1
10
71.547941
20
47.632048
11
72.905854
21
45.381321
0
LINE
8
Layer 1
10
72.905854
20
45.381321
11
74.429810
21
43.484292
0
LINE
8
Layer 1
10
74.429810
20
43.484292
11
76.154376
21
41.891207
0
LINE
8
Layer 1
10
76.154376
20
41.891207
11
77.760472
21
40.616319
0
LINE
8
Layer 1
10
77.760472
20
40.616319
11
77.846614
21
43.786577
0
LINE
8
Layer 1
10
77.846614
20
43.786577
11
77.816074
21
46.382460
0
LINE
8
Layer 1
10
77.816074
20
46.382460
11
77.604202
21
48.085725
0
LINE
8
Layer 1
10
77.604202
20
48.085725
11
77.604202
21
48.085725
0
LINE
8
Layer 1
10
36.132697
20
29.673491
11
35.159384
21
30.071524
0
LINE
8
Layer 1
10
35.159384
20
30.071524
11
34.274026
21
30.631412
0
LINE
8
Layer 1
10
34.274026
20
30.631412
11
33.543695
21
31.302071
0
LINE
8
Layer 1
10
33.543695
20
31.302071
11
33.035463
21
32.032417
0
LINE
8
Layer 1
10
33.035463
20
32.032417
11
32.358030
21
33.274178
0
LINE
8
Layer 1
10
32.358030
20
33.274178
11
31.783813
21
33.990424
0
LINE
8
Layer 1
10
31.783813
20
33.990424
11
31.153896
21
34.319049
0
LINE
8
Layer 1
10
31.153896
20
34.319049
11
30.309368
21
34.397947
0
LINE
8
Layer 1
10
30.309368
20
34.397947
11
29.264362
21
34.324505
0
LINE
8
Layer 1
10
29.264362
20
34.324505
11
28.416316
21
34.043596
0
LINE
8
Layer 1
10
28.416316
20
34.043596
11
27.588139
21
33.464345
0
LINE
8
Layer 1
10
27.588139
20
33.464345
11
26.602741
21
32.495877
0
LINE
8
Layer 1
10
26.602741
20
32.495877
11
25.889048
21
31.767222
0
LINE
8
Layer 1
10
25.889048
20
31.767222
11
25.370661
21
31.405303
0
LINE
8
Layer 1
10
25.370661
20
31.405303
11
24.813182
21
31.310645
0
LINE
8
Layer 1
10
24.813182
20
31.310645
11
23.982212
21
31.383774
0
LINE
8
Layer 1
10
23.982212
20
31.383774
11
22.824829
21
31.636891
0
LINE
8
Layer 1
10
22.824829
20
31.636891
11
21.860792
21
32.089852
0
LINE
8
Layer 1
10
21.860792
20
32.089852
11
21.117100
21
32.725446
0
LINE
8
Layer 1
10
21.117100
20
32.725446
11
20.620753
21
33.526465
0
LINE
8
Layer 1
10
20.620753
20
33.526465
11
20.419312
21
34.850123
0
LINE
8
Layer 1
10
20.419312
20
34.850123
11
20.406563
21
36.963567
0
LINE
8
Layer 1
10
20.406563
20
36.963567
11
20.563081
21
39.269664
0
LINE
8
Layer 1
10
20.563081
20
39.269664
11
20.869440
21
41.171281
0
LINE
8
Layer 1
10
20.869440
20
41.171281
11
21.317012
21
43.068532
0
LINE
8
Layer 1
10
21.317012
20
43.068532
11
21.375360
21
43.684919
0
LINE
8
Layer 1
10
21.375360
20
43.684919
11
21.289927
21
44.168669
0
LINE
8
Layer 1
10
21.289927
20
44.168669
11
21.035597
21
44.586427
0
LINE
8
Layer 1
10
21.035597
20
44.586427
11
20.587254
21
45.004834
0
LINE
8
Layer 1
10
20.587254
20
45.004834
11
19.008060
21
46.110169
0
LINE
8
Layer 1
10
19.008060
20
46.110169
11
16.480481
21
47.985565
0
LINE
8
Layer 1
10
16.480481
20
47.985565
11
14.879213
21
49.554156
0
LINE
8
Layer 1
10
14.879213
20
49.554156
11
14.417262
21
50.234197
0
LINE
8
Layer 1
10
14.417262
20
50.234197
11
14.176468
21
50.850494
0
LINE
8
Layer 1
10
14.176468
20
50.850494
11
14.153358
21
51.407366
0
LINE
8
Layer 1
10
14.153358
20
51.407366
11
14.344460
21
51.909131
0
LINE
8
Layer 1
10
14.344460
20
51.909131
11
14.440433
21
52.211068
0
LINE
8
Layer 1
10
14.440433
20
52.211068
11
14.290780
21
52.551909
0
LINE
8
Layer 1
10
14.290780
20
52.551909
11
12.976103
21
53.718553
0
LINE
8
Layer 1
10
12.976103
20
53.718553
11
11.644051
21
54.906245
0
LINE
8
Layer 1
10
11.644051
20
54.906245
11
10.574283
21
56.135441
0
LINE
8
Layer 1
10
10.574283
20
56.135441
11
9.862351
21
57.278895
0
LINE
8
Layer 1
10
9.862351
20
57.278895
11
9.603806
21
58.209363
0
LINE
8
Layer 1
10
9.603806
20
58.209363
11
9.520903
21
58.761052
0
LINE
8
Layer 1
10
9.520903
20
58.761052
11
9.321584
21
59.092392
0
LINE
8
Layer 1
10
9.321584
20
59.092392
11
9.121802
21
59.717116
0
LINE
8
Layer 1
10
9.121802
20
59.717116
11
9.046329
21
60.932812
0
LINE
8
Layer 1
10
9.046329
20
60.932812
11
9.099613
21
62.234673
0
LINE
8
Layer 1
10
9.099613
20
62.234673
11
9.286103
21
63.117888
0
LINE
8
Layer 1
10
9.286103
20
63.117888
11
10.901011
21
65.999527
0
LINE
8
Layer 1
10
10.901011
20
65.999527
11
12.974564
21
68.679164
0
LINE
8
Layer 1
10
12.974564
20
68.679164
11
15.636508
21
71.681809
0
LINE
8
Layer 1
10
15.636508
20
71.681809
11
16.697525
21
72.669630
0
LINE
8
Layer 1
10
16.697525
20
72.669630
11
17.692708
21
73.383553
0
LINE
8
Layer 1
10
17.692708
20
73.383553
11
18.707660
21
73.874904
0
LINE
8
Layer 1
10
18.707660
20
73.874904
11
19.827981
21
74.195010
0
LINE
8
Layer 1
10
19.827981
20
74.195010
11
22.727139
21
74.526792
0
LINE
8
Layer 1
10
22.727139
20
74.526792
11
27.524919
21
75.018736
0
LINE
8
Layer 1
10
27.524919
20
75.018736
11
33.301744
21
75.732366
0
LINE
8
Layer 1
10
33.301744
20
75.732366
11
42.764919
21
76.634258
0
LINE
8
Layer 1
10
42.764919
20
76.634258
11
44.524962
21
76.977716
0
LINE
8
Layer 1
10
44.524962
20
76.977716
11
46.570470
21
77.666433
0
LINE
8
Layer 1
10
46.570470
20
77.666433
11
48.602262
21
78.582643
0
LINE
8
Layer 1
10
48.602262
20
78.582643
11
50.321154
21
79.608581
0
LINE
8
Layer 1
10
50.321154
20
79.608581
11
54.035573
21
81.659530
0
LINE
8
Layer 1
10
54.035573
20
81.659530
11
59.231832
21
84.495832
0
LINE
8
Layer 1
10
59.231832
20
84.495832
11
62.454739
21
86.418423
0
LINE
8
Layer 1
10
62.454739
20
86.418423
11
64.896712
21
88.043196
0
LINE
8
Layer 1
10
64.896712
20
88.043196
11
68.569682
21
90.605847
0
LINE
8
Layer 1
10
68.569682
20
90.605847
11
72.097460
21
93.166528
0
LINE
8
Layer 1
10
72.097460
20
93.166528
11
80.267452
21
99.357053
0
LINE
8
Layer 1
10
80.267452
20
99.357053
11
80.338284
21
99.532721
0
LINE
8
Layer 1
10
80.338284
20
99.532721
11
80.237276
21
99.844014
0
LINE
8
Layer 1
10
80.237276
20
99.844014
11
79.521465
21
100.871350
0
LINE
8
Layer 1
10
79.521465
20
100.871350
11
76.046787
21
104.530169
0
LINE
8
Layer 1
10
76.046787
20
104.530169
11
73.897587
21
106.748596
0
LINE
8
Layer 1
10
73.897587
20
106.748596
11
72.564076
21
108.473580
0
LINE
8
Layer 1
10
72.564076
20
108.473580
11
71.883397
21
109.965196
0
LINE
8
Layer 1
10
71.883397
20
109.965196
11
71.692694
21
111.483521
0
LINE
8
Layer 1
10
71.692694
20
111.483521
11
71.760466
21
112.650990
0
LINE
8
Layer 1
10
71.760466
20
112.650990
11
71.923408
21
113.293169
0
LINE
8
Layer 1
10
71.923408
20
113.293169
11
72.293181
21
114.073771
0
LINE
8
Layer 1
10
72.293181
20
114.073771
11
72.564570
21
115.245693
0
LINE
8
Layer 1
10
72.564570
20
115.245693
11
72.678651
21
116.446284
0
LINE
8
Layer 1
10
72.678651
20
116.446284
11
72.576504
21
117.312892
0
LINE
8
Layer 1
10
72.576504
20
117.312892
11
71.541445
21
120.757947
0
LINE
8
Layer 1
10
71.541445
20
120.757947
11
70.563497
21
124.285725
0
LINE
8
Layer 1
10
70.563497
20
124.285725
11
69.820016
21
126.902461
0
LINE
8
Layer 1
10
69.820016
20
126.902461
11
69.487266
21
128.777055
0
LINE
8
Layer 1
10
69.487266
20
128.777055
11
69.467341
21
131.065126
0
LINE
8
Layer 1
10
69.467341
20
131.065126
11
69.662331
21
134.922297
0
LINE
8
Layer 1
10
69.662331
20
134.922297
11
70.038499
21
147.797486
0
LINE
8
Layer 1
10
70.038499
20
147.797486
11
70.076695
21
154.375917
0
LINE
8
Layer 1
10
70.076695
20
154.375917
11
68.556361
21
155.372141
0
LINE
8
Layer 1
10
68.556361
20
155.372141
11
65.459717
21
157.733232
0
LINE
8
Layer 1
10
65.459717
20
157.733232
11
61.657383
21
160.686080
0
LINE
8
Layer 1
10
61.657383
20
160.686080
11
58.465714
21
162.726356
0
LINE
8
Layer 1
10
58.465714
20
162.726356
11
56.732745
21
163.705020
0
LINE
8
Layer 1
10
56.732745
20
163.705020
11
53.999409
21
165.701836
0
LINE
8
Layer 1
10
53.999409
20
165.701836
11
51.954165
21
167.042392
0
LINE
8
Layer 1
10
51.954165
20
167.042392
11
48.929535
21
168.475442
0
LINE
8
Layer 1
10
48.929535
20
168.475442
11
44.491230
21
170.971283
0
LINE
8
Layer 1
10
44.491230
20
170.971283
11
41.449396
21
172.778289
0
LINE
8
Layer 1
10
41.449396
20
172.778289
11
40.212504
21
173.251283
0
LINE
8
Layer 1
10
40.212504
20
173.251283
11
39.303867
21
173.510107
0
LINE
8
Layer 1
10
39.303867
20
173.510107
11
36.768569
21
174.119656
0
LINE
8
Layer 1
10
36.768569
20
174.119656
11
34.937269
21
174.288181
0
LINE
8
Layer 1
10
34.937269
20
174.288181
11
33.309462
21
174.179515
0
LINE
8
Layer 1
10
33.309462
20
174.179515
11
32.104304
21
173.829164
0
LINE
8
Layer 1
10
32.104304
20
173.829164
11
31.728705
21
173.574454
0
LINE
8
Layer 1
10
31.728705
20
173.574454
11
31.540952
21
173.272639
0
LINE
8
Layer 1
10
31.540952
20
173.272639
11
31.232889
21
172.885171
0
LINE
8
Layer 1
10
31.232889
20
172.885171
11
30.434682
21
172.604565
0
LINE
8
Layer 1
10
30.434682
20
172.604565
11
26.702281
21
172.219013
0
LINE
8
Layer 1
10
26.702281
20
172.219013
11
24.862509
21
172.185253
0
LINE
8
Layer 1
10
24.862509
20
172.185253
11
23.274265
21
172.365828
0
LINE
8
Layer 1
10
23.274265
20
172.365828
11
21.719008
21
172.803738
0
LINE
8
Layer 1
10
21.719008
20
172.803738
11
19.978193
21
173.541981
0
LINE
8
Layer 1
10
19.978193
20
173.541981
11
18.737139
21
174.418773
0
LINE
8
Layer 1
10
18.737139
20
174.418773
11
17.005485
21
175.947854
0
LINE
8
Layer 1
10
17.005485
20
175.947854
11
15.293914
21
177.649984
0
LINE
8
Layer 1
10
15.293914
20
177.649984
11
14.113111
21
179.045924
0
LINE
8
Layer 1
10
14.113111
20
179.045924
11
12.908413
21
180.638458
0
LINE
8
Layer 1
10
12.908413
20
180.638458
11
11.392607
21
182.929084
0
LINE
8
Layer 1
10
11.392607
20
182.929084
11
9.785631
21
185.992160
0
LINE
8
Layer 1
10
9.785631
20
185.992160
11
8.543506
21
189.774907
0
LINE
8
Layer 1
10
8.543506
20
189.774907
11
8.089262
21
191.714248
0
LINE
8
Layer 1
10
8.089262
20
191.714248
11
7.910473
21
193.065976
0
LINE
8
Layer 1
10
7.910473
20
193.065976
11
8.072352
21
194.130242
0
LINE
8
Layer 1
10
8.072352
20
194.130242
11
8.495497
21
195.573469
0
LINE
8
Layer 1
10
8.495497
20
195.573469
11
9.750633
21
198.491334
0
LINE
8
Layer 1
10
9.750633
20
198.491334
11
11.201434
21
200.592475
0
LINE
8
Layer 1
10
11.201434
20
200.592475
11
13.087770
21
202.609055
0
LINE
8
Layer 1
10
13.087770
20
202.609055
11
15.225055
21
204.367873
0
LINE
8
Layer 1
10
15.225055
20
204.367873
11
17.428701
21
205.695731
0
LINE
8
Layer 1
10
17.428701
20
205.695731
11
20.116697
21
206.897239
0
LINE
8
Layer 1
10
20.116697
20
206.897239
11
20.982455
21
207.093243
0
LINE
8
Layer 1
10
20.982455
20
207.093243
11
22.059352
21
207.190484
0
LINE
8
Layer 1
10
22.059352
20
207.190484
11
23.576089
21
207.468754
0
LINE
8
Layer 1
10
23.576089
20
207.468754
11
24.843159
21
208.321924
0
LINE
8
Layer 1
10
24.843159
20
208.321924
11
26.302237
21
209.424061
0
LINE
8
Layer 1
10
26.302237
20
209.424061
11
27.715196
21
210.125724
0
LINE
8
Layer 1
10
27.715196
20
210.125724
11
29.286319
21
210.500610
0
LINE
8
Layer 1
10
29.286319
20
210.500610
11
31.219888
21
210.622416
0
LINE
8
Layer 1
10
31.219888
20
210.622416
11
33.231777
21
210.545757
0
LINE
8
Layer 1
10
33.231777
20
210.545757
11
34.465443
21
210.328705
0
LINE
8
Layer 1
10
34.465443
20
210.328705
11
36.556030
21
209.353689
0
LINE
8
Layer 1
10
36.556030
20
209.353689
11
38.312082
21
208.449300
0
LINE
8
Layer 1
10
38.312082
20
208.449300
11
39.980781
21
207.407407
0
LINE
8
Layer 1
10
39.980781
20
207.407407
11
41.583983
21
206.207128
0
LINE
8
Layer 1
10
41.583983
20
206.207128
11
43.143546
21
204.827582
0
LINE
8
Layer 1
10
43.143546
20
204.827582
11
46.219182
21
201.447153
0
LINE
8
Layer 1
10
46.219182
20
201.447153
11
49.382545
21
197.099061
0
LINE
8
Layer 1
10
49.382545
20
197.099061
11
52.174580
21
193.062230
0
LINE
8
Layer 1
10
52.174580
20
193.062230
11
54.722237
21
189.770419
0
LINE
8
Layer 1
10
54.722237
20
189.770419
11
57.511783
21
186.638353
0
LINE
8
Layer 1
10
57.511783
20
186.638353
11
61.029489
21
183.080756
0
LINE
8
Layer 1
10
61.029489
20
183.080756
11
63.990268
21
180.372730
0
LINE
8
Layer 1
10
63.990268
20
180.372730
11
67.514432
21
177.490757
0
LINE
8
Layer 1
10
67.514432
20
177.490757
11
71.510997
21
174.505814
0
LINE
8
Layer 1
10
71.510997
20
174.505814
11
75.888977
21
171.488876
0
LINE
8
Layer 1
10
75.888977
20
171.488876
11
76.777379
21
171.043443
0
LINE
8
Layer 1
10
76.777379
20
171.043443
11
77.163608
21
171.022366
0
LINE
8
Layer 1
10
77.163608
20
171.022366
11
77.551831
21
171.158072
0
LINE
8
Layer 1
10
77.551831
20
171.158072
11
78.456188
21
171.966899
0
LINE
8
Layer 1
10
78.456188
20
171.966899
11
79.734306
21
173.604061
0
LINE
8
Layer 1
10
79.734306
20
173.604061
11
81.584073
21
175.932709
0
LINE
8
Layer 1
10
81.584073
20
175.932709
11
83.616862
21
178.167813
0
LINE
8
Layer 1
10
83.616862
20
178.167813
11
85.789400
21
180.274600
0
LINE
8
Layer 1
10
85.789400
20
180.274600
11
88.058416
21
182.218296
0
LINE
8
Layer 1
10
88.058416
20
182.218296
11
90.380636
21
183.964128
0
LINE
8
Layer 1
10
90.380636
20
183.964128
11
92.712789
21
185.477321
0
LINE
8
Layer 1
10
92.712789
20
185.477321
11
95.011603
21
186.723103
0
LINE
8
Layer 1
10
95.011603
20
186.723103
11
97.233805
21
187.666701
0
LINE
8
Layer 1
10
97.233805
20
187.666701
11
101.074855
21
188.875886
0
LINE
8
Layer 1
10
101.074855
20
188.875886
11
104.930876
21
189.596122
0
LINE
8
Layer 1
10
104.930876
20
189.596122
11
109.736139
21
189.942454
0
LINE
8
Layer 1
10
109.736139
20
189.942454
11
116.424916
21
190.029933
0
LINE
8
Layer 1
10
116.424916
20
190.029933
11
122.252805
21
189.997709
0
LINE
8
Layer 1
10
122.252805
20
189.997709
11
126.098460
21
189.840475
0
LINE
8
Layer 1
10
126.098460
20
189.840475
11
129.270121
21
189.457527
0
LINE
8
Layer 1
10
129.270121
20
189.457527
11
133.076027
21
188.748159
0
LINE
8
Layer 1
10
133.076027
20
188.748159
11
137.840100
21
187.496051
0
LINE
8
Layer 1
10
137.840100
20
187.496051
11
142.686795
21
185.679741
0
LINE
8
Layer 1
10
142.686795
20
185.679741
11
147.208384
21
183.474266
0
LINE
8
Layer 1
10
147.208384
20
183.474266
11
149.219848
21
182.280291
0
LINE
8
Layer 1
10
149.219848
20
182.280291
11
150.997138
21
181.054663
0
LINE
8
Layer 1
10
150.997138
20
181.054663
11
153.792996
21
178.661927
0
LINE
8
Layer 1
10
153.792996
20
178.661927
11
156.998452
21
175.501047
0
LINE
8
Layer 1
10
156.998452
20
175.501047
11
159.962329
21
172.248918
0
LINE
8
Layer 1
10
159.962329
20
172.248918
11
162.033452
21
169.582437
0
LINE
8
Layer 1
10
162.033452
20
169.582437
11
162.486433
21
168.891221
0
LINE
8
Layer 1
10
162.486433
20
168.891221
11
164.150119
21
170.312811
0
LINE
8
Layer 1
10
164.150119
20
170.312811
11
167.648249
21
173.114679
0
LINE
8
Layer 1
10
167.648249
20
173.114679
11
169.623805
21
174.650835
0
LINE
8
Layer 1
10
169.623805
20
174.650835
11
171.430710
21
176.075109
0
LINE
8
Layer 1
10
171.430710
20
176.075109
11
174.162223
21
178.190172
0
LINE
8
Layer 1
10
174.162223
20
178.190172
11
177.435318
21
180.769020
0
LINE
8
Layer 1
10
177.435318
20
180.769020
11
180.779017
21
183.691358
0
LINE
8
Layer 1
10
180.779017
20
183.691358
11
183.971451
21
187.079038
0
LINE
8
Layer 1
10
183.971451
20
187.079038
11
186.961410
21
190.872577
0
LINE
8
Layer 1
10
186.961410
20
190.872577
11
189.697687
21
195.012496
0
LINE
8
Layer 1
10
189.697687
20
195.012496
11
191.254360
21
197.431213
0
LINE
8
Layer 1
10
191.254360
20
197.431213
11
192.869059
21
199.578058
0
LINE
8
Layer 1
10
192.869059
20
199.578058
11
194.712723
21
201.662159
0
LINE
8
Layer 1
10
194.712723
20
201.662159
11
196.956293
21
203.892641
0
LINE
8
Layer 1
10
196.956293
20
203.892641
11
201.029284
21
207.505154
0
LINE
8
Layer 1
10
201.029284
20
207.505154
11
202.793112
21
208.845028
0
LINE
8
Layer 1
10
202.793112
20
208.845028
11
204.418007
21
209.899077
0
LINE
8
Layer 1
10
204.418007
20
209.899077
11
205.936103
21
210.686126
0
LINE
8
Layer 1
10
205.936103
20
210.686126
11
207.379535
21
211.224999
0
LINE
8
Layer 1
10
207.379535
20
211.224999
11
208.780438
21
211.534518
0
LINE
8
Layer 1
10
208.780438
20
211.534518
11
210.170945
21
211.633508
0
LINE
8
Layer 1
10
210.170945
20
211.633508
11
211.728498
21
211.522745
0
LINE
8
Layer 1
10
211.728498
20
211.522745
11
213.077890
21
211.158336
0
LINE
8
Layer 1
10
213.077890
20
211.158336
11
214.341261
21
210.492101
0
LINE
8
Layer 1
10
214.341261
20
210.492101
11
215.640751
21
209.475860
0
LINE
8
Layer 1
10
215.640751
20
209.475860
11
217.236504
21
208.261143
0
LINE
8
Layer 1
10
217.236504
20
208.261143
11
217.917678
21
207.984000
0
LINE
8
Layer 1
10
217.917678
20
207.984000
11
218.707679
21
207.826644
0
LINE
8
Layer 1
10
218.707679
20
207.826644
11
219.766365
21
207.612288
0
LINE
8
Layer 1
10
219.766365
20
207.612288
11
220.299034
21
207.373736
0
LINE
8
Layer 1
10
220.299034
20
207.373736
11
220.866871
21
207.117953
0
LINE
8
Layer 1
10
220.866871
20
207.117953
11
221.591280
21
206.931254
0
LINE
8
Layer 1
10
221.591280
20
206.931254
11
222.715675
21
206.446379
0
LINE
8
Layer 1
10
222.715675
20
206.446379
11
225.221583
21
205.033417
0
LINE
8
Layer 1
10
225.221583
20
205.033417
11
227.008362
21
203.569976
0
LINE
8
Layer 1
10
227.008362
20
203.569976
11
228.556011
21
201.772932
0
LINE
8
Layer 1
10
228.556011
20
201.772932
11
229.842759
21
199.702595
0
LINE
8
Layer 1
10
229.842759
20
199.702595
11
230.846833
21
197.419272
0
LINE
8
Layer 1
10
230.846833
20
197.419272
11
231.546463
21
194.983271
0
LINE
8
Layer 1
10
231.546463
20
194.983271
11
231.919875
21
192.454902
0
LINE
8
Layer 1
10
231.919875
20
192.454902
11
231.945300
21
189.894472
0
LINE
8
Layer 1
10
231.945300
20
189.894472
11
231.600965
21
187.362290
0
LINE
8
Layer 1
10
231.600965
20
187.362290
11
230.936580
21
184.904955
0
LINE
8
Layer 1
10
230.936580
20
184.904955
11
229.714614
21
182.846839
0
LINE
8
Layer 1
10
229.714614
20
182.846839
11
227.063964
21
179.351997
0
LINE
8
Layer 1
10
227.063964
20
179.351997
11
224.324873
21
176.553009
0
LINE
8
Layer 1
10
224.324873
20
176.553009
11
222.913318
21
175.406672
0
LINE
8
Layer 1
10
222.913318
20
175.406672
11
221.469039
21
174.424951
0
LINE
8
Layer 1
10
221.469039
20
174.424951
11
219.988499
21
173.604732
0
LINE
8
Layer 1
10
219.988499
20
173.604732
11
218.468160
21
172.942899
0
LINE
8
Layer 1
10
218.468160
20
172.942899
11
216.886419
21
172.650411
0
LINE
8
Layer 1
10
216.886419
20
172.650411
11
214.683571
21
172.584980
0
LINE
8
Layer 1
10
214.683571
20
172.584980
11
212.427763
21
172.735735
0
LINE
8
Layer 1
10
212.427763
20
172.735735
11
210.687138
21
173.091802
0
LINE
8
Layer 1
10
210.687138
20
173.091802
11
208.122028
21
173.867534
0
LINE
8
Layer 1
10
208.122028
20
173.867534
11
205.822316
21
174.303195
0
LINE
8
Layer 1
10
205.822316
20
174.303195
11
203.831238
21
174.393488
0
LINE
8
Layer 1
10
203.831238
20
174.393488
11
202.192029
21
174.133112
0
LINE
8
Layer 1
10
202.192029
20
174.133112
11
199.821583
21
173.525586
0
LINE
8
Layer 1
10
199.821583
20
173.525586
11
197.846027
21
172.957267
0
LINE
8
Layer 1
10
197.846027
20
172.957267
11
196.333189
21
172.224237
0
LINE
8
Layer 1
10
196.333189
20
172.224237
11
191.676522
21
169.241586
0
LINE
8
Layer 1
10
191.676522
20
169.241586
11
184.017138
21
164.050686
0
LINE
8
Layer 1
10
184.017138
20
164.050686
11
174.734883
21
157.547801
0
LINE
8
Layer 1
10
174.734883
20
157.547801
11
171.150536
21
154.802380
0
LINE
8
Layer 1
10
171.150536
20
154.802380
11
168.604988
21
152.641760
0
LINE
8
Layer 1
10
168.604988
20
152.641760
11
167.445063
21
151.563172
0
LINE
8
Layer 1
10
167.445063
20
151.563172
11
167.582128
21
146.108891
0
LINE
8
Layer 1
10
167.582128
20
146.108891
11
167.753689
21
142.112922
0
LINE
8
Layer 1
10
167.753689
20
142.112922
11
167.973697
21
140.164792
0
LINE
8
Layer 1
10
167.973697
20
140.164792
11
168.082026
21
139.647224
0
LINE
8
Layer 1
10
168.082026
20
139.647224
11
168.030619
21
138.642187
0
LINE
8
Layer 1
10
168.030619
20
138.642187
11
167.355864
21
134.287624
0
LINE
8
Layer 1
10
167.355864
20
134.287624
11
167.083805
21
131.780367
0
LINE
8
Layer 1
10
167.083805
20
131.780367
11
166.824000
21
129.821802
0
LINE
8
Layer 1
10
166.824000
20
129.821802
11
165.947736
21
125.979058
0
LINE
8
Layer 1
10
165.947736
20
125.979058
11
165.070149
21
122.489889
0
LINE
8
Layer 1
10
165.070149
20
122.489889
11
164.881095
21
121.219939
0
LINE
8
Layer 1
10
164.881095
20
121.219939
11
164.793255
21
119.103222
0
LINE
8
Layer 1
10
164.793255
20
119.103222
11
164.899890
21
116.658020
0
LINE
8
Layer 1
10
164.899890
20
116.658020
11
165.366206
21
115.019548
0
LINE
8
Layer 1
10
165.366206
20
115.019548
11
165.781938
21
113.669343
0
LINE
8
Layer 1
10
165.781938
20
113.669343
11
165.954764
21
112.338437
0
LINE
8
Layer 1
10
165.954764
20
112.338437
11
165.911929
21
111.550939
0
LINE
8
Layer 1
10
165.911929
20
111.550939
11
165.652500
21
110.921223
0
LINE
8
Layer 1
10
165.652500
20
110.921223
11
164.979758
21
110.154621
0
LINE
8
Layer 1
10
164.979758
20
110.154621
11
163.696986
21
108.956467
0
LINE
8
Layer 1
10
163.696986
20
108.956467
11
162.086331
21
107.331747
0
LINE
8
Layer 1
10
162.086331
20
107.331747
11
161.439360
21
106.362565
0
LINE
8
Layer 1
10
161.439360
20
106.362565
11
161.356458
21
105.937663
0
LINE
8
Layer 1
10
161.356458
20
105.937663
11
161.157138
21
105.659058
0
LINE
8
Layer 1
10
161.157138
20
105.659058
11
160.955961
21
105.395684
0
LINE
8
Layer 1
10
160.955961
20
105.395684
11
160.868591
21
105.007402
0
LINE
8
Layer 1
10
160.868591
20
105.007402
11
160.024755
21
102.836836
0
LINE
8
Layer 1
10
160.024755
20
102.836836
11
159.187241
21
101.143503
0
LINE
8
Layer 1
10
159.187241
20
101.143503
11
160.129203
21
100.296836
0
LINE
8
Layer 1
10
160.129203
20
100.296836
11
163.173776
21
97.996823
0
LINE
8
Layer 1
10
163.173776
20
97.996823
11
169.153219
21
93.836459
0
LINE
8
Layer 1
10
169.153219
20
93.836459
11
174.706557
21
90.026459
0
LINE
8
Layer 1
10
174.706557
20
90.026459
11
178.690530
21
87.314614
0
LINE
8
Layer 1
10
178.690530
20
87.314614
11
181.319763
21
85.527665
0
LINE
8
Layer 1
10
181.319763
20
85.527665
11
183.157568
21
84.370758
0
LINE
8
Layer 1
10
183.157568
20
84.370758
11
185.263252
21
83.229008
0
LINE
8
Layer 1
10
185.263252
20
83.229008
11
187.412092
21
82.216216
0
LINE
8
Layer 1
10
187.412092
20
82.216216
11
189.379360
21
81.446187
0
LINE
8
Layer 1
10
189.379360
20
81.446187
11
194.600472
21
79.426937
0
LINE
8
Layer 1
10
194.600472
20
79.426937
11
197.055118
21
78.650872
0
LINE
8
Layer 1
10
197.055118
20
78.650872
11
202.220472
21
77.591531
0
LINE
8
Layer 1
10
202.220472
20
77.591531
11
205.183805
21
77.023022
0
LINE
8
Layer 1
10
205.183805
20
77.023022
11
208.288249
21
76.455185
0
LINE
8
Layer 1
10
208.288249
20
76.455185
11
213.297694
21
75.331963
0
LINE
8
Layer 1
10
213.297694
20
75.331963
11
215.908249
21
74.745873
0
LINE
8
Layer 1
10
215.908249
20
74.745873
11
218.327176
21
74.169634
0
LINE
8
Layer 1
10
218.327176
20
74.169634
11
219.812672
21
73.909058
0
LINE
8
Layer 1
10
219.812672
20
73.909058
11
220.921524
21
73.643634
0
LINE
8
Layer 1
10
220.921524
20
73.643634
11
222.819022
21
72.874195
0
LINE
8
Layer 1
10
222.819022
20
72.874195
11
224.335204
21
72.049810
0
LINE
8
Layer 1
10
224.335204
20
72.049810
11
226.087757
21
70.529063
0
LINE
8
Layer 1
10
226.087757
20
70.529063
11
227.944570
21
68.314049
0
LINE
8
Layer 1
10
227.944570
20
68.314049
11
229.259917
21
65.869350
0
LINE
8
Layer 1
10
229.259917
20
65.869350
11
230.042640
21
63.173301
0
LINE
8
Layer 1
10
230.042640
20
63.173301
11
230.301583
21
60.204231
0
LINE
8
Layer 1
10
230.301583
20
60.204231
11
230.156396
21
58.223409
0
LINE
8
Layer 1
10
230.156396
20
58.223409
11
229.887771
21
57.539630
0
LINE
8
Layer 1
10
229.887771
20
57.539630
11
229.411002
21
56.760782
0
LINE
8
Layer 1
10
229.411002
20
56.760782
11
228.297515
21
55.402400
0
LINE
8
Layer 1
10
228.297515
20
55.402400
11
226.871002
21
54.014384
0
LINE
8
Layer 1
10
226.871002
20
54.014384
11
225.938582
21
53.189998
0
LINE
8
Layer 1
10
225.938582
20
53.189998
11
225.446560
21
52.606857
0
LINE
8
Layer 1
10
225.446560
20
52.606857
11
225.254405
21
52.025838
0
LINE
8
Layer 1
10
225.254405
20
52.025838
11
225.221583
21
51.207820
0
LINE
8
Layer 1
10
225.221583
20
51.207820
11
225.221583
21
49.810376
0
LINE
8
Layer 1
10
225.221583
20
49.810376
11
222.089576
21
46.739008
0
LINE
8
Layer 1
10
222.089576
20
46.739008
11
220.107545
21
44.757435
0
LINE
8
Layer 1
10
220.107545
20
44.757435
11
219.206277
21
43.480476
0
LINE
8
Layer 1
10
219.206277
20
43.480476
11
219.078120
21
42.894055
0
LINE
8
Layer 1
10
219.078120
20
42.894055
11
219.120784
21
42.229184
0
LINE
8
Layer 1
10
219.120784
20
42.229184
11
219.586079
21
40.324614
0
LINE
8
Layer 1
10
219.586079
20
40.324614
11
219.930512
21
38.624287
0
LINE
8
Layer 1
10
219.930512
20
38.624287
11
220.068069
21
36.956785
0
LINE
8
Layer 1
10
220.068069
20
36.956785
11
219.996763
21
35.418235
0
LINE
8
Layer 1
10
219.996763
20
35.418235
11
219.714609
21
34.104766
0
LINE
8
Layer 1
10
219.714609
20
34.104766
11
219.202025
21
32.871130
0
LINE
8
Layer 1
10
219.202025
20
32.871130
11
218.585459
21
32.094936
0
LINE
8
Layer 1
10
218.585459
20
32.094936
11
217.761369
21
31.691396
0
LINE
8
Layer 1
10
217.761369
20
31.691396
11
216.626214
21
31.575725
0
LINE
8
Layer 1
10
216.626214
20
31.575725
11
215.809974
21
31.610539
0
LINE
8
Layer 1
10
215.809974
20
31.610539
11
215.206191
21
31.776150
0
LINE
8
Layer 1
10
215.206191
20
31.776150
11
213.845510
21
32.866770
0
LINE
8
Layer 1
10
213.845510
20
32.866770
11
212.776897
21
33.763760
0
LINE
8
Layer 1
10
212.776897
20
33.763760
11
211.635063
21
34.482213
0
LINE
8
Layer 1
10
211.635063
20
34.482213
11
210.438636
21
35.012184
0
LINE
8
Layer 1
10
210.438636
20
35.012184
11
209.206245
21
35.343725
0
LINE
8
Layer 1
10
209.206245
20
35.343725
11
208.700503
21
35.408479
0
LINE
8
Layer 1
10
208.700503
20
35.408479
11
208.373930
21
35.338158
0
LINE
8
Layer 1
10
208.373930
20
35.338158
11
207.902415
21
34.585272
0
LINE
8
Layer 1
10
207.902415
20
34.585272
11
207.316900
21
33.678406
0
LINE
8
Layer 1
10
207.316900
20
33.678406
11
206.347590
21
32.674883
0
LINE
8
Layer 1
10
206.347590
20
32.674883
11
205.162926
21
31.727282
0
LINE
8
Layer 1
10
205.162926
20
31.727282
11
203.931351
21
30.988183
0
LINE
8
Layer 1
10
203.931351
20
30.988183
11
202.526200
21
30.559804
0
LINE
8
Layer 1
10
202.526200
20
30.559804
11
200.848344
21
30.431209
0
LINE
8
Layer 1
10
200.848344
20
30.431209
11
199.136974
21
30.599590
0
LINE
8
Layer 1
10
199.136974
20
30.599590
11
197.631284
21
31.062140
0
LINE
8
Layer 1
10
197.631284
20
31.062140
11
195.671184
21
32.122671
0
LINE
8
Layer 1
10
195.671184
20
32.122671
11
193.702198
21
33.437110
0
LINE
8
Layer 1
10
193.702198
20
33.437110
11
192.100275
21
34.730865
0
LINE
8
Layer 1
10
192.100275
20
34.730865
11
191.241364
21
35.729342
0
LINE
8
Layer 1
10
191.241364
20
35.729342
11
190.941028
21
36.572520
0
LINE
8
Layer 1
10
190.941028
20
36.572520
11
190.806926
21
37.409939
0
LINE
8
Layer 1
10
190.806926
20
37.409939
11
190.847875
21
38.097266
0
LINE
8
Layer 1
10
190.847875
20
38.097266
11
191.072694
21
38.490169
0
LINE
8
Layer 1
10
191.072694
20
38.490169
11
191.358573
21
39.140640
0
LINE
8
Layer 1
10
191.358573
20
39.140640
11
191.344006
21
40.397312
0
LINE
8
Layer 1
10
191.344006
20
40.397312
11
191.052152
21
42.040968
0
LINE
8
Layer 1
10
191.052152
20
42.040968
11
190.506172
21
43.852392
0
LINE
8
Layer 1
10
190.506172
20
43.852392
11
189.679278
21
46.392392
0
LINE
8
Layer 1
10
189.679278
20
46.392392
11
188.710868
21
48.989144
0
LINE
8
Layer 1
10
188.710868
20
48.989144
11
187.417159
21
51.632926
0
LINE
8
Layer 1
10
187.417159
20
51.632926
11
185.783516
21
54.342918
0
LINE
8
Layer 1
10
185.783516
20
54.342918
11
183.795303
21
57.138303
0
LINE
8
Layer 1
10
183.795303
20
57.138303
11
181.437884
21
60.038260
0
LINE
8
Layer 1
10
181.437884
20
60.038260
11
178.696624
21
63.061972
0
LINE
8
Layer 1
10
178.696624
20
63.061972
11
175.556888
21
66.228619
0
LINE
8
Layer 1
10
175.556888
20
66.228619
11
172.004039
21
69.557384
0
LINE
8
Layer 1
10
172.004039
20
69.557384
11
168.806447
21
72.455284
0
LINE
8
Layer 1
10
168.806447
20
72.455284
11
163.727186
21
76.688617
0
LINE
8
Layer 1
10
163.727186
20
76.688617
11
155.895520
21
83.156191
0
LINE
8
Layer 1
10
155.895520
20
83.156191
11
152.408249
21
86.053323
0
LINE
8
Layer 1
10
152.408249
20
86.053323
11
152.408249
21
83.836064
0
LINE
8
Layer 1
10
152.408249
20
83.836064
11
152.720209
21
79.300767
0
LINE
8
Layer 1
10
152.720209
20
79.300767
11
152.927883
21
77.044732
0
LINE
8
Layer 1
10
152.927883
20
77.044732
11
152.786693
21
75.426236
0
LINE
8
Layer 1
10
152.786693
20
75.426236
11
152.227938
21
74.162370
0
LINE
8
Layer 1
10
152.227938
20
74.162370
11
151.182917
21
72.970226
0
LINE
8
Layer 1
10
151.182917
20
72.970226
11
148.457138
21
70.727429
0
LINE
8
Layer 1
10
148.457138
20
70.727429
11
146.376824
21
69.114500
0
LINE
8
Layer 1
10
146.376824
20
69.114500
11
144.918444
21
67.232197
0
LINE
8
Layer 1
10
144.918444
20
67.232197
11
143.736626
21
65.641945
0
LINE
8
Layer 1
10
143.736626
20
65.641945
11
142.108459
21
63.913269
0
LINE
8
Layer 1
10
142.108459
20
63.913269
11
139.873510
21
61.890373
0
LINE
8
Layer 1
10
139.873510
20
61.890373
11
136.871349
21
59.417458
0
LINE
8
Layer 1
10
136.871349
20
59.417458
11
132.374211
21
56.226731
0
LINE
8
Layer 1
10
132.374211
20
56.226731
11
128.489916
21
53.851054
0
LINE
8
Layer 1
10
128.489916
20
53.851054
11
127.572694
21
53.237943
0
LINE
8
Layer 1
10
127.572694
20
53.237943
11
127.423469
21
53.087279
0
LINE
8
Layer 1
10
127.423469
20
53.087279
11
127.064694
21
53.024614
0
LINE
8
Layer 1
10
127.064694
20
53.024614
11
126.288583
21
52.766671
0
LINE
8
Layer 1
10
126.288583
20
52.766671
11
124.227342
21
51.925708
0
LINE
8
Layer 1
10
124.227342
20
51.925708
11
123.155697
21
51.616139
0
LINE
8
Layer 1
10
123.155697
20
51.616139
11
122.157867
21
51.475996
0
LINE
8
Layer 1
10
122.157867
20
51.475996
11
118.865119
21
51.616396
0
LINE
8
Layer 1
10
118.865119
20
51.616396
11
114.000685
21
52.058121
0
LINE
8
Layer 1
10
114.000685
20
52.058121
11
110.201772
21
52.555505
0
LINE
8
Layer 1
10
110.201772
20
52.555505
11
107.468056
21
53.108598
0
LINE
8
Layer 1
10
107.468056
20
53.108598
11
105.799213
21
53.717452
0
LINE
8
Layer 1
10
105.799213
20
53.717452
11
104.394608
21
54.611111
0
LINE
8
Layer 1
10
104.394608
20
54.611111
11
102.934410
21
55.725350
0
LINE
8
Layer 1
10
102.934410
20
55.725350
11
101.555507
21
56.947518
0
LINE
8
Layer 1
10
101.555507
20
56.947518
11
100.394787
21
58.164964
0
LINE
8
Layer 1
10
100.394787
20
58.164964
11
98.722684
21
59.850845
0
LINE
8
Layer 1
10
98.722684
20
59.850845
11
96.514776
21
61.782867
0
LINE
8
Layer 1
10
96.514776
20
61.782867
11
92.769525
21
65.125463
0
LINE
8
Layer 1
10
92.769525
20
65.125463
11
91.280329
21
66.759631
0
LINE
8
Layer 1
10
91.280329
20
66.759631
11
89.812560
21
68.607517
0
LINE
8
Layer 1
10
89.812560
20
68.607517
11
87.791767
21
71.052052
0
LINE
8
Layer 1
10
87.791767
20
71.052052
11
86.578854
21
72.272703
0
LINE
8
Layer 1
10
86.578854
20
72.272703
11
85.246773
21
73.859556
0
LINE
8
Layer 1
10
85.246773
20
73.859556
11
84.045835
21
75.494259
0
LINE
8
Layer 1
10
84.045835
20
75.494259
11
83.226354
21
76.858455
0
LINE
8
Layer 1
10
83.226354
20
76.858455
11
82.604709
21
78.408124
0
LINE
8
Layer 1
10
82.604709
20
78.408124
11
82.583949
21
78.923352
0
LINE
8
Layer 1
10
82.583949
20
78.923352
11
82.717293
21
79.466728
0
LINE
8
Layer 1
10
82.717293
20
79.466728
11
82.970269
21
80.459841
0
LINE
8
Layer 1
10
82.970269
20
80.459841
11
82.891174
21
80.915865
0
LINE
8
Layer 1
10
82.891174
20
80.915865
11
82.473711
21
80.839615
0
LINE
8
Layer 1
10
82.473711
20
80.839615
11
81.711583
21
80.235908
0
LINE
8
Layer 1
10
81.711583
20
80.235908
11
77.298320
21
76.335401
0
LINE
8
Layer 1
10
77.298320
20
76.335401
11
72.821583
21
72.780169
0
LINE
8
Layer 1
10
72.821583
20
72.780169
11
69.740888
21
70.384611
0
LINE
8
Layer 1
10
69.740888
20
70.384611
11
67.040126
21
68.095302
0
LINE
8
Layer 1
10
67.040126
20
68.095302
11
60.909479
21
62.170914
0
LINE
8
Layer 1
10
60.909479
20
62.170914
11
57.827428
21
58.904984
0
LINE
8
Layer 1
10
57.827428
20
58.904984
11
55.451080
21
56.017707
0
LINE
8
Layer 1
10
55.451080
20
56.017707
11
53.533336
21
53.179626
0
LINE
8
Layer 1
10
53.533336
20
53.179626
11
51.827100
21
50.061281
0
LINE
8
Layer 1
10
51.827100
20
50.061281
11
50.269134
21
46.700314
0
LINE
8
Layer 1
10
50.269134
20
46.700314
11
49.280421
21
43.895831
0
LINE
8
Layer 1
10
49.280421
20
43.895831
11
48.768634
21
41.316572
0
LINE
8
Layer 1
10
48.768634
20
41.316572
11
48.641449
21
38.631281
0
LINE
8
Layer 1
10
48.641449
20
38.631281
11
48.541109
21
36.487860
0
LINE
8
Layer 1
10
48.541109
20
36.487860
11
48.086612
21
34.904692
0
LINE
8
Layer 1
10
48.086612
20
34.904692
11
47.138841
21
33.594754
0
LINE
8
Layer 1
10
47.138841
20
33.594754
11
45.558676
21
32.271022
0
LINE
8
Layer 1
10
45.558676
20
32.271022
11
43.440564
21
30.551907
0
LINE
8
Layer 1
10
43.440564
20
30.551907
11
42.954284
21
30.155877
0
LINE
8
Layer 1
10
42.954284
20
30.155877
11
42.241572
21
29.829080
0
LINE
8
Layer 1
10
42.241572
20
29.829080
11
40.345603
21
29.408280
0
LINE
8
Layer 1
10
40.345603
20
29.408280
11
38.170147
21
29.339689
0
LINE
8
Layer 1
10
38.170147
20
29.339689
11
36.132697
21
29.673491
0
LINE
8
Layer 1
10
36.132697
20
29.673491
11
36.132697
21
29.673491
0
LINE
8
Layer 1
10
41.050148
20
33.014370
11
41.028453
21
33.382192
0
LINE
8
Layer 1
10
41.028453
20
33.382192
11
40.556259
21
33.953811
0
LINE
8
Layer 1
10
40.556259
20
33.953811
11
40.023271
21
34.537231
0
LINE
8
Layer 1
10
40.023271
20
34.537231
11
39.801586
21
34.957774
0
LINE
8
Layer 1
10
39.801586
20
34.957774
11
39.947111
21
35.265096
0
LINE
8
Layer 1
10
39.947111
20
35.265096
11
40.310043
21
35.439659
0
LINE
8
Layer 1
10
40.310043
20
35.439659
11
40.779913
21
35.456125
0
LINE
8
Layer 1
10
40.779913
20
35.456125
11
41.246253
21
35.289154
0
LINE
8
Layer 1
10
41.246253
20
35.289154
11
42.108507
21
34.944191
0
LINE
8
Layer 1
10
42.108507
20
34.944191
11
42.984670
21
35.004552
0
LINE
8
Layer 1
10
42.984670
20
35.004552
11
43.918589
21
35.483298
0
LINE
8
Layer 1
10
43.918589
20
35.483298
11
44.954111
21
36.393487
0
LINE
8
Layer 1
10
44.954111
20
36.393487
11
46.022972
21
37.655888
0
LINE
8
Layer 1
10
46.022972
20
37.655888
11
46.191728
21
38.074365
0
LINE
8
Layer 1
10
46.191728
20
38.074365
11
46.169303
21
38.439598
0
LINE
8
Layer 1
10
46.169303
20
38.439598
11
45.820784
21
41.617228
0
LINE
8
Layer 1
10
45.820784
20
41.617228
11
45.789640
21
43.665382
0
LINE
8
Layer 1
10
45.789640
20
43.665382
11
46.060530
21
45.358357
0
LINE
8
Layer 1
10
46.060530
20
45.358357
11
46.717625
21
46.998478
0
LINE
8
Layer 1
10
46.717625
20
46.998478
11
47.845097
21
48.888069
0
LINE
8
Layer 1
10
47.845097
20
48.888069
11
49.114916
21
50.965667
0
LINE
8
Layer 1
10
49.114916
20
50.965667
11
51.291350
21
54.255985
0
LINE
8
Layer 1
10
51.291350
20
54.255985
11
54.998081
21
59.233503
0
LINE
8
Layer 1
10
54.998081
20
59.233503
11
56.888977
21
61.494054
0
LINE
8
Layer 1
10
56.888977
20
61.494054
11
58.933351
21
63.698247
0
LINE
8
Layer 1
10
58.933351
20
63.698247
11
64.213805
21
68.687752
0
LINE
8
Layer 1
10
64.213805
20
68.687752
11
67.438089
21
71.609964
0
LINE
8
Layer 1
10
67.438089
20
71.609964
11
67.575048
21
71.822603
0
LINE
8
Layer 1
10
67.575048
20
71.822603
11
67.036027
21
71.510457
0
LINE
8
Layer 1
10
67.036027
20
71.510457
11
64.375816
21
69.402276
0
LINE
8
Layer 1
10
64.375816
20
69.402276
11
60.501183
21
65.863337
0
LINE
8
Layer 1
10
60.501183
20
65.863337
11
56.474765
21
61.902331
0
LINE
8
Layer 1
10
56.474765
20
61.902331
11
53.359197
21
58.527947
0
LINE
8
Layer 1
10
53.359197
20
58.527947
11
50.336020
21
54.562454
0
LINE
8
Layer 1
10
50.336020
20
54.562454
11
49.178608
21
52.694707
0
LINE
8
Layer 1
10
49.178608
20
52.694707
11
48.165436
21
50.766320
0
LINE
8
Layer 1
10
48.165436
20
50.766320
11
46.638119
21
48.094763
0
LINE
8
Layer 1
10
46.638119
20
48.094763
11
46.065219
21
47.546164
0
LINE
8
Layer 1
10
46.065219
20
47.546164
11
45.587801
21
47.481975
0
LINE
8
Layer 1
10
45.587801
20
47.481975
11
45.307800
21
47.777449
0
LINE
8
Layer 1
10
45.307800
20
47.777449
11
45.178986
21
48.308888
0
LINE
8
Layer 1
10
45.178986
20
48.308888
11
45.211776
21
48.949181
0
LINE
8
Layer 1
10
45.211776
20
48.949181
11
45.416586
21
49.571221
0
LINE
8
Layer 1
10
45.416586
20
49.571221
11
47.094230
21
53.024614
0
LINE
8
Layer 1
10
47.094230
20
53.024614
11
48.130506
21
55.000429
0
LINE
8
Layer 1
10
48.130506
20
55.000429
11
49.354765
21
56.976590
0
LINE
8
Layer 1
10
49.354765
20
56.976590
11
50.819431
21
59.014271
0
LINE
8
Layer 1
10
50.819431
20
59.014271
11
52.576929
21
61.174646
0
LINE
8
Layer 1
10
52.576929
20
61.174646
11
57.180115
21
66.108177
0
LINE
8
Layer 1
10
57.180115
20
66.108177
11
63.583713
21
72.266581
0
LINE
8
Layer 1
10
63.583713
20
72.266581
11
66.443289
21
74.778154
0
LINE
8
Layer 1
10
66.443289
20
74.778154
11
68.349216
21
76.187608
0
LINE
8
Layer 1
10
68.349216
20
76.187608
11
70.780242
21
77.639681
0
LINE
8
Layer 1
10
70.780242
20
77.639681
11
73.666554
21
79.734954
0
LINE
8
Layer 1
10
73.666554
20
79.734954
11
76.910855
21
82.397909
0
LINE
8
Layer 1
10
76.910855
20
82.397909
11
80.415847
21
85.553031
0
LINE
8
Layer 1
10
80.415847
20
85.553031
11
82.224555
21
87.247846
0
LINE
8
Layer 1
10
82.224555
20
87.247846
11
81.842294
21
89.397896
0
LINE
8
Layer 1
10
81.842294
20
89.397896
11
81.355983
21
94.440725
0
LINE
8
Layer 1
10
81.355983
20
94.440725
11
81.090787
21
97.333503
0
LINE
8
Layer 1
10
81.090787
20
97.333503
11
80.311154
21
96.698503
0
LINE
8
Layer 1
10
80.311154
20
96.698503
11
78.303236
21
95.018245
0
LINE
8
Layer 1
10
78.303236
20
95.018245
11
71.341262
21
90.003026
0
LINE
8
Layer 1
10
71.341262
20
90.003026
11
67.001954
21
87.032392
0
LINE
8
Layer 1
10
67.001954
20
87.032392
11
62.423063
21
83.890502
0
LINE
8
Layer 1
10
62.423063
20
83.890502
11
60.277477
21
82.338280
0
LINE
8
Layer 1
10
60.277477
20
82.338280
11
57.874705
21
80.634206
0
LINE
8
Layer 1
10
57.874705
20
80.634206
11
55.998054
21
79.553503
0
LINE
8
Layer 1
10
55.998054
20
79.553503
11
53.877986
21
78.212947
0
LINE
8
Layer 1
10
53.877986
20
78.212947
11
50.713592
21
76.197152
0
LINE
8
Layer 1
10
50.713592
20
76.197152
11
49.364217
21
75.625142
0
LINE
8
Layer 1
10
49.364217
20
75.625142
11
47.984339
21
75.224055
0
LINE
8
Layer 1
10
47.984339
20
75.224055
11
45.163808
21
74.123234
0
LINE
8
Layer 1
10
45.163808
20
74.123234
11
43.893808
21
73.603290
0
LINE
8
Layer 1
10
43.893808
20
73.603290
11
41.387255
21
72.757706
0
LINE
8
Layer 1
10
41.387255
20
72.757706
11
38.813808
21
72.165323
0
LINE
8
Layer 1
10
38.813808
20
72.165323
11
35.709363
21
71.615740
0
LINE
8
Layer 1
10
35.709363
20
71.615740
11
32.704578
21
71.154557
0
LINE
8
Layer 1
10
32.704578
20
71.154557
11
30.286777
21
71.002535
0
LINE
8
Layer 1
10
30.286777
20
71.002535
11
28.675269
21
71.159410
0
LINE
8
Layer 1
10
28.675269
20
71.159410
11
28.240409
21
71.353601
0
LINE
8
Layer 1
10
28.240409
20
71.353601
11
28.089364
21
71.624918
0
LINE
8
Layer 1
10
28.089364
20
71.624918
11
28.443600
21
71.999717
0
LINE
8
Layer 1
10
28.443600
20
71.999717
11
29.332749
21
72.372199
0
LINE
8
Layer 1
10
29.332749
20
72.372199
11
30.496469
21
72.658782
0
LINE
8
Layer 1
10
30.496469
20
72.658782
11
31.674418
21
72.775885
0
LINE
8
Layer 1
10
31.674418
20
72.775885
11
33.367751
21
73.030611
0
LINE
8
Layer 1
10
33.367751
20
73.030611
11
35.568252
21
73.626063
0
LINE
8
Layer 1
10
35.568252
20
73.626063
11
38.420085
21
74.388031
0
LINE
8
Layer 1
10
38.420085
20
74.388031
11
39.801586
21
74.959515
0
LINE
8
Layer 1
10
39.801586
20
74.959515
11
39.311021
21
74.910089
0
LINE
8
Layer 1
10
39.311021
20
74.910089
11
35.571577
21
74.452302
0
LINE
8
Layer 1
10
35.571577
20
74.452302
11
31.165521
21
73.992811
0
LINE
8
Layer 1
10
31.165521
20
73.992811
11
30.169002
21
73.761819
0
LINE
8
Layer 1
10
30.169002
20
73.761819
11
29.641586
21
73.474732
0
LINE
8
Layer 1
10
29.641586
20
73.474732
11
28.803738
21
73.163876
0
LINE
8
Layer 1
10
28.803738
20
73.163876
11
27.383808
21
72.935646
0
LINE
8
Layer 1
10
27.383808
20
72.935646
11
23.220051
21
72.469545
0
LINE
8
Layer 1
10
23.220051
20
72.469545
11
20.363726
21
71.943815
0
LINE
8
Layer 1
10
20.363726
20
71.943815
11
18.654404
21
71.317991
0
LINE
8
Layer 1
10
18.654404
20
71.317991
11
18.179736
21
70.954899
0
LINE
8
Layer 1
10
18.179736
20
70.954899
11
17.931657
21
70.551610
0
LINE
8
Layer 1
10
17.931657
20
70.551610
11
15.597425
21
67.797406
0
LINE
8
Layer 1
10
15.597425
20
67.797406
11
13.703418
21
65.554823
0
LINE
8
Layer 1
10
13.703418
20
65.554823
11
12.352291
21
63.422962
0
LINE
8
Layer 1
10
12.352291
20
63.422962
11
11.293958
21
61.092656
0
LINE
8
Layer 1
10
11.293958
20
61.092656
11
12.054070
21
59.659242
0
LINE
8
Layer 1
10
12.054070
20
59.659242
11
13.329015
21
57.681281
0
LINE
8
Layer 1
10
13.329015
20
57.681281
11
14.936955
21
55.847296
0
LINE
8
Layer 1
10
14.936955
20
55.847296
11
16.566536
21
54.724884
0
LINE
8
Layer 1
10
16.566536
20
54.724884
11
17.857527
21
54.256433
0
LINE
8
Layer 1
10
17.857527
20
54.256433
11
18.349950
21
54.338337
0
LINE
8
Layer 1
10
18.349950
20
54.338337
11
19.032665
21
54.618368
0
LINE
8
Layer 1
10
19.032665
20
54.618368
11
20.286823
21
55.415710
0
LINE
8
Layer 1
10
20.286823
20
55.415710
11
21.680963
21
56.616507
0
LINE
8
Layer 1
10
21.680963
20
56.616507
11
22.779721
21
57.590500
0
LINE
8
Layer 1
10
22.779721
20
57.590500
11
23.595949
21
58.053565
0
LINE
8
Layer 1
10
23.595949
20
58.053565
11
24.104283
21
57.997904
0
LINE
8
Layer 1
10
24.104283
20
57.997904
11
24.279364
21
57.415715
0
LINE
8
Layer 1
10
24.279364
20
57.415715
11
24.196236
21
56.877804
0
LINE
8
Layer 1
10
24.196236
20
56.877804
11
23.996377
21
56.551920
0
LINE
8
Layer 1
10
23.996377
20
56.551920
11
23.863090
21
56.275067
0
LINE
8
Layer 1
10
23.863090
20
56.275067
11
24.022996
21
55.798525
0
LINE
8
Layer 1
10
24.022996
20
55.798525
11
24.137494
21
55.450129
0
LINE
8
Layer 1
10
24.137494
20
55.450129
11
24.032273
21
55.088131
0
LINE
8
Layer 1
10
24.032273
20
55.088131
11
22.902726
21
53.877591
0
LINE
8
Layer 1
10
22.902726
20
53.877591
11
21.621137
21
52.827214
0
LINE
8
Layer 1
10
21.621137
20
52.827214
11
20.547775
21
52.186959
0
LINE
8
Layer 1
10
20.547775
20
52.186959
11
19.058251
21
51.605657
0
LINE
8
Layer 1
10
19.058251
20
51.605657
11
18.091061
21
51.264704
0
LINE
8
Layer 1
10
18.091061
20
51.264704
11
17.991338
21
51.175792
0
LINE
8
Layer 1
10
17.991338
20
51.175792
11
18.068311
21
51.016118
0
LINE
8
Layer 1
10
18.068311
20
51.016118
11
18.726061
21
50.515495
0
LINE
8
Layer 1
10
18.726061
20
50.515495
11
19.458969
21
49.950587
0
LINE
8
Layer 1
10
19.458969
20
49.950587
11
19.763806
21
49.493035
0
LINE
8
Layer 1
10
19.763806
20
49.493035
11
20.033240
21
49.032851
0
LINE
8
Layer 1
10
20.033240
20
49.032851
11
20.681029
21
48.461611
0
LINE
8
Layer 1
10
20.681029
20
48.461611
11
22.208428
21
47.071559
0
LINE
8
Layer 1
10
22.208428
20
47.071559
11
23.391778
21
45.427245
0
LINE
8
Layer 1
10
23.391778
20
45.427245
11
23.651720
21
44.600209
0
LINE
8
Layer 1
10
23.651720
20
44.600209
11
23.754092
21
43.512546
0
LINE
8
Layer 1
10
23.754092
20
43.512546
11
23.694760
21
42.377779
0
LINE
8
Layer 1
10
23.694760
20
42.377779
11
23.469589
21
41.409431
0
LINE
8
Layer 1
10
23.469589
20
41.409431
11
23.198410
21
40.042365
0
LINE
8
Layer 1
10
23.198410
20
40.042365
11
22.995565
21
37.931524
0
LINE
8
Layer 1
10
22.995565
20
37.931524
11
22.908716
21
35.778439
0
LINE
8
Layer 1
10
22.908716
20
35.778439
11
22.985525
21
34.284643
0
LINE
8
Layer 1
10
22.985525
20
34.284643
11
23.301898
21
33.482284
0
LINE
8
Layer 1
10
23.301898
20
33.482284
11
23.798345
21
33.229779
0
LINE
8
Layer 1
10
23.798345
20
33.229779
11
24.402677
21
33.524368
0
LINE
8
Layer 1
10
24.402677
20
33.524368
11
25.042704
21
34.363293
0
LINE
8
Layer 1
10
25.042704
20
34.363293
11
25.830103
21
35.592112
0
LINE
8
Layer 1
10
25.830103
20
35.592112
11
26.678393
21
36.584849
0
LINE
8
Layer 1
10
26.678393
20
36.584849
11
27.670889
21
37.424436
0
LINE
8
Layer 1
10
27.670889
20
37.424436
11
28.890908
21
38.193802
0
LINE
8
Layer 1
10
28.890908
20
38.193802
11
30.257408
21
39.071235
0
LINE
8
Layer 1
10
30.257408
20
39.071235
11
31.466051
21
40.074926
0
LINE
8
Layer 1
10
31.466051
20
40.074926
11
32.474235
21
41.164647
0
LINE
8
Layer 1
10
32.474235
20
41.164647
11
33.239360
21
42.300169
0
LINE
8
Layer 1
10
33.239360
20
42.300169
11
33.835359
21
43.081920
0
LINE
8
Layer 1
10
33.835359
20
43.081920
11
34.579554
21
43.287947
0
LINE
8
Layer 1
10
34.579554
20
43.287947
11
35.288359
21
43.100698
0
LINE
8
Layer 1
10
35.288359
20
43.100698
11
35.707566
21
42.300169
0
LINE
8
Layer 1
10
35.707566
20
42.300169
11
36.144603
21
41.484293
0
LINE
8
Layer 1
10
36.144603
20
41.484293
11
36.925340
21
41.224465
0
LINE
8
Layer 1
10
36.925340
20
41.224465
11
37.639612
21
40.971891
0
LINE
8
Layer 1
10
37.639612
20
40.971891
11
38.277055
21
40.457036
0
LINE
8
Layer 1
10
38.277055
20
40.457036
11
38.694230
21
39.834587
0
LINE
8
Layer 1
10
38.694230
20
39.834587
11
38.747697
21
39.259228
0
LINE
8
Layer 1
10
38.747697
20
39.259228
11
38.147644
21
38.660585
0
LINE
8
Layer 1
10
38.147644
20
38.660585
11
36.882939
21
37.726583
0
LINE
8
Layer 1
10
36.882939
20
37.726583
11
35.050846
21
36.322522
0
LINE
8
Layer 1
10
35.050846
20
36.322522
11
34.591512
21
36.091281
0
LINE
8
Layer 1
10
34.591512
20
36.091281
11
34.213406
21
35.974132
0
LINE
8
Layer 1
10
34.213406
20
35.974132
11
33.901055
21
35.681607
0
LINE
8
Layer 1
10
33.901055
20
35.681607
11
33.719421
21
35.302084
0
LINE
8
Layer 1
10
33.719421
20
35.302084
11
33.733466
21
34.923942
0
LINE
8
Layer 1
10
33.733466
20
34.923942
11
34.093486
21
34.534631
0
LINE
8
Layer 1
10
34.093486
20
34.534631
11
34.747716
21
34.149397
0
LINE
8
Layer 1
10
34.747716
20
34.149397
11
35.407520
21
33.744054
0
LINE
8
Layer 1
10
35.407520
20
33.744054
11
35.780938
21
33.306396
0
LINE
8
Layer 1
10
35.780938
20
33.306396
11
36.253222
21
32.635292
0
LINE
8
Layer 1
10
36.253222
20
32.635292
11
37.114380
21
32.537197
0
LINE
8
Layer 1
10
37.114380
20
32.537197
11
38.663156
21
32.604206
0
LINE
8
Layer 1
10
38.663156
20
32.604206
11
40.206197
21
32.781528
0
LINE
8
Layer 1
10
40.206197
20
32.781528
11
41.050148
21
33.014370
0
LINE
8
Layer 1
10
41.050148
20
33.014370
11
41.050148
21
33.014370
0
LINE
8
Layer 1
10
203.716153
20
33.667195
11
205.294202
21
34.923671
0
LINE
8
Layer 1
10
205.294202
20
34.923671
11
205.931048
21
35.781768
0
LINE
8
Layer 1
10
205.931048
20
35.781768
11
205.927958
21
36.148010
0
LINE
8
Layer 1
10
205.927958
20
36.148010
11
205.755263
21
36.638794
0
LINE
8
Layer 1
10
205.755263
20
36.638794
11
205.167894
21
37.438394
0
LINE
8
Layer 1
10
205.167894
20
37.438394
11
204.133865
21
38.128107
0
LINE
8
Layer 1
10
204.133865
20
38.128107
11
203.180731
21
38.716071
0
LINE
8
Layer 1
10
203.180731
20
38.716071
11
202.339633
21
39.428525
0
LINE
8
Layer 1
10
202.339633
20
39.428525
11
201.744302
21
40.133505
0
LINE
8
Layer 1
10
201.744302
20
40.133505
11
201.528471
21
40.699047
0
LINE
8
Layer 1
10
201.528471
20
40.699047
11
202.022360
21
42.017947
0
LINE
8
Layer 1
10
202.022360
20
42.017947
11
202.652740
21
42.817850
0
LINE
8
Layer 1
10
202.652740
20
42.817850
11
203.617320
21
43.559593
0
LINE
8
Layer 1
10
203.617320
20
43.559593
11
204.655939
21
44.079342
0
LINE
8
Layer 1
10
204.655939
20
44.079342
11
205.508434
21
44.213264
0
LINE
8
Layer 1
10
205.508434
20
44.213264
11
207.305700
21
42.748370
0
LINE
8
Layer 1
10
207.305700
20
42.748370
11
210.972770
21
39.336836
0
LINE
8
Layer 1
10
210.972770
20
39.336836
11
214.631892
21
35.918947
0
LINE
8
Layer 1
10
214.631892
20
35.918947
11
216.410057
21
34.438773
0
LINE
8
Layer 1
10
216.410057
20
34.438773
11
216.962068
21
34.561232
0
LINE
8
Layer 1
10
216.962068
20
34.561232
11
217.428944
21
35.121386
0
LINE
8
Layer 1
10
217.428944
20
35.121386
11
217.753244
21
36.013781
0
LINE
8
Layer 1
10
217.753244
20
36.013781
11
217.877528
21
37.132957
0
LINE
8
Layer 1
10
217.877528
20
37.132957
11
217.799058
21
38.218858
0
LINE
8
Layer 1
10
217.799058
20
38.218858
11
217.601583
21
38.772392
0
LINE
8
Layer 1
10
217.601583
20
38.772392
11
217.402263
21
39.099067
0
LINE
8
Layer 1
10
217.402263
20
39.099067
11
217.319360
21
39.639545
0
LINE
8
Layer 1
10
217.319360
20
39.639545
11
217.059691
21
40.822332
0
LINE
8
Layer 1
10
217.059691
20
40.822332
11
216.198608
21
42.939291
0
LINE
8
Layer 1
10
216.198608
20
42.939291
11
215.463038
21
45.198425
0
LINE
8
Layer 1
10
215.463038
20
45.198425
11
215.405098
21
46.215104
0
LINE
8
Layer 1
10
215.405098
20
46.215104
11
215.781952
21
47.091578
0
LINE
8
Layer 1
10
215.781952
20
47.091578
11
216.640574
21
47.891590
0
LINE
8
Layer 1
10
216.640574
20
47.891590
11
218.027939
21
48.678883
0
LINE
8
Layer 1
10
218.027939
20
48.678883
11
219.667511
21
49.578083
0
LINE
8
Layer 1
10
219.667511
20
49.578083
11
221.063905
21
50.544326
0
LINE
8
Layer 1
10
221.063905
20
50.544326
11
222.035172
21
51.434916
0
LINE
8
Layer 1
10
222.035172
20
51.434916
11
222.399360
21
52.107160
0
LINE
8
Layer 1
10
222.399360
20
52.107160
11
222.266734
21
52.566486
0
LINE
8
Layer 1
10
222.266734
20
52.566486
11
221.940445
21
53.050580
0
LINE
8
Layer 1
10
221.940445
20
53.050580
11
221.527878
21
53.433438
0
LINE
8
Layer 1
10
221.527878
20
53.433438
11
221.136419
21
53.589058
0
LINE
8
Layer 1
10
221.136419
20
53.589058
11
220.501433
21
53.903940
0
LINE
8
Layer 1
10
220.501433
20
53.903940
11
219.601259
21
54.631221
0
LINE
8
Layer 1
10
219.601259
20
54.631221
11
218.796623
21
55.444856
0
LINE
8
Layer 1
10
218.796623
20
55.444856
11
218.448249
21
56.018797
0
LINE
8
Layer 1
10
218.448249
20
56.018797
11
218.669195
21
56.484153
0
LINE
8
Layer 1
10
218.669195
20
56.484153
11
219.325219
21
56.558677
0
LINE
8
Layer 1
10
219.325219
20
56.558677
11
220.406107
21
56.243784
0
LINE
8
Layer 1
10
220.406107
20
56.243784
11
221.901642
21
55.540887
0
LINE
8
Layer 1
10
221.901642
20
55.540887
11
222.862781
21
55.282392
0
LINE
8
Layer 1
10
222.862781
20
55.282392
11
223.376352
21
55.428393
0
LINE
8
Layer 1
10
223.376352
20
55.428393
11
224.047276
21
55.822215
0
LINE
8
Layer 1
10
224.047276
20
55.822215
11
225.582763
21
57.088223
0
LINE
8
Layer 1
10
225.582763
20
57.088223
11
226.912405
21
58.550227
0
LINE
8
Layer 1
10
226.912405
20
58.550227
11
227.326021
21
59.189043
0
LINE
8
Layer 1
10
227.326021
20
59.189043
11
227.479360
21
59.678037
0
LINE
8
Layer 1
10
227.479360
20
59.678037
11
227.654691
21
60.330500
0
LINE
8
Layer 1
10
227.654691
20
60.330500
11
228.076232
21
61.045070
0
LINE
8
Layer 1
10
228.076232
20
61.045070
11
228.393244
21
61.494627
0
LINE
8
Layer 1
10
228.393244
20
61.494627
11
228.525974
21
61.890312
0
LINE
8
Layer 1
10
228.525974
20
61.890312
11
228.305645
21
63.129242
0
LINE
8
Layer 1
10
228.305645
20
63.129242
11
227.352354
21
65.579551
0
LINE
8
Layer 1
10
227.352354
20
65.579551
11
225.974990
21
67.806270
0
LINE
8
Layer 1
10
225.974990
20
67.806270
11
224.320523
21
69.613837
0
LINE
8
Layer 1
10
224.320523
20
69.613837
11
223.435304
21
70.299324
0
LINE
8
Layer 1
10
223.435304
20
70.299324
11
222.535922
21
70.806685
0
LINE
8
Layer 1
10
222.535922
20
70.806685
11
220.577703
21
71.648496
0
LINE
8
Layer 1
10
220.577703
20
71.648496
11
218.782790
21
72.253132
0
LINE
8
Layer 1
10
218.782790
20
72.253132
11
213.509360
21
73.367505
0
LINE
8
Layer 1
10
213.509360
20
73.367505
11
210.546027
21
73.924160
0
LINE
8
Layer 1
10
210.546027
20
73.924160
11
204.760472
21
75.015056
0
LINE
8
Layer 1
10
204.760472
20
75.015056
11
201.797138
21
75.579029
0
LINE
8
Layer 1
10
201.797138
20
75.579029
11
199.398249
21
76.015700
0
LINE
8
Layer 1
10
199.398249
20
76.015700
11
195.023805
21
77.013503
0
LINE
8
Layer 1
10
195.023805
20
77.013503
11
192.624916
21
77.633401
0
LINE
8
Layer 1
10
192.624916
20
77.633401
11
190.931583
21
78.146077
0
LINE
8
Layer 1
10
190.931583
20
78.146077
11
189.379360
21
78.711761
0
LINE
8
Layer 1
10
189.379360
20
78.711761
11
187.195214
21
79.586909
0
LINE
8
Layer 1
10
187.195214
20
79.586909
11
185.713548
21
80.117947
0
LINE
8
Layer 1
10
185.713548
20
80.117947
11
185.512055
21
80.200850
0
LINE
8
Layer 1
10
185.512055
20
80.200850
11
185.428249
21
80.400169
0
LINE
8
Layer 1
10
185.428249
20
80.400169
11
185.338432
21
80.599489
0
LINE
8
Layer 1
10
185.338432
20
80.599489
11
185.122487
21
80.682392
0
LINE
8
Layer 1
10
185.122487
20
80.682392
11
181.947487
21
82.605584
0
LINE
8
Layer 1
10
181.947487
20
82.605584
11
173.857138
21
88.011316
0
LINE
8
Layer 1
10
173.857138
20
88.011316
11
167.518910
21
92.391050
0
LINE
8
Layer 1
10
167.518910
20
92.391050
11
163.979360
21
95.085905
0
LINE
8
Layer 1
10
163.979360
20
95.085905
11
158.669541
21
99.285953
0
LINE
8
Layer 1
10
158.669541
20
99.285953
11
157.774667
21
99.784867
0
LINE
8
Layer 1
10
157.774667
20
99.784867
11
157.487814
21
99.693342
0
LINE
8
Layer 1
10
157.487814
20
99.693342
11
157.117319
21
99.386895
0
LINE
8
Layer 1
10
157.117319
20
99.386895
11
155.298642
21
98.297158
0
LINE
8
Layer 1
10
155.298642
20
98.297158
11
153.578557
21
97.615725
0
LINE
8
Layer 1
10
153.578557
20
97.615725
11
153.213779
21
97.224294
0
LINE
8
Layer 1
10
153.213779
20
97.224294
11
152.831698
21
96.259571
0
LINE
8
Layer 1
10
152.831698
20
96.259571
11
152.530471
21
95.035906
0
LINE
8
Layer 1
10
152.530471
20
95.035906
11
152.408249
21
93.867653
0
LINE
8
Layer 1
10
152.408249
20
93.867653
11
152.459774
21
93.053148
0
LINE
8
Layer 1
10
152.459774
20
93.053148
11
152.798472
21
92.323432
0
LINE
8
Layer 1
10
152.798472
20
92.323432
11
155.442138
21
89.543955
0
LINE
8
Layer 1
10
155.442138
20
89.543955
11
159.887138
21
85.485828
0
LINE
8
Layer 1
10
159.887138
20
85.485828
11
163.273805
21
82.660942
0
LINE
8
Layer 1
10
163.273805
20
82.660942
11
167.127792
21
79.480501
0
LINE
8
Layer 1
10
167.127792
20
79.480501
11
172.163805
21
76.015040
0
LINE
8
Layer 1
10
172.163805
20
76.015040
11
175.434937
21
73.696588
0
LINE
8
Layer 1
10
175.434937
20
73.696588
11
177.949360
21
71.632290
0
LINE
8
Layer 1
10
177.949360
20
71.632290
11
181.315817
21
68.512907
0
LINE
8
Layer 1
10
181.315817
20
68.512907
11
185.714521
21
64.501303
0
LINE
8
Layer 1
10
185.714521
20
64.501303
11
188.391583
21
61.841208
0
LINE
8
Layer 1
10
188.391583
20
61.841208
11
190.848888
21
58.796618
0
LINE
8
Layer 1
10
190.848888
20
58.796618
11
192.716750
21
55.822368
0
LINE
8
Layer 1
10
192.716750
20
55.822368
11
193.960560
21
52.983112
0
LINE
8
Layer 1
10
193.960560
20
52.983112
11
194.337633
21
51.634311
0
LINE
8
Layer 1
10
194.337633
20
51.634311
11
194.545715
21
50.343503
0
LINE
8
Layer 1
10
194.545715
20
50.343503
11
194.426947
21
49.888181
0
LINE
8
Layer 1
10
194.426947
20
49.888181
11
193.889650
21
49.696057
0
LINE
8
Layer 1
10
193.889650
20
49.696057
11
193.500885
21
49.695228
0
LINE
8
Layer 1
10
193.500885
20
49.695228
11
193.232703
21
49.854742
0
LINE
8
Layer 1
10
193.232703
20
49.854742
11
192.788117
21
50.966057
0
LINE
8
Layer 1
10
192.788117
20
50.966057
11
191.876161
21
53.068180
0
LINE
8
Layer 1
10
191.876161
20
53.068180
11
191.352176
21
54.055958
0
LINE
8
Layer 1
10
191.352176
20
54.055958
11
190.883197
21
54.865630
0
LINE
8
Layer 1
10
190.883197
20
54.865630
11
189.358385
21
56.646233
0
LINE
8
Layer 1
10
189.358385
20
56.646233
11
182.379691
21
63.960956
0
LINE
8
Layer 1
10
182.379691
20
63.960956
11
175.277053
21
71.010083
0
LINE
8
Layer 1
10
175.277053
20
71.010083
11
173.208908
21
72.762267
0
LINE
8
Layer 1
10
173.208908
20
72.762267
11
171.551154
21
73.861699
0
LINE
8
Layer 1
10
171.551154
20
73.861699
11
169.544664
21
74.998318
0
LINE
8
Layer 1
10
169.544664
20
74.998318
11
168.314697
21
75.602392
0
LINE
8
Layer 1
10
168.314697
20
75.602392
11
168.635260
21
75.187979
0
LINE
8
Layer 1
10
168.635260
20
75.187979
11
169.890976
21
74.056203
0
LINE
8
Layer 1
10
169.890976
20
74.056203
11
174.434627
21
70.309331
0
LINE
8
Layer 1
10
174.434627
20
70.309331
11
177.524873
21
67.680836
0
LINE
8
Layer 1
10
177.524873
20
67.680836
11
179.984829
21
65.329782
0
LINE
8
Layer 1
10
179.984829
20
65.329782
11
182.664968
21
62.196041
0
LINE
8
Layer 1
10
182.664968
20
62.196041
11
187.589789
21
55.564614
0
LINE
8
Layer 1
10
187.589789
20
55.564614
11
191.361729
21
50.625725
0
LINE
8
Layer 1
10
191.361729
20
50.625725
11
193.124544
21
48.176904
0
LINE
8
Layer 1
10
193.124544
20
48.176904
11
194.206555
21
45.957413
0
LINE
8
Layer 1
10
194.206555
20
45.957413
11
194.655131
21
43.832806
0
LINE
8
Layer 1
10
194.655131
20
43.832806
11
194.517642
21
41.668638
0
LINE
8
Layer 1
10
194.517642
20
41.668638
11
194.016430
21
38.604941
0
LINE
8
Layer 1
10
194.016430
20
38.604941
11
193.936903
21
37.857854
0
LINE
8
Layer 1
10
193.936903
20
37.857854
11
194.000467
21
37.417239
0
LINE
8
Layer 1
10
194.000467
20
37.417239
11
194.280505
21
37.127009
0
LINE
8
Layer 1
10
194.280505
20
37.127009
11
194.850399
21
36.831075
0
LINE
8
Layer 1
10
194.850399
20
36.831075
11
196.104667
21
36.443065
0
LINE
8
Layer 1
10
196.104667
20
36.443065
11
197.707126
21
36.180756
0
LINE
8
Layer 1
10
197.707126
20
36.180756
11
199.058115
21
35.987312
0
LINE
8
Layer 1
10
199.058115
20
35.987312
11
199.707779
21
35.764874
0
LINE
8
Layer 1
10
199.707779
20
35.764874
11
199.781905
21
35.371589
0
LINE
8
Layer 1
10
199.781905
20
35.371589
11
199.653188
21
34.921675
0
LINE
8
Layer 1
10
199.653188
20
34.921675
11
199.387315
21
34.551629
0
LINE
8
Layer 1
10
199.387315
20
34.551629
11
199.049973
21
34.397947
0
LINE
8
Layer 1
10
199.049973
20
34.397947
11
198.768967
21
34.338904
0
LINE
8
Layer 1
10
198.768967
20
34.338904
11
198.838588
21
34.179449
0
LINE
8
Layer 1
10
198.838588
20
34.179449
11
199.905823
21
33.665343
0
LINE
8
Layer 1
10
199.905823
20
33.665343
11
200.914714
21
33.403839
0
LINE
8
Layer 1
10
200.914714
20
33.403839
11
201.955472
21
33.317013
0
LINE
8
Layer 1
10
201.955472
20
33.317013
11
202.923988
21
33.404815
0
LINE
8
Layer 1
10
202.923988
20
33.404815
11
203.716153
21
33.667195
0
LINE
8
Layer 1
10
203.716153
20
33.667195
11
203.716153
21
33.667195
0
LINE
8
Layer 1
10
122.803358
20
54.472761
11
123.812500
21
54.998439
0
LINE
8
Layer 1
10
123.812500
20
54.998439
11
124.891583
21
55.813983
0
LINE
8
Layer 1
10
124.891583
20
55.813983
11
126.574241
21
57.126675
0
LINE
8
Layer 1
10
126.574241
20
57.126675
11
127.224509
21
57.440726
0
LINE
8
Layer 1
10
127.224509
20
57.440726
11
127.780531
21
57.546446
0
LINE
8
Layer 1
10
127.780531
20
57.546446
11
128.339301
21
57.712996
0
LINE
8
Layer 1
10
128.339301
20
57.712996
11
128.983805
21
58.104614
0
LINE
8
Layer 1
10
128.983805
20
58.104614
11
129.886879
21
58.662782
0
LINE
8
Layer 1
10
129.886879
20
58.662782
11
131.338918
21
59.515725
0
LINE
8
Layer 1
10
131.338918
20
59.515725
11
132.368922
21
60.113683
0
LINE
8
Layer 1
10
132.368922
20
60.113683
11
133.083644
21
60.362392
0
LINE
8
Layer 1
10
133.083644
20
60.362392
11
133.685704
21
60.532945
0
LINE
8
Layer 1
10
133.685704
20
60.532945
11
134.482324
21
60.931442
0
LINE
8
Layer 1
10
134.482324
20
60.931442
11
135.177421
21
61.388141
0
LINE
8
Layer 1
10
135.177421
20
61.388141
11
135.474916
21
61.733300
0
LINE
8
Layer 1
10
135.474916
20
61.733300
11
137.324626
21
63.326487
0
LINE
8
Layer 1
10
137.324626
20
63.326487
11
138.730884
21
64.521695
0
LINE
8
Layer 1
10
138.730884
20
64.521695
11
139.514419
21
65.433248
0
LINE
8
Layer 1
10
139.514419
20
65.433248
11
139.982803
21
66.043747
0
LINE
8
Layer 1
10
139.982803
20
66.043747
11
140.631353
21
66.515141
0
LINE
8
Layer 1
10
140.631353
20
66.515141
11
141.306582
21
67.042546
0
LINE
8
Layer 1
10
141.306582
20
67.042546
11
141.839109
21
67.787712
0
LINE
8
Layer 1
10
141.839109
20
67.787712
11
142.810021
21
69.675725
0
LINE
8
Layer 1
10
142.810021
20
69.675725
11
143.206120
21
70.562932
0
LINE
8
Layer 1
10
143.206120
20
70.562932
11
143.338604
21
71.287634
0
LINE
8
Layer 1
10
143.338604
20
71.287634
11
143.207465
21
71.841382
0
LINE
8
Layer 1
10
143.207465
20
71.841382
11
142.812694
21
72.215725
0
LINE
8
Layer 1
10
142.812694
20
72.215725
11
142.517154
21
72.449426
0
LINE
8
Layer 1
10
142.517154
20
72.449426
11
142.346165
21
72.853040
0
LINE
8
Layer 1
10
142.346165
20
72.853040
11
142.248249
21
74.752375
0
LINE
8
Layer 1
10
142.248249
20
74.752375
11
142.322519
21
76.520972
0
LINE
8
Layer 1
10
142.322519
20
76.520972
11
142.501081
21
77.635224
0
LINE
8
Layer 1
10
142.501081
20
77.635224
11
143.097693
21
79.553503
0
LINE
8
Layer 1
10
143.097693
20
79.553503
11
143.672298
21
81.387947
0
LINE
8
Layer 1
10
143.672298
20
81.387947
11
144.046098
21
82.799058
0
LINE
8
Layer 1
10
144.046098
20
82.799058
11
144.498421
21
84.915725
0
LINE
8
Layer 1
10
144.498421
20
84.915725
11
145.060630
21
87.879058
0
LINE
8
Layer 1
10
145.060630
20
87.879058
11
145.632994
21
90.842392
0
LINE
8
Layer 1
10
145.632994
20
90.842392
11
146.199623
21
93.382392
0
LINE
8
Layer 1
10
146.199623
20
93.382392
11
146.640646
21
95.499058
0
LINE
8
Layer 1
10
146.640646
20
95.499058
11
146.718933
21
96.134907
0
LINE
8
Layer 1
10
146.718933
20
96.134907
11
146.500233
21
95.958802
0
LINE
8
Layer 1
10
146.500233
20
95.958802
11
145.394412
21
93.523503
0
LINE
8
Layer 1
10
145.394412
20
93.523503
11
144.505293
21
90.842392
0
LINE
8
Layer 1
10
144.505293
20
90.842392
11
143.953507
21
89.290169
0
LINE
8
Layer 1
10
143.953507
20
89.290169
11
142.916055
21
86.793107
0
LINE
8
Layer 1
10
142.916055
20
86.793107
11
142.508102
21
85.868253
0
LINE
8
Layer 1
10
142.508102
20
85.868253
11
142.087768
21
85.349842
0
LINE
8
Layer 1
10
142.087768
20
85.349842
11
141.668142
21
85.247547
0
LINE
8
Layer 1
10
141.668142
20
85.247547
11
141.262312
21
85.571039
0
LINE
8
Layer 1
10
141.262312
20
85.571039
11
140.948693
21
85.871948
0
LINE
8
Layer 1
10
140.948693
20
85.871948
11
140.728091
21
85.784182
0
LINE
8
Layer 1
10
140.728091
20
85.784182
11
140.554916
21
84.424766
0
LINE
8
Layer 1
10
140.554916
20
84.424766
11
140.513699
21
83.712708
0
LINE
8
Layer 1
10
140.513699
20
83.712708
11
140.321532
21
83.158430
0
LINE
8
Layer 1
10
140.321532
20
83.158430
11
139.073249
21
81.793015
0
LINE
8
Layer 1
10
139.073249
20
81.793015
11
137.393474
21
80.402492
0
LINE
8
Layer 1
10
137.393474
20
80.402492
11
136.321583
21
79.130169
0
LINE
8
Layer 1
10
136.321583
20
79.130169
11
135.617550
21
78.233232
0
LINE
8
Layer 1
10
135.617550
20
78.233232
11
135.151887
21
77.860169
0
LINE
8
Layer 1
10
135.151887
20
77.860169
11
133.573489
21
76.731281
0
LINE
8
Layer 1
10
133.573489
20
76.731281
11
132.534056
21
75.934003
0
LINE
8
Layer 1
10
132.534056
20
75.934003
11
131.835931
21
75.602392
0
LINE
8
Layer 1
10
131.835931
20
75.602392
11
131.279797
21
75.353683
0
LINE
8
Layer 1
10
131.279797
20
75.353683
11
130.581744
21
74.755725
0
LINE
8
Layer 1
10
130.581744
20
74.755725
11
129.909575
21
74.157767
0
LINE
8
Layer 1
10
129.909575
20
74.157767
11
129.415673
21
73.909058
0
LINE
8
Layer 1
10
129.415673
20
73.909058
11
129.018567
21
73.698525
0
LINE
8
Layer 1
10
129.018567
20
73.698525
11
128.579115
21
73.192349
0
LINE
8
Layer 1
10
128.579115
20
73.192349
11
127.961330
21
72.549728
0
LINE
8
Layer 1
10
127.961330
20
72.549728
11
127.135461
21
72.011148
0
LINE
8
Layer 1
10
127.135461
20
72.011148
11
126.140936
21
71.697968
0
LINE
8
Layer 1
10
126.140936
20
71.697968
11
125.043794
21
72.143205
0
LINE
8
Layer 1
10
125.043794
20
72.143205
11
123.926606
21
72.594954
0
LINE
8
Layer 1
10
123.926606
20
72.594954
11
123.471402
21
72.501170
0
LINE
8
Layer 1
10
123.471402
20
72.501170
11
122.811921
21
72.201405
0
LINE
8
Layer 1
10
122.811921
20
72.201405
11
121.545084
21
71.826996
0
LINE
8
Layer 1
10
121.545084
20
71.826996
11
119.839982
21
71.640094
0
LINE
8
Layer 1
10
119.839982
20
71.640094
11
117.959065
21
71.653403
0
LINE
8
Layer 1
10
117.959065
20
71.653403
11
116.164786
21
71.879629
0
LINE
8
Layer 1
10
116.164786
20
71.879629
11
114.887925
21
72.016196
0
LINE
8
Layer 1
10
114.887925
20
72.016196
11
114.031209
21
71.610488
0
LINE
8
Layer 1
10
114.031209
20
71.610488
11
113.280267
21
71.223681
0
LINE
8
Layer 1
10
113.280267
20
71.223681
11
112.509080
21
71.355647
0
LINE
8
Layer 1
10
112.509080
20
71.355647
11
111.571527
21
71.565320
0
LINE
8
Layer 1
10
111.571527
20
71.565320
11
110.409321
21
71.654281
0
LINE
8
Layer 1
10
110.409321
20
71.654281
11
109.070782
21
71.863255
0
LINE
8
Layer 1
10
109.070782
20
71.863255
11
107.676027
21
72.780169
0
LINE
8
Layer 1
10
107.676027
20
72.780169
11
106.549860
21
73.574092
0
LINE
8
Layer 1
10
106.549860
20
73.574092
11
105.823828
21
73.906058
0
LINE
8
Layer 1
10
105.823828
20
73.906058
11
105.274032
21
74.156886
0
LINE
8
Layer 1
10
105.274032
20
74.156886
11
104.571583
21
74.755725
0
LINE
8
Layer 1
10
104.571583
20
74.755725
11
103.882245
21
75.353683
0
LINE
8
Layer 1
10
103.882245
20
75.353683
11
103.363974
21
75.602392
0
LINE
8
Layer 1
10
103.363974
20
75.602392
11
102.877381
21
75.763829
0
LINE
8
Layer 1
10
102.877381
20
75.763829
11
102.165414
21
76.211051
0
LINE
8
Layer 1
10
102.165414
20
76.211051
11
100.376361
21
77.740293
0
LINE
8
Layer 1
10
100.376361
20
77.740293
11
98.425389
21
79.249834
0
LINE
8
Layer 1
10
98.425389
20
79.249834
11
97.636166
21
79.892651
0
LINE
8
Layer 1
10
97.636166
20
79.892651
11
97.038779
21
80.732719
0
LINE
8
Layer 1
10
97.038779
20
80.732719
11
96.660413
21
81.719152
0
LINE
8
Layer 1
10
96.660413
20
81.719152
11
96.528249
21
82.801065
0
LINE
8
Layer 1
10
96.528249
20
82.801065
11
96.430578
21
83.421285
0
LINE
8
Layer 1
10
96.430578
20
83.421285
11
96.118186
21
83.928434
0
LINE
8
Layer 1
10
96.118186
20
83.928434
11
95.562004
21
84.353719
0
LINE
8
Layer 1
10
95.562004
20
84.353719
11
94.732963
21
84.728346
0
LINE
8
Layer 1
10
94.732963
20
84.728346
11
94.334026
21
84.753935
0
LINE
8
Layer 1
10
94.334026
20
84.753935
11
94.413457
21
84.142803
0
LINE
8
Layer 1
10
94.413457
20
84.142803
11
94.612058
21
83.278881
0
LINE
8
Layer 1
10
94.612058
20
83.278881
11
94.613763
21
82.787718
0
LINE
8
Layer 1
10
94.613763
20
82.787718
11
94.386290
21
82.567605
0
LINE
8
Layer 1
10
94.386290
20
82.567605
11
93.897354
21
82.516836
0
LINE
8
Layer 1
10
93.897354
20
82.516836
11
93.462476
21
82.571744
0
LINE
8
Layer 1
10
93.462476
20
82.571744
11
93.105343
21
82.780851
0
LINE
8
Layer 1
10
93.105343
20
82.780851
11
92.328193
21
83.927947
0
LINE
8
Layer 1
10
92.328193
20
83.927947
11
91.187753
21
86.834110
0
LINE
8
Layer 1
10
91.187753
20
86.834110
11
89.998375
21
91.406836
0
LINE
8
Layer 1
10
89.998375
20
91.406836
11
89.421185
21
93.227169
0
LINE
8
Layer 1
10
89.421185
20
93.227169
11
89.190472
21
94.251038
0
LINE
8
Layer 1
10
89.190472
20
94.251038
11
89.060787
21
95.145907
0
LINE
8
Layer 1
10
89.060787
20
95.145907
11
88.738496
21
96.057676
0
LINE
8
Layer 1
10
88.738496
20
96.057676
11
88.323747
21
96.766186
0
LINE
8
Layer 1
10
88.323747
20
96.766186
11
87.916684
21
97.051281
0
LINE
8
Layer 1
10
87.916684
20
97.051281
11
87.640743
21
96.996438
0
LINE
8
Layer 1
10
87.640743
20
96.996438
11
87.514962
21
96.845061
0
LINE
8
Layer 1
10
87.514962
20
96.845061
11
87.733923
21
96.331614
0
LINE
8
Layer 1
10
87.733923
20
96.331614
11
88.002018
21
95.683506
0
LINE
8
Layer 1
10
88.002018
20
95.683506
11
88.302885
21
94.384875
0
LINE
8
Layer 1
10
88.302885
20
94.384875
11
88.889033
21
90.419058
0
LINE
8
Layer 1
10
88.889033
20
90.419058
11
89.338672
21
86.467947
0
LINE
8
Layer 1
10
89.338672
20
86.467947
11
89.499731
21
84.501087
0
LINE
8
Layer 1
10
89.499731
20
84.501087
11
89.596084
21
84.048483
0
LINE
8
Layer 1
10
89.596084
20
84.048483
11
89.829536
21
83.740718
0
LINE
8
Layer 1
10
89.829536
20
83.740718
11
90.139535
21
82.931433
0
LINE
8
Layer 1
10
90.139535
20
82.931433
11
90.357162
21
81.177522
0
LINE
8
Layer 1
10
90.357162
20
81.177522
11
90.454076
21
78.847017
0
LINE
8
Layer 1
10
90.454076
20
78.847017
11
90.401933
21
76.307947
0
LINE
8
Layer 1
10
90.401933
20
76.307947
11
90.249530
21
73.485725
0
LINE
8
Layer 1
10
90.249530
20
73.485725
11
91.294551
21
71.792392
0
LINE
8
Layer 1
10
91.294551
20
71.792392
11
93.399585
21
68.744699
0
LINE
8
Layer 1
10
93.399585
20
68.744699
11
94.610558
21
67.443689
0
LINE
8
Layer 1
10
94.610558
20
67.443689
11
96.077308
21
66.194001
0
LINE
8
Layer 1
10
96.077308
20
66.194001
11
97.463613
21
65.253715
0
LINE
8
Layer 1
10
97.463613
20
65.253715
11
98.433249
21
64.880913
0
LINE
8
Layer 1
10
98.433249
20
64.880913
11
98.881718
21
64.795916
0
LINE
8
Layer 1
10
98.881718
20
64.795916
11
99.068249
21
64.595725
0
LINE
8
Layer 1
10
99.068249
20
64.595725
11
99.186959
21
64.396406
0
LINE
8
Layer 1
10
99.186959
20
64.396406
11
99.472366
21
64.313503
0
LINE
8
Layer 1
10
99.472366
20
64.313503
11
99.887626
21
64.111879
0
LINE
8
Layer 1
10
99.887626
20
64.111879
11
100.377076
21
63.564172
0
LINE
8
Layer 1
10
100.377076
20
63.564172
11
101.327972
21
61.773503
0
LINE
8
Layer 1
10
101.327972
20
61.773503
11
102.209939
21
60.292247
0
LINE
8
Layer 1
10
102.209939
20
60.292247
11
103.633348
21
58.722908
0
LINE
8
Layer 1
10
103.633348
20
58.722908
11
105.339604
21
57.311757
0
LINE
8
Layer 1
10
105.339604
20
57.311757
11
107.070110
21
56.305063
0
LINE
8
Layer 1
10
107.070110
20
56.305063
11
109.084218
21
55.617141
0
LINE
8
Layer 1
10
109.084218
20
55.617141
11
111.039874
21
55.306529
0
LINE
8
Layer 1
10
111.039874
20
55.306529
11
112.820183
21
55.380627
0
LINE
8
Layer 1
10
112.820183
20
55.380627
11
114.308249
21
55.846836
0
LINE
8
Layer 1
10
114.308249
20
55.846836
11
115.228033
21
56.257818
0
LINE
8
Layer 1
10
115.228033
20
56.257818
11
115.893562
21
56.367856
0
LINE
8
Layer 1
10
115.893562
20
56.367856
11
116.445072
21
56.166420
0
LINE
8
Layer 1
10
116.445072
20
56.166420
11
117.022795
21
55.642978
0
LINE
8
Layer 1
10
117.022795
20
55.642978
11
118.164045
21
54.799257
0
LINE
8
Layer 1
10
118.164045
20
54.799257
11
119.615902
21
54.301114
0
LINE
8
Layer 1
10
119.615902
20
54.301114
11
121.216347
21
54.181349
0
LINE
8
Layer 1
10
121.216347
20
54.181349
11
122.803358
21
54.472761
0
LINE
8
Layer 1
10
122.803358
20
54.472761
11
122.803358
21
54.472761
0
LINE
8
Layer 1
10
147.328249
20
72.672355
11
146.481583
21
73.811065
0
LINE
8
Layer 1
10
146.481583
20
73.811065
11
145.919830
21
74.328618
0
LINE
8
Layer 1
10
145.919830
20
74.328618
11
145.640052
21
74.354964
0
LINE
8
Layer 1
10
145.640052
20
74.354964
11
145.683320
21
73.954988
0
LINE
8
Layer 1
10
145.683320
20
73.954988
11
146.090708
21
73.193574
0
LINE
8
Layer 1
10
146.090708
20
73.193574
11
146.455832
21
72.786732
0
LINE
8
Layer 1
10
146.455832
20
72.786732
11
146.862153
21
72.531247
0
LINE
8
Layer 1
10
146.862153
20
72.531247
11
147.192136
21
72.476620
0
LINE
8
Layer 1
10
147.192136
20
72.476620
11
147.328249
21
72.672355
0
LINE
8
Layer 1
10
147.328249
20
72.672355
11
147.328249
21
72.672355
0
LINE
8
Layer 1
10
113.650480
20
75.430304
11
113.501324
21
76.442592
0
LINE
8
Layer 1
10
113.501324
20
76.442592
11
113.255808
21
77.121267
0
LINE
8
Layer 1
10
113.255808
20
77.121267
11
112.913459
21
77.467152
0
LINE
8
Layer 1
10
112.913459
20
77.467152
11
112.473805
21
77.481069
0
LINE
8
Layer 1
10
112.473805
20
77.481069
11
112.206055
21
77.125098
0
LINE
8
Layer 1
10
112.206055
20
77.125098
11
112.113190
21
76.417611
0
LINE
8
Layer 1
10
112.113190
20
76.417611
11
112.196496
21
75.568514
0
LINE
8
Layer 1
10
112.196496
20
75.568514
11
112.457264
21
74.787712
0
LINE
8
Layer 1
10
112.457264
20
74.787712
11
112.906113
21
73.288073
0
LINE
8
Layer 1
10
112.906113
20
73.288073
11
112.970806
21
72.796292
0
LINE
8
Layer 1
10
112.970806
20
72.796292
11
113.354059
21
73.203503
0
LINE
8
Layer 1
10
113.354059
20
73.203503
11
113.665247
21
74.009198
0
LINE
8
Layer 1
10
113.665247
20
74.009198
11
113.650480
21
75.430304
0
LINE
8
Layer 1
10
113.650480
20
75.430304
11
113.650480
21
75.430304
0
LINE
8
Layer 1
10
110.468054
20
73.791030
11
110.645380
21
75.046077
0
LINE
8
Layer 1
10
110.645380
20
75.046077
11
110.462828
21
76.479032
0
LINE
8
Layer 1
10
110.462828
20
76.479032
11
110.024043
21
77.654746
0
LINE
8
Layer 1
10
110.024043
20
77.654746
11
109.740951
21
78.010154
0
LINE
8
Layer 1
10
109.740951
20
78.010154
11
109.432669
21
78.138071
0
LINE
8
Layer 1
10
109.432669
20
78.138071
11
108.874843
21
78.031331
0
LINE
8
Layer 1
10
108.874843
20
78.031331
11
108.544301
21
77.690243
0
LINE
8
Layer 1
10
108.544301
20
77.690243
11
108.414140
21
77.057969
0
LINE
8
Layer 1
10
108.414140
20
77.057969
11
108.457458
21
76.077671
0
LINE
8
Layer 1
10
108.457458
20
76.077671
11
108.933065
21
73.933276
0
LINE
8
Layer 1
10
108.933065
20
73.933276
11
109.295235
21
73.528681
0
LINE
8
Layer 1
10
109.295235
20
73.528681
11
109.748189
21
73.363028
0
LINE
8
Layer 1
10
109.748189
20
73.363028
11
110.177328
21
73.446938
0
LINE
8
Layer 1
10
110.177328
20
73.446938
11
110.468054
21
73.791030
0
LINE
8
Layer 1
10
110.468054
20
73.791030
11
110.468054
21
73.791030
0
LINE
8
Layer 1
10
119.695990
20
74.255740
11
119.795790
21
75.132965
0
LINE
8
Layer 1
10
119.795790
20
75.132965
11
119.748385
21
76.160740
0
LINE
8
Layer 1
10
119.748385
20
76.160740
11
119.490975
21
77.111848
0
LINE
8
Layer 1
10
119.490975
20
77.111848
11
119.229169
21
77.262239
0
LINE
8
Layer 1
10
119.229169
20
77.262239
11
118.794713
21
77.295725
0
LINE
8
Layer 1
10
118.794713
20
77.295725
11
118.098227
21
77.122901
0
LINE
8
Layer 1
10
118.098227
20
77.122901
11
117.748837
21
76.378503
0
LINE
8
Layer 1
10
117.748837
20
76.378503
11
117.638890
21
75.564909
0
LINE
8
Layer 1
10
117.638890
20
75.564909
11
117.717807
21
74.896836
0
LINE
8
Layer 1
10
117.717807
20
74.896836
11
118.094026
21
73.818708
0
LINE
8
Layer 1
10
118.094026
20
73.818708
11
118.415830
21
73.420667
0
LINE
8
Layer 1
10
118.415830
20
73.420667
11
118.896694
21
73.389907
0
LINE
8
Layer 1
10
118.896694
20
73.389907
11
119.376716
21
73.682806
0
LINE
8
Layer 1
10
119.376716
20
73.682806
11
119.695990
21
74.255740
0
LINE
8
Layer 1
10
119.695990
20
74.255740
11
119.695990
21
74.255740
0
LINE
8
Layer 1
10
122.721700
20
73.920054
11
123.067898
21
74.364973
0
LINE
8
Layer 1
10
123.067898
20
74.364973
11
123.271639
21
74.888112
0
LINE
8
Layer 1
10
123.271639
20
74.888112
11
123.287700
21
75.999516
0
LINE
8
Layer 1
10
123.287700
20
75.999516
11
122.841783
21
76.915203
0
LINE
8
Layer 1
10
122.841783
20
76.915203
11
122.468053
21
77.193695
0
LINE
8
Layer 1
10
122.468053
20
77.193695
11
122.005790
21
77.296109
0
LINE
8
Layer 1
10
122.005790
20
77.296109
11
121.557879
21
77.268644
0
LINE
8
Layer 1
10
121.557879
20
77.268644
11
121.334548
21
77.087352
0
LINE
8
Layer 1
10
121.334548
20
77.087352
11
121.307911
21
75.673331
0
LINE
8
Layer 1
10
121.307911
20
75.673331
11
121.431019
21
74.180934
0
LINE
8
Layer 1
10
121.431019
20
74.180934
11
121.653705
21
73.458199
0
LINE
8
Layer 1
10
121.653705
20
73.458199
11
121.827694
21
73.354075
0
LINE
8
Layer 1
10
121.827694
20
73.354075
11
122.056941
21
73.404711
0
LINE
8
Layer 1
10
122.056941
20
73.404711
11
122.721700
21
73.920054
0
LINE
8
Layer 1
10
122.721700
20
73.920054
11
122.721700
21
73.920054
0
LINE
8
Layer 1
10
127.234027
20
73.683281
11
127.476407
21
74.453695
0
LINE
8
Layer 1
10
127.476407
20
74.453695
11
127.572694
21
75.879184
0
LINE
8
Layer 1
10
127.572694
20
75.879184
11
127.457958
21
77.527332
0
LINE
8
Layer 1
10
127.457958
20
77.527332
11
127.206166
21
77.838160
0
LINE
8
Layer 1
10
127.206166
20
77.838160
11
126.728426
21
78.055097
0
LINE
8
Layer 1
10
126.728426
20
78.055097
11
125.884114
21
78.211457
0
LINE
8
Layer 1
10
125.884114
20
78.211457
11
125.154292
21
78.074257
0
LINE
8
Layer 1
10
125.154292
20
78.074257
11
124.678362
21
77.702356
0
LINE
8
Layer 1
10
124.678362
20
77.702356
11
124.595726
21
77.154614
0
LINE
8
Layer 1
10
124.595726
20
77.154614
11
124.746619
21
75.249614
0
LINE
8
Layer 1
10
124.746619
20
75.249614
11
124.856890
21
74.117305
0
LINE
8
Layer 1
10
124.856890
20
74.117305
11
125.064514
21
73.945258
0
LINE
8
Layer 1
10
125.064514
20
73.945258
11
125.439370
21
73.909058
0
LINE
8
Layer 1
10
125.439370
20
73.909058
11
125.977143
21
73.826156
0
LINE
8
Layer 1
10
125.977143
20
73.826156
11
126.302694
21
73.626836
0
LINE
8
Layer 1
10
126.302694
20
73.626836
11
126.700209
21
73.360177
0
LINE
8
Layer 1
10
126.700209
20
73.360177
11
127.234027
21
73.683281
0
LINE
8
Layer 1
10
127.234027
20
73.683281
11
127.234027
21
73.683281
0
LINE
8
Layer 1
10
116.283805
20
75.760159
11
116.191341
21
77.280168
0
LINE
8
Layer 1
10
116.191341
20
77.280168
11
116.021033
21
77.523086
0
LINE
8
Layer 1
10
116.021033
20
77.523086
11
115.719360
21
77.577947
0
LINE
8
Layer 1
10
115.719360
20
77.577947
11
115.436192
21
77.535265
0
LINE
8
Layer 1
10
115.436192
20
77.535265
11
115.263828
21
77.377604
0
LINE
8
Layer 1
10
115.263828
20
77.377604
11
115.154916
21
76.539652
0
LINE
8
Layer 1
10
115.154916
20
76.539652
11
115.248498
21
75.568331
0
LINE
8
Layer 1
10
115.248498
20
75.568331
11
115.479295
21
74.635470
0
LINE
8
Layer 1
10
115.479295
20
74.635470
11
115.772385
21
73.969695
0
LINE
8
Layer 1
10
115.772385
20
73.969695
11
116.052846
21
73.799629
0
LINE
8
Layer 1
10
116.052846
20
73.799629
11
116.215961
21
74.434415
0
LINE
8
Layer 1
10
116.215961
20
74.434415
11
116.283805
21
75.760159
0
LINE
8
Layer 1
10
116.283805
20
75.760159
11
116.283805
21
75.760159
0
LINE
8
Layer 1
10
149.494776
20
75.108503
11
150.293343
21
76.316765
0
LINE
8
Layer 1
10
150.293343
20
76.316765
11
150.592082
21
77.719058
0
LINE
8
Layer 1
10
150.592082
20
77.719058
11
150.502297
21
79.211186
0
LINE
8
Layer 1
10
150.502297
20
79.211186
11
150.184163
21
81.319737
0
LINE
8
Layer 1
10
150.184163
20
81.319737
11
149.735534
21
83.497671
0
LINE
8
Layer 1
10
149.735534
20
83.497671
11
149.254264
21
85.197947
0
LINE
8
Layer 1
10
149.254264
20
85.197947
11
148.552645
21
87.198214
0
LINE
8
Layer 1
10
148.552645
20
87.198214
11
148.627586
21
87.820795
0
LINE
8
Layer 1
10
148.627586
20
87.820795
11
149.000656
21
88.688466
0
LINE
8
Layer 1
10
149.000656
20
88.688466
11
149.464792
21
89.984100
0
LINE
8
Layer 1
10
149.464792
20
89.984100
11
149.586027
21
91.996520
0
LINE
8
Layer 1
10
149.586027
20
91.996520
11
149.512115
21
93.623277
0
LINE
8
Layer 1
10
149.512115
20
93.623277
11
149.423501
21
94.010201
0
LINE
8
Layer 1
10
149.423501
20
94.010201
11
149.303805
21
94.087947
0
LINE
8
Layer 1
10
149.303805
20
94.087947
11
149.104485
21
93.778977
0
LINE
8
Layer 1
10
149.104485
20
93.778977
11
149.021583
21
93.281068
0
LINE
8
Layer 1
10
149.021583
20
93.281068
11
148.788433
21
92.380503
0
LINE
8
Layer 1
10
148.788433
20
92.380503
11
148.369087
21
91.375405
0
LINE
8
Layer 1
10
148.369087
20
91.375405
11
147.655596
21
88.725725
0
LINE
8
Layer 1
10
147.655596
20
88.725725
11
146.976957
21
84.796617
0
LINE
8
Layer 1
10
146.976957
20
84.796617
11
146.668126
21
80.823503
0
LINE
8
Layer 1
10
146.668126
20
80.823503
11
146.750948
21
79.406079
0
LINE
8
Layer 1
10
146.750948
20
79.406079
11
147.007000
21
78.016980
0
LINE
8
Layer 1
10
147.007000
20
78.016980
11
147.437873
21
76.649821
0
LINE
8
Layer 1
10
147.437873
20
76.649821
11
148.045156
21
75.298218
0
LINE
8
Layer 1
10
148.045156
20
75.298218
11
148.383283
21
74.734003
0
LINE
8
Layer 1
10
148.383283
20
74.734003
11
148.683094
21
74.521445
0
LINE
8
Layer 1
10
148.683094
20
74.521445
11
149.026340
21
74.649844
0
LINE
8
Layer 1
10
149.026340
20
74.649844
11
149.494776
21
75.108503
0
LINE
8
Layer 1
10
149.494776
20
75.108503
11
149.494776
21
75.108503
0
LINE
8
Layer 1
10
88.693004
20
77.637809
11
88.774775
21
79.482908
0
LINE
8
Layer 1
10
88.774775
20
79.482908
11
88.428861
21
79.010577
0
LINE
8
Layer 1
10
88.428861
20
79.010577
11
87.802099
21
77.762684
0
LINE
8
Layer 1
10
87.802099
20
77.762684
11
86.932694
21
75.555500
0
LINE
8
Layer 1
10
86.932694
20
75.555500
11
87.055244
21
75.167127
0
LINE
8
Layer 1
10
87.055244
20
75.167127
11
87.744667
21
75.443340
0
LINE
8
Layer 1
10
87.744667
20
75.443340
11
88.185815
21
75.720622
0
LINE
8
Layer 1
10
88.185815
20
75.720622
11
88.448368
21
76.080328
0
LINE
8
Layer 1
10
88.448368
20
76.080328
11
88.693004
21
77.637809
0
LINE
8
Layer 1
10
88.693004
20
77.637809
11
88.693004
21
77.637809
0
LINE
8
Layer 1
10
107.198366
20
76.779902
11
107.039559
21
77.657651
0
LINE
8
Layer 1
10
107.039559
20
77.657651
11
106.778208
21
78.040888
0
LINE
8
Layer 1
10
106.778208
20
78.040888
11
106.490627
21
77.896418
0
LINE
8
Layer 1
10
106.490627
20
77.896418
11
106.253130
21
77.191049
0
LINE
8
Layer 1
10
106.253130
20
77.191049
11
106.172428
21
76.477465
0
LINE
8
Layer 1
10
106.172428
20
76.477465
11
106.243885
21
75.983071
0
LINE
8
Layer 1
10
106.243885
20
75.983071
11
106.472243
21
75.695501
0
LINE
8
Layer 1
10
106.472243
20
75.695501
11
106.862242
21
75.602392
0
LINE
8
Layer 1
10
106.862242
20
75.602392
11
107.059905
21
75.660292
0
LINE
8
Layer 1
10
107.059905
20
75.660292
11
107.175841
21
75.854919
0
LINE
8
Layer 1
10
107.175841
20
75.854919
11
107.198366
21
76.779902
0
LINE
8
Layer 1
10
107.198366
20
76.779902
11
107.198366
21
76.779902
0
LINE
8
Layer 1
10
130.104594
20
76.298185
11
130.311259
21
76.901915
0
LINE
8
Layer 1
10
130.311259
20
76.901915
11
130.250881
21
77.877472
0
LINE
8
Layer 1
10
130.250881
20
77.877472
11
130.054728
21
78.594551
0
LINE
8
Layer 1
10
130.054728
20
78.594551
11
129.814874
21
78.772620
0
LINE
8
Layer 1
10
129.814874
20
78.772620
11
129.552905
21
78.419222
0
LINE
8
Layer 1
10
129.552905
20
78.419222
11
129.290405
21
77.541896
0
LINE
8
Layer 1
10
129.290405
20
77.541896
11
129.171504
21
76.589362
0
LINE
8
Layer 1
10
129.171504
20
76.589362
11
129.294254
21
76.023804
0
LINE
8
Layer 1
10
129.294254
20
76.023804
11
129.618626
21
75.906364
0
LINE
8
Layer 1
10
129.618626
20
75.906364
11
130.104594
21
76.298185
0
LINE
8
Layer 1
10
130.104594
20
76.298185
11
130.104594
21
76.298185
0
LINE
8
Layer 1
10
86.818112
20
78.759188
11
87.364368
21
80.105140
0
LINE
8
Layer 1
10
87.364368
20
80.105140
11
87.306291
21
81.087522
0
LINE
8
Layer 1
10
87.306291
20
81.087522
11
87.184437
21
82.071399
0
LINE
8
Layer 1
10
87.184437
20
82.071399
11
87.247321
21
83.222392
0
LINE
8
Layer 1
10
87.247321
20
83.222392
11
87.301672
21
84.481579
0
LINE
8
Layer 1
10
87.301672
20
84.481579
11
87.194635
21
86.133384
0
LINE
8
Layer 1
10
87.194635
20
86.133384
11
86.628927
21
89.310207
0
LINE
8
Layer 1
10
86.628927
20
89.310207
11
86.368249
21
90.810427
0
LINE
8
Layer 1
10
86.368249
20
90.810427
11
86.101174
21
91.942979
0
LINE
8
Layer 1
10
86.101174
20
91.942979
11
85.888115
21
92.972408
0
LINE
8
Layer 1
10
85.888115
20
92.972408
11
85.750908
21
94.746648
0
LINE
8
Layer 1
10
85.750908
20
94.746648
11
85.667715
21
97.051281
0
LINE
8
Layer 1
10
85.667715
20
97.051281
11
84.576677
21
97.051281
0
LINE
8
Layer 1
10
84.576677
20
97.051281
11
83.719740
21
96.961656
0
LINE
8
Layer 1
10
83.719740
20
96.961656
11
83.622390
21
96.811547
0
LINE
8
Layer 1
10
83.622390
20
96.811547
11
83.684652
21
96.557392
0
LINE
8
Layer 1
10
83.684652
20
96.557392
11
84.109678
21
94.473673
0
LINE
8
Layer 1
10
84.109678
20
94.473673
11
84.533650
21
90.753232
0
LINE
8
Layer 1
10
84.533650
20
90.753232
11
84.880349
21
86.213065
0
LINE
8
Layer 1
10
84.880349
20
86.213065
11
85.073552
21
81.670169
0
LINE
8
Layer 1
10
85.073552
20
81.670169
11
85.353182
21
78.477320
0
LINE
8
Layer 1
10
85.353182
20
78.477320
11
85.618588
21
77.602122
0
LINE
8
Layer 1
10
85.618588
20
77.602122
11
85.950092
21
77.295725
0
LINE
8
Layer 1
10
85.950092
20
77.295725
11
86.818112
21
78.759188
0
LINE
8
Layer 1
10
86.818112
20
78.759188
11
86.818112
21
78.759188
0
LINE
8
Layer 1
10
104.813772
20
78.354058
11
104.971171
21
79.859549
0
LINE
8
Layer 1
10
104.971171
20
79.859549
11
104.805394
21
79.962976
0
LINE
8
Layer 1
10
104.805394
20
79.962976
11
104.439178
21
79.775668
0
LINE
8
Layer 1
10
104.439178
20
79.775668
11
104.037477
21
79.348402
0
LINE
8
Layer 1
10
104.037477
20
79.348402
11
103.746694
21
78.727632
0
LINE
8
Layer 1
10
103.746694
20
78.727632
11
103.622524
21
78.083172
0
LINE
8
Layer 1
10
103.622524
20
78.083172
11
103.720660
21
77.584833
0
LINE
8
Layer 1
10
103.720660
20
77.584833
11
104.030581
21
77.299359
0
LINE
8
Layer 1
10
104.030581
20
77.299359
11
104.349018
21
77.355588
0
LINE
8
Layer 1
10
104.349018
20
77.355588
11
104.626554
21
77.718747
0
LINE
8
Layer 1
10
104.626554
20
77.718747
11
104.813772
21
78.354058
0
LINE
8
Layer 1
10
104.813772
20
78.354058
11
104.813772
21
78.354058
0
LINE
8
Layer 1
10
132.585107
20
78.991595
11
132.562527
21
80.000991
0
LINE
8
Layer 1
10
132.562527
20
80.000991
11
132.404993
21
80.647994
0
LINE
8
Layer 1
10
132.404993
20
80.647994
11
132.067528
21
80.930988
0
LINE
8
Layer 1
10
132.067528
20
80.930988
11
131.786817
21
80.728431
0
LINE
8
Layer 1
10
131.786817
20
80.728431
11
131.594897
21
80.096862
0
LINE
8
Layer 1
10
131.594897
20
80.096862
11
131.523805
21
79.092820
0
LINE
8
Layer 1
10
131.523805
20
79.092820
11
131.612500
21
77.832883
0
LINE
8
Layer 1
10
131.612500
20
77.832883
11
131.762493
21
77.638057
0
LINE
8
Layer 1
10
131.762493
20
77.638057
11
132.017694
21
77.630347
0
LINE
8
Layer 1
10
132.017694
20
77.630347
11
132.254312
21
77.739430
0
LINE
8
Layer 1
10
132.254312
20
77.739430
11
132.419186
21
77.982112
0
LINE
8
Layer 1
10
132.419186
20
77.982112
11
132.585107
21
78.991595
0
LINE
8
Layer 1
10
132.585107
20
78.991595
11
132.585107
21
78.991595
0
LINE
8
Layer 1
10
102.661954
20
79.404865
11
103.059928
21
80.193034
0
LINE
8
Layer 1
10
103.059928
20
80.193034
11
103.103793
21
80.770616
0
LINE
8
Layer 1
10
103.103793
20
80.770616
11
102.796874
21
81.125815
0
LINE
8
Layer 1
10
102.796874
20
81.125815
11
102.142499
21
81.246836
0
LINE
8
Layer 1
10
102.142499
20
81.246836
11
101.471139
21
81.109546
0
LINE
8
Layer 1
10
101.471139
20
81.109546
11
101.329879
21
80.470725
0
LINE
8
Layer 1
10
101.329879
20
80.470725
11
101.503305
21
79.088034
0
LINE
8
Layer 1
10
101.503305
20
79.088034
11
101.670724
21
78.610431
0
LINE
8
Layer 1
10
101.670724
20
78.610431
11
101.852832
21
78.428108
0
LINE
8
Layer 1
10
101.852832
20
78.428108
11
102.661954
21
79.404865
0
LINE
8
Layer 1
10
102.661954
20
79.404865
11
102.661954
21
79.404865
0
LINE
8
Layer 1
10
111.780540
20
80.064048
11
112.020073
21
82.278951
0
LINE
8
Layer 1
10
112.020073
20
82.278951
11
112.079890
21
83.289229
0
LINE
8
Layer 1
10
112.079890
20
83.289229
11
111.914086
21
84.231058
0
LINE
8
Layer 1
10
111.914086
20
84.231058
11
111.577259
21
84.926582
0
LINE
8
Layer 1
10
111.577259
20
84.926582
11
111.124007
21
85.197947
0
LINE
8
Layer 1
10
111.124007
20
85.197947
11
110.691452
21
84.986384
0
LINE
8
Layer 1
10
110.691452
20
84.986384
11
110.349264
21
84.453207
0
LINE
8
Layer 1
10
110.349264
20
84.453207
11
110.162607
21
83.750685
0
LINE
8
Layer 1
10
110.162607
20
83.750685
11
110.196650
21
83.031087
0
LINE
8
Layer 1
10
110.196650
20
83.031087
11
110.616594
21
80.964614
0
LINE
8
Layer 1
10
110.616594
20
80.964614
11
110.975369
21
79.513552
0
LINE
8
Layer 1
10
110.975369
20
79.513552
11
111.349721
21
78.832753
0
LINE
8
Layer 1
10
111.349721
20
78.832753
11
111.514253
21
78.803241
0
LINE
8
Layer 1
10
111.514253
20
78.803241
11
111.648496
21
78.992742
0
LINE
8
Layer 1
10
111.648496
20
78.992742
11
111.780540
21
80.064048
0
LINE
8
Layer 1
10
111.780540
20
80.064048
11
111.780540
21
80.064048
0
LINE
8
Layer 1
10
121.018012
20
79.059614
11
121.260555
21
79.723277
0
LINE
8
Layer 1
10
121.260555
20
79.723277
11
121.439596
21
80.823503
0
LINE
8
Layer 1
10
121.439596
20
80.823503
11
121.769533
21
82.815255
0
LINE
8
Layer 1
10
121.769533
20
82.815255
11
121.778285
21
83.420082
0
LINE
8
Layer 1
10
121.778285
20
83.420082
11
121.417698
21
84.072586
0
LINE
8
Layer 1
10
121.417698
20
84.072586
11
120.869747
21
84.749279
0
LINE
8
Layer 1
10
120.869747
20
84.749279
11
119.635109
21
84.094391
0
LINE
8
Layer 1
10
119.635109
20
84.094391
11
118.400472
21
83.439502
0
LINE
8
Layer 1
10
118.400472
20
83.439502
11
118.400472
21
81.227264
0
LINE
8
Layer 1
10
118.400472
20
81.227264
11
118.400472
21
79.015026
0
LINE
8
Layer 1
10
118.400472
20
79.015026
11
119.247138
21
78.906096
0
LINE
8
Layer 1
10
119.247138
20
78.906096
11
120.412027
21
78.752003
0
LINE
8
Layer 1
10
120.412027
20
78.752003
11
120.721301
21
78.823733
0
LINE
8
Layer 1
10
120.721301
20
78.823733
11
121.018012
21
79.059614
0
LINE
8
Layer 1
10
121.018012
20
79.059614
11
121.018012
21
79.059614
0
LINE
8
Layer 1
10
108.810462
20
79.325160
11
109.353098
21
79.713135
0
LINE
8
Layer 1
10
109.353098
20
79.713135
11
109.364630
21
80.242382
0
LINE
8
Layer 1
10
109.364630
20
80.242382
11
108.892442
21
82.442388
0
LINE
8
Layer 1
10
108.892442
20
82.442388
11
108.572023
21
84.771157
0
LINE
8
Layer 1
10
108.572023
20
84.771157
11
108.410623
21
85.422580
0
LINE
8
Layer 1
10
108.410623
20
85.422580
11
108.035251
21
85.707832
0
LINE
8
Layer 1
10
108.035251
20
85.707832
11
107.791682
21
85.697644
0
LINE
8
Layer 1
10
107.791682
20
85.697644
11
107.611647
21
85.538181
0
LINE
8
Layer 1
10
107.611647
20
85.538181
11
107.363181
21
84.646699
0
LINE
8
Layer 1
10
107.363181
20
84.646699
11
107.160773
21
83.786760
0
LINE
8
Layer 1
10
107.160773
20
83.786760
11
106.933402
21
83.340592
0
LINE
8
Layer 1
10
106.933402
20
83.340592
11
106.760263
21
82.729476
0
LINE
8
Layer 1
10
106.760263
20
82.729476
11
106.688249
21
81.472961
0
LINE
8
Layer 1
10
106.688249
20
81.472961
11
106.794524
21
80.045440
0
LINE
8
Layer 1
10
106.794524
20
80.045440
11
107.182138
21
79.381926
0
LINE
8
Layer 1
10
107.182138
20
79.381926
11
107.886264
21
79.022934
0
LINE
8
Layer 1
10
107.886264
20
79.022934
11
108.810462
21
79.325160
0
LINE
8
Layer 1
10
108.810462
20
79.325160
11
108.810462
21
79.325160
0
LINE
8
Layer 1
10
116.848249
20
80.781768
11
116.705846
21
82.195073
0
LINE
8
Layer 1
10
116.705846
20
82.195073
11
116.313530
21
83.369624
0
LINE
8
Layer 1
10
116.313530
20
83.369624
11
115.723646
21
84.198648
0
LINE
8
Layer 1
10
115.723646
20
84.198648
11
114.988535
21
84.575371
0
LINE
8
Layer 1
10
114.988535
20
84.575371
11
114.332099
21
84.481306
0
LINE
8
Layer 1
10
114.332099
20
84.481306
11
113.865873
21
83.942428
0
LINE
8
Layer 1
10
113.865873
20
83.942428
11
113.563919
21
82.905527
0
LINE
8
Layer 1
10
113.563919
20
82.905527
11
113.400295
21
81.317392
0
LINE
8
Layer 1
10
113.400295
20
81.317392
11
113.272705
21
78.989058
0
LINE
8
Layer 1
10
113.272705
20
78.989058
11
115.060476
21
78.989058
0
LINE
8
Layer 1
10
115.060476
20
78.989058
11
116.848249
21
78.989058
0
LINE
8
Layer 1
10
116.848249
20
78.989058
11
116.848249
21
80.781768
0
LINE
8
Layer 1
10
116.848249
20
80.781768
11
116.848249
21
80.781768
0
LINE
8
Layer 1
10
124.876264
20
80.370545
11
125.419716
21
81.909044
0
LINE
8
Layer 1
10
125.419716
20
81.909044
11
125.498783
21
83.303882
0
LINE
8
Layer 1
10
125.498783
20
83.303882
11
125.144787
21
84.284433
0
LINE
8
Layer 1
10
125.144787
20
84.284433
11
124.815178
21
84.534781
0
LINE
8
Layer 1
10
124.815178
20
84.534781
11
124.389049
21
84.580072
0
LINE
8
Layer 1
10
124.389049
20
84.580072
11
123.940370
21
84.332188
0
LINE
8
Layer 1
10
123.940370
20
84.332188
11
123.596350
21
83.697174
0
LINE
8
Layer 1
10
123.596350
20
83.697174
11
123.336694
21
82.617384
0
LINE
8
Layer 1
10
123.336694
20
82.617384
11
123.141108
21
81.035169
0
LINE
8
Layer 1
10
123.141108
20
81.035169
11
123.121998
21
79.755099
0
LINE
8
Layer 1
10
123.121998
20
79.755099
11
123.322225
21
79.582799
0
LINE
8
Layer 1
10
123.322225
20
79.582799
11
123.729327
21
79.553503
0
LINE
8
Layer 1
10
123.729327
20
79.553503
11
124.383071
21
79.744784
0
LINE
8
Layer 1
10
124.383071
20
79.744784
11
124.876264
21
80.370545
0
LINE
8
Layer 1
10
124.876264
20
80.370545
11
124.876264
21
80.370545
0
LINE
8
Layer 1
10
128.682366
20
80.373180
11
129.138103
21
81.395934
0
LINE
8
Layer 1
10
129.138103
20
81.395934
11
129.237895
21
82.983736
0
LINE
8
Layer 1
10
129.237895
20
82.983736
11
129.165594
21
84.523741
0
LINE
8
Layer 1
10
129.165594
20
84.523741
11
128.982788
21
85.514613
0
LINE
8
Layer 1
10
128.982788
20
85.514613
11
128.653406
21
86.064883
0
LINE
8
Layer 1
10
128.653406
20
86.064883
11
128.141380
21
86.283083
0
LINE
8
Layer 1
10
128.141380
20
86.283083
11
127.491851
21
86.225946
0
LINE
8
Layer 1
10
127.491851
20
86.225946
11
127.084170
21
85.810896
0
LINE
8
Layer 1
10
127.084170
20
85.810896
11
126.903151
21
85.006477
0
LINE
8
Layer 1
10
126.903151
20
85.006477
11
126.933607
21
83.781228
0
LINE
8
Layer 1
10
126.933607
20
83.781228
11
126.949951
21
82.331786
0
LINE
8
Layer 1
10
126.949951
20
82.331786
11
126.732194
21
81.261726
0
LINE
8
Layer 1
10
126.732194
20
81.261726
11
126.531412
21
80.534569
0
LINE
8
Layer 1
10
126.531412
20
80.534569
11
126.543918
21
79.981905
0
LINE
8
Layer 1
10
126.543918
20
79.981905
11
126.906290
21
79.608594
0
LINE
8
Layer 1
10
126.906290
20
79.608594
11
127.478275
21
79.566713
0
LINE
8
Layer 1
10
127.478275
20
79.566713
11
128.117694
21
79.830247
0
LINE
8
Layer 1
10
128.117694
20
79.830247
11
128.682366
21
80.373180
0
LINE
8
Layer 1
10
128.682366
20
80.373180
11
128.682366
21
80.373180
0
LINE
8
Layer 1
10
135.074539
20
81.035500
11
135.245857
21
81.879053
0
LINE
8
Layer 1
10
135.245857
20
81.879053
11
135.188837
21
82.287925
0
LINE
8
Layer 1
10
135.188837
20
82.287925
11
134.868820
21
82.300893
0
LINE
8
Layer 1
10
134.868820
20
82.300893
11
134.251150
21
81.956732
0
LINE
8
Layer 1
10
134.251150
20
81.956732
11
133.761804
21
81.421223
0
LINE
8
Layer 1
10
133.761804
20
81.421223
11
133.729197
21
80.531200
0
LINE
8
Layer 1
10
133.729197
20
80.531200
11
133.950888
21
79.755414
0
LINE
8
Layer 1
10
133.950888
20
79.755414
11
134.116359
21
79.602719
0
LINE
8
Layer 1
10
134.116359
20
79.602719
11
134.304398
21
79.601631
0
LINE
8
Layer 1
10
134.304398
20
79.601631
11
134.706643
21
80.038708
0
LINE
8
Layer 1
10
134.706643
20
80.038708
11
135.074539
21
81.035500
0
LINE
8
Layer 1
10
135.074539
20
81.035500
11
135.074539
21
81.035500
0
LINE
8
Layer 1
10
100.188928
20
82.779046
11
99.975828
21
82.906750
0
LINE
8
Layer 1
10
99.975828
20
82.906750
11
99.781761
21
82.869940
0
LINE
8
Layer 1
10
99.781761
20
82.869940
11
99.488145
21
82.417237
0
LINE
8
Layer 1
10
99.488145
20
82.417237
11
99.382915
21
81.649862
0
LINE
8
Layer 1
10
99.382915
20
81.649862
11
99.540907
21
80.796734
0
LINE
8
Layer 1
10
99.540907
20
80.796734
11
99.650900
21
80.606748
0
LINE
8
Layer 1
10
99.650900
20
80.606748
11
99.770183
21
80.629859
0
LINE
8
Layer 1
10
99.770183
20
80.629859
11
100.108893
21
81.391001
0
LINE
8
Layer 1
10
100.108893
20
81.391001
11
100.326353
21
82.293467
0
LINE
8
Layer 1
10
100.326353
20
82.293467
11
100.188928
21
82.779046
0
LINE
8
Layer 1
10
100.188928
20
82.779046
11
100.188928
21
82.779046
0
LINE
8
Layer 1
10
105.298855
20
83.067169
11
105.519922
21
83.583799
0
LINE
8
Layer 1
10
105.519922
20
83.583799
11
105.560008
21
84.295843
0
LINE
8
Layer 1
10
105.560008
20
84.295843
11
105.436360
21
84.926245
0
LINE
8
Layer 1
10
105.436360
20
84.926245
11
105.166222
21
85.197947
0
LINE
8
Layer 1
10
105.166222
20
85.197947
11
104.923654
21
85.116908
0
LINE
8
Layer 1
10
104.923654
20
85.116908
11
104.724310
21
84.889862
0
LINE
8
Layer 1
10
104.724310
20
84.889862
11
104.470161
21
84.094164
0
LINE
8
Layer 1
10
104.470161
20
84.094164
11
104.433507
21
83.003691
0
LINE
8
Layer 1
10
104.433507
20
83.003691
11
104.644080
21
81.811281
0
LINE
8
Layer 1
10
104.644080
20
81.811281
11
104.835538
21
81.306400
0
LINE
8
Layer 1
10
104.835538
20
81.306400
11
104.944164
21
81.952392
0
LINE
8
Layer 1
10
104.944164
20
81.952392
11
105.298855
21
83.067169
0
LINE
8
Layer 1
10
105.298855
20
83.067169
11
105.298855
21
83.067169
0
LINE
8
Layer 1
10
131.809569
20
82.809788
11
131.991751
21
83.751275
0
LINE
8
Layer 1
10
131.991751
20
83.751275
11
131.683839
21
84.503122
0
LINE
8
Layer 1
10
131.683839
20
84.503122
11
131.023411
21
85.198077
0
LINE
8
Layer 1
10
131.023411
20
85.198077
11
130.878516
21
84.700947
0
LINE
8
Layer 1
10
130.878516
20
84.700947
11
130.818249
21
83.505534
0
LINE
8
Layer 1
10
130.818249
20
83.505534
11
130.900086
21
82.357546
0
LINE
8
Layer 1
10
130.900086
20
82.357546
11
131.119091
21
81.840323
0
LINE
8
Layer 1
10
131.119091
20
81.840323
11
131.435505
21
81.981769
0
LINE
8
Layer 1
10
131.435505
20
81.981769
11
131.809569
21
82.809788
0
LINE
8
Layer 1
10
131.809569
20
82.809788
11
131.809569
21
82.809788
0
LINE
8
Layer 1
10
137.168249
20
82.691258
11
137.085347
21
83.038661
0
LINE
8
Layer 1
10
137.085347
20
83.038661
11
136.886027
21
83.081281
0
LINE
8
Layer 1
10
136.886027
20
83.081281
11
136.686708
21
82.792289
0
LINE
8
Layer 1
10
136.686708
20
82.792289
11
136.603805
21
82.342414
0
LINE
8
Layer 1
10
136.603805
20
82.342414
11
136.686708
21
81.995011
0
LINE
8
Layer 1
10
136.686708
20
81.995011
11
136.886027
21
81.952392
0
LINE
8
Layer 1
10
136.886027
20
81.952392
11
137.085347
21
82.241383
0
LINE
8
Layer 1
10
137.085347
20
82.241383
11
137.168249
21
82.691258
0
LINE
8
Layer 1
10
137.168249
20
82.691258
11
137.168249
21
82.691258
0
LINE
8
Layer 1
10
133.615057
20
84.587715
11
133.364659
21
85.475178
0
LINE
8
Layer 1
10
133.364659
20
85.475178
11
132.983512
21
85.762392
0
LINE
8
Layer 1
10
132.983512
20
85.762392
11
132.702800
21
85.691836
0
LINE
8
Layer 1
10
132.702800
20
85.691836
11
132.878472
21
85.423725
0
LINE
8
Layer 1
10
132.878472
20
85.423725
11
133.117655
21
84.852931
0
LINE
8
Layer 1
10
133.117655
20
84.852931
11
133.217138
21
83.956169
0
LINE
8
Layer 1
10
133.217138
20
83.956169
11
133.287694
21
83.169789
0
LINE
8
Layer 1
10
133.287694
20
83.169789
11
133.378886
21
83.055733
0
LINE
8
Layer 1
10
133.378886
20
83.055733
11
133.510017
21
83.120159
0
LINE
8
Layer 1
10
133.510017
20
83.120159
11
133.669234
21
83.658220
0
LINE
8
Layer 1
10
133.669234
20
83.658220
11
133.615057
21
84.587715
0
LINE
8
Layer 1
10
133.615057
20
84.587715
11
133.615057
21
84.587715
0
LINE
8
Layer 1
10
135.925924
20
84.609133
11
135.615461
21
85.132580
0
LINE
8
Layer 1
10
135.615461
20
85.132580
11
135.430093
21
85.762392
0
LINE
8
Layer 1
10
135.430093
20
85.762392
11
135.299912
21
86.239965
0
LINE
8
Layer 1
10
135.299912
20
86.239965
11
135.122138
21
86.397392
0
LINE
8
Layer 1
10
135.122138
20
86.397392
11
134.910472
21
86.185725
0
LINE
8
Layer 1
10
134.910472
20
86.185725
11
134.910472
21
84.780665
0
LINE
8
Layer 1
10
134.910472
20
84.780665
11
135.002526
21
83.723114
0
LINE
8
Layer 1
10
135.002526
20
83.723114
11
135.213017
21
83.676736
0
LINE
8
Layer 1
10
135.213017
20
83.676736
11
135.617969
21
83.839073
0
LINE
8
Layer 1
10
135.617969
20
83.839073
11
136.136483
21
84.182829
0
LINE
8
Layer 1
10
136.136483
20
84.182829
11
135.925924
21
84.609133
0
LINE
8
Layer 1
10
135.925924
20
84.609133
11
135.925924
21
84.609133
0
LINE
8
Layer 1
10
102.160239
20
86.679614
11
102.053668
21
86.829103
0
LINE
8
Layer 1
10
102.053668
20
86.829103
11
101.779956
21
86.891281
0
LINE
8
Layer 1
10
101.779956
20
86.891281
11
101.439470
21
86.678283
0
LINE
8
Layer 1
10
101.439470
20
86.678283
11
101.209833
21
86.126240
0
LINE
8
Layer 1
10
101.209833
20
86.126240
11
101.122535
21
85.365578
0
LINE
8
Layer 1
10
101.122535
20
85.365578
11
101.209066
21
84.526724
0
LINE
8
Layer 1
10
101.209066
20
84.526724
11
101.426146
21
83.940310
0
LINE
8
Layer 1
10
101.426146
20
83.940310
11
101.775522
21
85.056836
0
LINE
8
Layer 1
10
101.775522
20
85.056836
11
102.160239
21
86.679614
0
LINE
8
Layer 1
10
102.160239
20
86.679614
11
102.160239
21
86.679614
0
LINE
8
Layer 1
10
99.874598
20
86.189922
11
99.799504
21
87.253945
0
LINE
8
Layer 1
10
99.799504
20
87.253945
11
99.612535
21
87.584376
0
LINE
8
Layer 1
10
99.612535
20
87.584376
11
99.400504
21
87.013598
0
LINE
8
Layer 1
10
99.400504
20
87.013598
11
99.376961
21
86.011425
0
LINE
8
Layer 1
10
99.376961
20
86.011425
11
99.514031
21
85.058009
0
LINE
8
Layer 1
10
99.514031
20
85.058009
11
99.783841
21
84.633503
0
LINE
8
Layer 1
10
99.783841
20
84.633503
11
99.874598
21
86.189922
0
LINE
8
Layer 1
10
99.874598
20
86.189922
11
99.874598
21
86.189922
0
LINE
8
Layer 1
10
118.791169
20
85.217914
11
119.840542
21
85.648789
0
LINE
8
Layer 1
10
119.840542
20
85.648789
11
121.108823
21
85.727898
0
LINE
8
Layer 1
10
121.108823
20
85.727898
11
122.291771
21
85.787901
0
LINE
8
Layer 1
10
122.291771
20
85.787901
11
123.038799
21
86.169130
0
LINE
8
Layer 1
10
123.038799
20
86.169130
11
123.665654
21
86.520867
0
LINE
8
Layer 1
10
123.665654
20
86.520867
11
124.422103
21
86.519509
0
LINE
8
Layer 1
10
124.422103
20
86.519509
11
125.252406
21
86.561850
0
LINE
8
Layer 1
10
125.252406
20
86.561850
11
126.126398
21
87.224972
0
LINE
8
Layer 1
10
126.126398
20
87.224972
11
127.055961
21
87.916858
0
LINE
8
Layer 1
10
127.055961
20
87.916858
11
128.140440
21
87.942632
0
LINE
8
Layer 1
10
128.140440
20
87.942632
11
129.110565
21
87.924368
0
LINE
8
Layer 1
10
129.110565
20
87.924368
11
129.242903
21
88.148379
0
LINE
8
Layer 1
10
129.242903
20
88.148379
11
129.266027
21
88.601539
0
LINE
8
Layer 1
10
129.266027
20
88.601539
11
129.394312
21
89.187679
0
LINE
8
Layer 1
10
129.394312
20
89.187679
11
129.717692
21
89.631229
0
LINE
8
Layer 1
10
129.717692
20
89.631229
11
130.143956
21
89.850640
0
LINE
8
Layer 1
10
130.143956
20
89.850640
11
130.580892
21
89.764365
0
LINE
8
Layer 1
10
130.580892
20
89.764365
11
131.231146
21
88.488077
0
LINE
8
Layer 1
10
131.231146
20
88.488077
11
131.510219
21
87.831262
0
LINE
8
Layer 1
10
131.510219
20
87.831262
11
131.769490
21
87.671469
0
LINE
8
Layer 1
10
131.769490
20
87.671469
11
132.025744
21
88.014671
0
LINE
8
Layer 1
10
132.025744
20
88.014671
11
132.295765
21
88.866836
0
LINE
8
Layer 1
10
132.295765
20
88.866836
11
132.635539
21
89.606984
0
LINE
8
Layer 1
10
132.635539
20
89.606984
11
133.079810
21
89.890392
0
LINE
8
Layer 1
10
133.079810
20
89.890392
11
133.502819
21
89.703121
0
LINE
8
Layer 1
10
133.502819
20
89.703121
11
133.778811
21
89.031231
0
LINE
8
Layer 1
10
133.778811
20
89.031231
11
133.985875
21
88.353033
0
LINE
8
Layer 1
10
133.985875
20
88.353033
11
134.271454
21
88.146689
0
LINE
8
Layer 1
10
134.271454
20
88.146689
11
134.611722
21
88.410027
0
LINE
8
Layer 1
10
134.611722
20
88.410027
11
134.982856
21
89.140879
0
LINE
8
Layer 1
10
134.982856
20
89.140879
11
135.461742
21
90.017081
0
LINE
8
Layer 1
10
135.461742
20
90.017081
11
136.016656
21
90.277947
0
LINE
8
Layer 1
10
136.016656
20
90.277947
11
136.431330
21
90.178464
0
LINE
8
Layer 1
10
136.431330
20
90.178464
11
136.603805
21
89.939281
0
LINE
8
Layer 1
10
136.603805
20
89.939281
11
136.674360
21
89.744307
0
LINE
8
Layer 1
10
136.674360
20
89.744307
11
136.930511
21
89.927320
0
LINE
8
Layer 1
10
136.930511
20
89.927320
11
137.108648
21
90.277468
0
LINE
8
Layer 1
10
137.108648
20
90.277468
11
136.895981
21
90.689286
0
LINE
8
Layer 1
10
136.895981
20
90.689286
11
136.618477
21
91.830770
0
LINE
8
Layer 1
10
136.618477
20
91.830770
11
136.515077
21
94.440694
0
LINE
8
Layer 1
10
136.515077
20
94.440694
11
136.558546
21
96.608162
0
LINE
8
Layer 1
10
136.558546
20
96.608162
11
136.803572
21
98.105236
0
LINE
8
Layer 1
10
136.803572
20
98.105236
11
137.375069
21
99.351617
0
LINE
8
Layer 1
10
137.375069
20
99.351617
11
138.397951
21
100.767007
0
LINE
8
Layer 1
10
138.397951
20
100.767007
11
138.913943
21
101.238513
0
LINE
8
Layer 1
10
138.913943
20
101.238513
11
139.499514
21
101.510642
0
LINE
8
Layer 1
10
139.499514
20
101.510642
11
140.032631
21
101.549473
0
LINE
8
Layer 1
10
140.032631
20
101.549473
11
140.391264
21
101.321085
0
LINE
8
Layer 1
10
140.391264
20
101.321085
11
140.894048
21
101.098897
0
LINE
8
Layer 1
10
140.894048
20
101.098897
11
141.889587
21
100.909795
0
LINE
8
Layer 1
10
141.889587
20
100.909795
11
143.937754
21
100.558865
0
LINE
8
Layer 1
10
143.937754
20
100.558865
11
146.904916
21
99.835372
0
LINE
8
Layer 1
10
146.904916
20
99.835372
11
149.199273
21
99.399225
0
LINE
8
Layer 1
10
149.199273
20
99.399225
11
149.857025
21
99.348594
0
LINE
8
Layer 1
10
149.857025
20
99.348594
11
150.306515
21
99.436437
0
LINE
8
Layer 1
10
150.306515
20
99.436437
11
150.689865
21
99.727393
0
LINE
8
Layer 1
10
150.689865
20
99.727393
11
151.149197
21
100.286103
0
LINE
8
Layer 1
10
151.149197
20
100.286103
11
151.898232
21
101.046694
0
LINE
8
Layer 1
10
151.898232
20
101.046694
11
152.793816
21
101.644709
0
LINE
8
Layer 1
10
152.793816
20
101.644709
11
153.665886
21
101.989445
0
LINE
8
Layer 1
10
153.665886
20
101.989445
11
154.344376
21
101.990203
0
LINE
8
Layer 1
10
154.344376
20
101.990203
11
154.642165
21
102.041898
0
LINE
8
Layer 1
10
154.642165
20
102.041898
11
155.089469
21
102.322042
0
LINE
8
Layer 1
10
155.089469
20
102.322042
11
156.237843
21
103.365747
0
LINE
8
Layer 1
10
156.237843
20
103.365747
11
157.399950
21
104.717449
0
LINE
8
Layer 1
10
157.399950
20
104.717449
11
158.186241
21
105.973282
0
LINE
8
Layer 1
10
158.186241
20
105.973282
11
158.994224
21
107.689306
0
LINE
8
Layer 1
10
158.994224
20
107.689306
11
161.249501
21
110.279586
0
LINE
8
Layer 1
10
161.249501
20
110.279586
11
162.669195
21
111.680707
0
LINE
8
Layer 1
10
162.669195
20
111.680707
11
163.449790
21
112.291281
0
LINE
8
Layer 1
10
163.449790
20
112.291281
11
163.624480
21
112.667228
0
LINE
8
Layer 1
10
163.624480
20
112.667228
11
163.697138
21
113.571102
0
LINE
8
Layer 1
10
163.697138
20
113.571102
11
163.697138
21
114.850920
0
LINE
8
Layer 1
10
163.697138
20
114.850920
11
162.821236
21
113.853324
0
LINE
8
Layer 1
10
162.821236
20
113.853324
11
162.039962
21
113.148770
0
LINE
8
Layer 1
10
162.039962
20
113.148770
11
161.391572
21
112.855725
0
LINE
8
Layer 1
10
161.391572
20
112.855725
11
160.309046
21
112.572741
0
LINE
8
Layer 1
10
160.309046
20
112.572741
11
159.868511
21
112.430865
0
LINE
8
Layer 1
10
159.868511
20
112.430865
11
159.605387
21
112.572741
0
LINE
8
Layer 1
10
159.605387
20
112.572741
11
159.333804
21
112.772598
0
LINE
8
Layer 1
10
159.333804
20
112.772598
11
158.926445
21
112.855725
0
LINE
8
Layer 1
10
158.926445
20
112.855725
11
158.504485
21
112.970811
0
LINE
8
Layer 1
10
158.504485
20
112.970811
11
158.111606
21
113.293555
0
LINE
8
Layer 1
10
158.111606
20
113.293555
11
157.464459
21
114.426937
0
LINE
8
Layer 1
10
157.464459
20
114.426937
11
157.087750
21
115.985714
0
LINE
8
Layer 1
10
157.087750
20
115.985714
11
157.084223
21
117.699725
0
LINE
8
Layer 1
10
157.084223
20
117.699725
11
157.034309
21
120.167673
0
LINE
8
Layer 1
10
157.034309
20
120.167673
11
156.476093
21
124.215169
0
LINE
8
Layer 1
10
156.476093
20
124.215169
11
156.447636
21
125.032769
0
LINE
8
Layer 1
10
156.447636
20
125.032769
11
156.547452
21
125.222813
0
LINE
8
Layer 1
10
156.547452
20
125.222813
11
156.718822
21
125.267621
0
LINE
8
Layer 1
10
156.718822
20
125.267621
11
157.262793
21
124.923330
0
LINE
8
Layer 1
10
157.262793
20
124.923330
11
158.052694
21
124.003503
0
LINE
8
Layer 1
10
158.052694
20
124.003503
11
158.716416
21
123.183209
0
LINE
8
Layer 1
10
158.716416
20
123.183209
11
159.169380
21
122.808327
0
LINE
8
Layer 1
10
159.169380
20
122.808327
11
159.466891
21
122.854644
0
LINE
8
Layer 1
10
159.466891
20
122.854644
11
159.664253
21
123.297947
0
LINE
8
Layer 1
10
159.664253
20
123.297947
11
159.841734
21
123.696586
0
LINE
8
Layer 1
10
159.841734
20
123.696586
11
160.061165
21
123.862392
0
LINE
8
Layer 1
10
160.061165
20
123.862392
11
160.237237
21
123.943834
0
LINE
8
Layer 1
10
160.237237
20
123.943834
11
160.310472
21
124.139644
0
LINE
8
Layer 1
10
160.310472
20
124.139644
11
161.461267
21
126.297069
0
LINE
8
Layer 1
10
161.461267
20
126.297069
11
163.381590
21
129.879748
0
LINE
8
Layer 1
10
163.381590
20
129.879748
11
164.019095
21
131.375451
0
LINE
8
Layer 1
10
164.019095
20
131.375451
11
164.261583
21
132.289090
0
LINE
8
Layer 1
10
164.261583
20
132.289090
11
164.472874
21
133.010718
0
LINE
8
Layer 1
10
164.472874
20
133.010718
11
164.744483
21
133.763136
0
LINE
8
Layer 1
10
164.744483
20
133.763136
11
165.031320
21
135.244360
0
LINE
8
Layer 1
10
165.031320
20
135.244360
11
165.368176
21
138.622518
0
LINE
8
Layer 1
10
165.368176
20
138.622518
11
165.259006
21
140.063497
0
LINE
8
Layer 1
10
165.259006
20
140.063497
11
164.920253
21
141.162518
0
LINE
8
Layer 1
10
164.920253
20
141.162518
11
164.676192
21
141.899955
0
LINE
8
Layer 1
10
164.676192
20
141.899955
11
164.528110
21
143.249518
0
LINE
8
Layer 1
10
164.528110
20
143.249518
11
164.413503
21
149.544614
0
LINE
8
Layer 1
10
164.413503
20
149.544614
11
164.321276
21
154.719665
0
LINE
8
Layer 1
10
164.321276
20
154.719665
11
164.037014
21
158.372658
0
LINE
8
Layer 1
10
164.037014
20
158.372658
11
163.458555
21
161.280518
0
LINE
8
Layer 1
10
163.458555
20
161.280518
11
162.483738
21
164.220169
0
LINE
8
Layer 1
10
162.483738
20
164.220169
11
161.764426
21
165.891978
0
LINE
8
Layer 1
10
161.764426
20
165.891978
11
160.868352
21
167.558040
0
LINE
8
Layer 1
10
160.868352
20
167.558040
11
158.581674
21
170.844445
0
LINE
8
Layer 1
10
158.581674
20
170.844445
11
155.695221
21
174.022427
0
LINE
8
Layer 1
10
155.695221
20
174.022427
11
152.280507
21
177.035031
0
LINE
8
Layer 1
10
152.280507
20
177.035031
11
148.409049
21
179.825299
0
LINE
8
Layer 1
10
148.409049
20
179.825299
11
144.152361
21
182.336275
0
LINE
8
Layer 1
10
144.152361
20
182.336275
11
139.581960
21
184.511003
0
LINE
8
Layer 1
10
139.581960
20
184.511003
11
134.769360
21
186.292527
0
LINE
8
Layer 1
10
134.769360
20
186.292527
11
131.451327
21
187.217725
0
LINE
8
Layer 1
10
131.451327
20
187.217725
11
128.062523
21
187.824414
0
LINE
8
Layer 1
10
128.062523
20
187.824414
11
124.005472
21
188.190664
0
LINE
8
Layer 1
10
124.005472
20
188.190664
11
118.682694
21
188.394549
0
LINE
8
Layer 1
10
118.682694
20
188.394549
11
113.885041
21
188.432133
0
LINE
8
Layer 1
10
113.885041
20
188.432133
11
109.858133
21
188.250935
0
LINE
8
Layer 1
10
109.858133
20
188.250935
11
105.974895
21
187.800914
0
LINE
8
Layer 1
10
105.974895
20
187.800914
11
101.608249
21
187.032031
0
LINE
8
Layer 1
10
101.608249
20
187.032031
11
98.459637
21
186.190808
0
LINE
8
Layer 1
10
98.459637
20
186.190808
11
96.401249
21
185.353971
0
LINE
8
Layer 1
10
96.401249
20
185.353971
11
95.753504
21
185.104617
0
LINE
8
Layer 1
10
95.753504
20
185.104617
11
94.714734
21
184.630168
0
LINE
8
Layer 1
10
94.714734
20
184.630168
11
92.929385
21
183.431417
0
LINE
8
Layer 1
10
92.929385
20
183.431417
11
90.863358
21
181.845253
0
LINE
8
Layer 1
10
90.863358
20
181.845253
11
88.982553
21
180.208569
0
LINE
8
Layer 1
10
88.982553
20
180.208569
11
85.453956
21
176.430089
0
LINE
8
Layer 1
10
85.453956
20
176.430089
11
81.383537
21
171.496867
0
LINE
8
Layer 1
10
81.383537
20
171.496867
11
77.796893
21
166.710729
0
LINE
8
Layer 1
10
77.796893
20
166.710729
11
76.505487
21
164.779638
0
LINE
8
Layer 1
10
76.505487
20
164.779638
11
75.719624
21
163.373503
0
LINE
8
Layer 1
10
75.719624
20
163.373503
11
75.025615
21
161.803808
0
LINE
8
Layer 1
10
75.025615
20
161.803808
11
74.599242
21
160.559221
0
LINE
8
Layer 1
10
74.599242
20
160.559221
11
73.680718
21
155.832463
0
LINE
8
Layer 1
10
73.680718
20
155.832463
11
73.464432
21
152.429655
0
LINE
8
Layer 1
10
73.464432
20
152.429655
11
73.404216
21
146.378018
0
LINE
8
Layer 1
10
73.404216
20
146.378018
11
73.441060
21
138.679058
0
LINE
8
Layer 1
10
73.441060
20
138.679058
11
74.627853
21
138.773603
0
LINE
8
Layer 1
10
74.627853
20
138.773603
11
75.298689
21
138.784100
0
LINE
8
Layer 1
10
75.298689
20
138.784100
11
75.862216
21
138.651474
0
LINE
8
Layer 1
10
75.862216
20
138.651474
11
77.275769
21
137.713195
0
LINE
8
Layer 1
10
77.275769
20
137.713195
11
78.475977
21
136.587235
0
LINE
8
Layer 1
10
78.475977
20
136.587235
11
79.309793
21
135.501984
0
LINE
8
Layer 1
10
79.309793
20
135.501984
11
79.882690
21
134.445725
0
LINE
8
Layer 1
10
79.882690
20
134.445725
11
79.698943
21
135.856836
0
LINE
8
Layer 1
10
79.698943
20
135.856836
11
79.426853
21
137.000881
0
LINE
8
Layer 1
10
79.426853
20
137.000881
11
78.848151
21
138.588196
0
LINE
8
Layer 1
10
78.848151
20
138.588196
11
76.747404
21
143.150728
0
LINE
8
Layer 1
10
76.747404
20
143.150728
11
76.366625
21
144.199338
0
LINE
8
Layer 1
10
76.366625
20
144.199338
11
76.208249
21
145.196839
0
LINE
8
Layer 1
10
76.208249
20
145.196839
11
76.338840
21
145.981941
0
LINE
8
Layer 1
10
76.338840
20
145.981941
11
76.490135
21
146.139123
0
LINE
8
Layer 1
10
76.490135
20
146.139123
11
76.688148
21
146.142890
0
LINE
8
Layer 1
10
76.688148
20
146.142890
11
77.192477
21
145.700673
0
LINE
8
Layer 1
10
77.192477
20
145.700673
11
77.788132
21
144.676281
0
LINE
8
Layer 1
10
77.788132
20
144.676281
11
79.751039
21
141.219058
0
LINE
8
Layer 1
10
79.751039
20
141.219058
11
80.837591
21
139.424710
0
LINE
8
Layer 1
10
80.837591
20
139.424710
11
81.580801
21
137.914715
0
LINE
8
Layer 1
10
81.580801
20
137.914715
11
82.108001
21
136.384339
0
LINE
8
Layer 1
10
82.108001
20
136.384339
11
82.546523
21
134.528845
0
LINE
8
Layer 1
10
82.546523
20
134.528845
11
82.450209
21
133.334715
0
LINE
8
Layer 1
10
82.450209
20
133.334715
11
81.957323
21
131.568134
0
LINE
8
Layer 1
10
81.957323
20
131.568134
11
81.226164
21
129.699259
0
LINE
8
Layer 1
10
81.226164
20
129.699259
11
80.415034
21
128.198248
0
LINE
8
Layer 1
10
80.415034
20
128.198248
11
79.594916
21
126.699126
0
LINE
8
Layer 1
10
79.594916
20
126.699126
11
78.859784
21
124.986085
0
LINE
8
Layer 1
10
78.859784
20
124.986085
11
78.405494
21
124.248972
0
LINE
8
Layer 1
10
78.405494
20
124.248972
11
77.974178
21
123.788079
0
LINE
8
Layer 1
10
77.974178
20
123.788079
11
77.584307
21
123.592060
0
LINE
8
Layer 1
10
77.584307
20
123.592060
11
77.254351
21
123.649569
0
LINE
8
Layer 1
10
77.254351
20
123.649569
11
77.002780
21
123.949261
0
LINE
8
Layer 1
10
77.002780
20
123.949261
11
76.848067
21
124.479790
0
LINE
8
Layer 1
10
76.848067
20
124.479790
11
76.903092
21
126.187976
0
LINE
8
Layer 1
10
76.903092
20
126.187976
11
77.077707
21
128.598779
0
LINE
8
Layer 1
10
77.077707
20
128.598779
11
76.858752
21
132.279627
0
LINE
8
Layer 1
10
76.858752
20
132.279627
11
76.631583
21
134.911307
0
LINE
8
Layer 1
10
76.631583
20
134.911307
11
75.086029
21
136.442405
0
LINE
8
Layer 1
10
75.086029
20
136.442405
11
73.352736
21
137.973503
0
LINE
8
Layer 1
10
73.352736
20
137.973503
11
73.168378
21
137.746082
0
LINE
8
Layer 1
10
73.168378
20
137.746082
11
73.038432
21
137.118179
0
LINE
8
Layer 1
10
73.038432
20
137.118179
11
72.940563
21
134.987084
0
LINE
8
Layer 1
10
72.940563
20
134.987084
11
73.056689
21
132.232532
0
LINE
8
Layer 1
10
73.056689
20
132.232532
11
73.384373
21
129.506836
0
LINE
8
Layer 1
10
73.384373
20
129.506836
11
74.489241
21
125.751697
0
LINE
8
Layer 1
10
74.489241
20
125.751697
11
76.010874
21
122.027947
0
LINE
8
Layer 1
10
76.010874
20
122.027947
11
76.681403
21
120.733030
0
LINE
8
Layer 1
10
76.681403
20
120.733030
11
77.617264
21
119.489844
0
LINE
8
Layer 1
10
77.617264
20
119.489844
11
78.112912
21
119.171171
0
LINE
8
Layer 1
10
78.112912
20
119.171171
11
78.211937
21
119.938094
0
LINE
8
Layer 1
10
78.211937
20
119.938094
11
78.476150
21
121.674784
0
LINE
8
Layer 1
10
78.476150
20
121.674784
11
78.745396
21
122.174662
0
LINE
8
Layer 1
10
78.745396
20
122.174662
11
79.094358
21
122.396270
0
LINE
8
Layer 1
10
79.094358
20
122.396270
11
79.558653
21
122.295787
0
LINE
8
Layer 1
10
79.558653
20
122.295787
11
79.883235
21
121.890042
0
LINE
8
Layer 1
10
79.883235
20
121.890042
11
80.004298
21
121.318906
0
LINE
8
Layer 1
10
80.004298
20
121.318906
11
79.858032
21
120.722249
0
LINE
8
Layer 1
10
79.858032
20
120.722249
11
79.678904
21
120.103462
0
LINE
8
Layer 1
10
79.678904
20
120.103462
11
79.848103
21
119.438968
0
LINE
8
Layer 1
10
79.848103
20
119.438968
11
80.159360
21
118.080211
0
LINE
8
Layer 1
10
80.159360
20
118.080211
11
80.233103
21
117.557480
0
LINE
8
Layer 1
10
80.233103
20
117.557480
11
80.410400
21
117.249442
0
LINE
8
Layer 1
10
80.410400
20
117.249442
11
80.743636
21
116.472315
0
LINE
8
Layer 1
10
80.743636
20
116.472315
11
81.184123
21
113.950623
0
LINE
8
Layer 1
10
81.184123
20
113.950623
11
81.189251
21
113.115618
0
LINE
8
Layer 1
10
81.189251
20
113.115618
11
80.977773
21
112.273991
0
LINE
8
Layer 1
10
80.977773
20
112.273991
11
80.579389
21
111.504218
0
LINE
8
Layer 1
10
80.579389
20
111.504218
11
80.023801
21
110.884778
0
LINE
8
Layer 1
10
80.023801
20
110.884778
11
79.189276
21
110.600154
0
LINE
8
Layer 1
10
79.189276
20
110.600154
11
77.889709
21
110.530441
0
LINE
8
Layer 1
10
77.889709
20
110.530441
11
76.502622
21
110.666339
0
LINE
8
Layer 1
10
76.502622
20
110.666339
11
75.405542
21
110.998548
0
LINE
8
Layer 1
10
75.405542
20
110.998548
11
74.736629
21
111.498254
0
LINE
8
Layer 1
10
74.736629
20
111.498254
11
74.503510
21
112.019395
0
LINE
8
Layer 1
10
74.503510
20
112.019395
11
74.708834
21
112.469395
0
LINE
8
Layer 1
10
74.708834
20
112.469395
11
75.355252
21
112.755680
0
LINE
8
Layer 1
10
75.355252
20
112.755680
11
76.056094
21
112.984228
0
LINE
8
Layer 1
10
76.056094
20
112.984228
11
76.518988
21
113.312555
0
LINE
8
Layer 1
10
76.518988
20
113.312555
11
76.694941
21
113.686779
0
LINE
8
Layer 1
10
76.694941
20
113.686779
11
76.534955
21
114.053019
0
LINE
8
Layer 1
10
76.534955
20
114.053019
11
76.208249
21
114.843983
0
LINE
8
Layer 1
10
76.208249
20
114.843983
11
76.042444
21
115.321919
0
LINE
8
Layer 1
10
76.042444
20
115.321919
11
75.643805
21
115.819058
0
LINE
8
Layer 1
10
75.643805
20
115.819058
11
75.321311
21
116.091011
0
LINE
8
Layer 1
10
75.321311
20
116.091011
11
75.153316
21
116.117148
0
LINE
8
Layer 1
10
75.153316
20
116.117148
11
75.079360
21
115.217138
0
LINE
8
Layer 1
10
75.079360
20
115.217138
11
74.893890
21
114.134520
0
LINE
8
Layer 1
10
74.893890
20
114.134520
11
74.244163
21
113.127288
0
LINE
8
Layer 1
10
74.244163
20
113.127288
11
73.763935
21
112.479926
0
LINE
8
Layer 1
10
73.763935
20
112.479926
11
73.484905
21
111.872797
0
LINE
8
Layer 1
10
73.484905
20
111.872797
11
73.417605
21
111.282079
0
LINE
8
Layer 1
10
73.417605
20
111.282079
11
73.572566
21
110.683953
0
LINE
8
Layer 1
10
73.572566
20
110.683953
11
73.960319
21
110.054600
0
LINE
8
Layer 1
10
73.960319
20
110.054600
11
74.591396
21
109.370201
0
LINE
8
Layer 1
10
74.591396
20
109.370201
11
76.625648
21
107.740983
0
LINE
8
Layer 1
10
76.625648
20
107.740983
11
80.765881
21
104.756179
0
LINE
8
Layer 1
10
80.765881
20
104.756179
11
82.232967
21
103.537241
0
LINE
8
Layer 1
10
82.232967
20
103.537241
11
83.125101
21
102.509227
0
LINE
8
Layer 1
10
83.125101
20
102.509227
11
84.656160
21
100.423799
0
LINE
8
Layer 1
10
84.656160
20
100.423799
11
85.691711
21
99.448061
0
LINE
8
Layer 1
10
85.691711
20
99.448061
11
86.118375
21
99.351141
0
LINE
8
Layer 1
10
86.118375
20
99.351141
11
86.671384
21
99.421834
0
LINE
8
Layer 1
10
86.671384
20
99.421834
11
89.883806
21
99.907818
0
LINE
8
Layer 1
10
89.883806
20
99.907818
11
91.918432
21
99.852573
0
LINE
8
Layer 1
10
91.918432
20
99.852573
11
93.847138
21
99.422085
0
LINE
8
Layer 1
10
93.847138
20
99.422085
11
94.868039
21
99.028632
0
LINE
8
Layer 1
10
94.868039
20
99.028632
11
95.901490
21
98.336083
0
LINE
8
Layer 1
10
95.901490
20
98.336083
11
96.891269
21
97.389978
0
LINE
8
Layer 1
10
96.891269
20
97.389978
11
97.781150
21
96.235853
0
LINE
8
Layer 1
10
97.781150
20
96.235853
11
98.585559
21
94.744633
0
LINE
8
Layer 1
10
98.585559
20
94.744633
11
98.786027
21
93.343075
0
LINE
8
Layer 1
10
98.786027
20
93.343075
11
98.703124
21
92.374245
0
LINE
8
Layer 1
10
98.703124
20
92.374245
11
98.503805
21
91.971281
0
LINE
8
Layer 1
10
98.503805
20
91.971281
11
98.304485
21
91.639669
0
LINE
8
Layer 1
10
98.304485
20
91.639669
11
98.221583
21
90.842392
0
LINE
8
Layer 1
10
98.221583
20
90.842392
11
98.240594
21
90.204381
0
LINE
8
Layer 1
10
98.240594
20
90.204381
11
98.351715
21
89.867617
0
LINE
8
Layer 1
10
98.351715
20
89.867617
11
98.636075
21
89.736018
0
LINE
8
Layer 1
10
98.636075
20
89.736018
11
99.174805
21
89.713503
0
LINE
8
Layer 1
10
99.174805
20
89.713503
11
99.954627
21
89.585044
0
LINE
8
Layer 1
10
99.954627
20
89.585044
11
100.490954
21
89.276199
0
LINE
8
Layer 1
10
100.490954
20
89.276199
11
101.940255
21
88.353738
0
LINE
8
Layer 1
10
101.940255
20
88.353738
11
103.475544
21
87.737947
0
LINE
8
Layer 1
10
103.475544
20
87.737947
11
104.187732
21
87.278882
0
LINE
8
Layer 1
10
104.187732
20
87.278882
11
104.832471
21
86.961217
0
LINE
8
Layer 1
10
104.832471
20
86.961217
11
105.957706
21
87.137771
0
LINE
8
Layer 1
10
105.957706
20
87.137771
11
107.856575
21
87.443558
0
LINE
8
Layer 1
10
107.856575
20
87.443558
11
108.445659
21
87.407846
0
LINE
8
Layer 1
10
108.445659
20
87.407846
11
108.663805
21
87.241391
0
LINE
8
Layer 1
10
108.663805
20
87.241391
11
108.854002
21
86.903684
0
LINE
8
Layer 1
10
108.854002
20
86.903684
11
109.296067
21
86.625730
0
LINE
8
Layer 1
10
109.296067
20
86.625730
11
109.797208
21
86.491730
0
LINE
8
Layer 1
10
109.797208
20
86.491730
11
110.164634
21
86.585888
0
LINE
8
Layer 1
10
110.164634
20
86.585888
11
110.609904
21
86.835497
0
LINE
8
Layer 1
10
110.609904
20
86.835497
11
111.180354
21
86.864296
0
LINE
8
Layer 1
10
111.180354
20
86.864296
11
111.815754
21
86.680049
0
LINE
8
Layer 1
10
111.815754
20
86.680049
11
112.455873
21
86.290520
0
LINE
8
Layer 1
10
112.455873
20
86.290520
11
113.121005
21
85.893382
0
LINE
8
Layer 1
10
113.121005
20
85.893382
11
113.538155
21
86.008297
0
LINE
8
Layer 1
10
113.538155
20
86.008297
11
114.256568
21
86.282828
0
LINE
8
Layer 1
10
114.256568
20
86.282828
11
115.234519
21
86.153481
0
LINE
8
Layer 1
10
115.234519
20
86.153481
11
116.212957
21
85.697733
0
LINE
8
Layer 1
10
116.212957
20
85.697733
11
116.932829
21
84.993057
0
LINE
8
Layer 1
10
116.932829
20
84.993057
11
117.200689
21
84.721648
0
LINE
8
Layer 1
10
117.200689
20
84.721648
11
117.565659
21
84.664535
0
LINE
8
Layer 1
10
117.565659
20
84.664535
11
118.791169
21
85.217914
0
LINE
8
Layer 1
10
118.791169
20
85.217914
11
118.791169
21
85.217914
0
LINE
8
Layer 1
10
118.177191
20
89.889745
11
117.977138
21
91.814410
0
LINE
8
Layer 1
10
117.977138
20
91.814410
11
118.068301
21
93.020685
0
LINE
8
Layer 1
10
118.068301
20
93.020685
11
118.323793
21
93.962438
0
LINE
8
Layer 1
10
118.323793
20
93.962438
11
118.716619
21
94.574950
0
LINE
8
Layer 1
10
118.716619
20
94.574950
11
119.219782
21
94.793503
0
LINE
8
Layer 1
10
119.219782
20
94.793503
11
120.544333
21
95.274404
0
LINE
8
Layer 1
10
120.544333
20
95.274404
11
121.504916
21
95.755305
0
LINE
8
Layer 1
10
121.504916
20
95.755305
11
120.517138
21
96.010981
0
LINE
8
Layer 1
10
120.517138
20
96.010981
11
118.047694
21
96.402866
0
LINE
8
Layer 1
10
118.047694
20
96.402866
11
116.841951
21
96.427629
0
LINE
8
Layer 1
10
116.841951
20
96.427629
11
116.623196
21
96.306974
0
LINE
8
Layer 1
10
116.623196
20
96.306974
11
116.566027
21
96.076835
0
LINE
8
Layer 1
10
116.566027
20
96.076835
11
116.491245
21
95.875313
0
LINE
8
Layer 1
10
116.491245
20
95.875313
11
116.274771
21
95.764575
0
LINE
8
Layer 1
10
116.274771
20
95.764575
11
115.463996
21
95.805830
0
LINE
8
Layer 1
10
115.463996
20
95.805830
11
114.228192
21
96.181357
0
LINE
8
Layer 1
10
114.228192
20
96.181357
11
112.661850
21
96.871914
0
LINE
8
Layer 1
10
112.661850
20
96.871914
11
111.553522
21
97.488489
0
LINE
8
Layer 1
10
111.553522
20
97.488489
11
110.811003
21
98.121888
0
LINE
8
Layer 1
10
110.811003
20
98.121888
11
110.291297
21
98.936109
0
LINE
8
Layer 1
10
110.291297
20
98.936109
11
109.851407
21
100.095152
0
LINE
8
Layer 1
10
109.851407
20
100.095152
11
109.730288
21
100.877381
0
LINE
8
Layer 1
10
109.730288
20
100.877381
11
109.795436
21
101.842291
0
LINE
8
Layer 1
10
109.795436
20
101.842291
11
110.427457
21
104.167287
0
LINE
8
Layer 1
10
110.427457
20
104.167287
11
111.633314
21
106.764414
0
LINE
8
Layer 1
10
111.633314
20
106.764414
11
113.298853
21
109.327947
0
LINE
8
Layer 1
10
113.298853
20
109.327947
11
114.948893
21
111.827744
0
LINE
8
Layer 1
10
114.948893
20
111.827744
11
115.438347
21
112.913995
0
LINE
8
Layer 1
10
115.438347
20
112.913995
11
115.753357
21
113.984614
0
LINE
8
Layer 1
10
115.753357
20
113.984614
11
116.158672
21
115.782534
0
LINE
8
Layer 1
10
116.158672
20
115.782534
11
116.485462
21
116.651954
0
LINE
8
Layer 1
10
116.485462
20
116.651954
11
116.975480
21
116.933547
0
LINE
8
Layer 1
10
116.975480
20
116.933547
11
117.870484
21
116.967985
0
LINE
8
Layer 1
10
117.870484
20
116.967985
11
119.138349
21
116.860417
0
LINE
8
Layer 1
10
119.138349
20
116.860417
11
120.012852
21
116.408282
0
LINE
8
Layer 1
10
120.012852
20
116.408282
11
120.597825
21
115.618362
0
LINE
8
Layer 1
10
120.597825
20
115.618362
11
121.224499
21
114.345256
0
LINE
8
Layer 1
10
121.224499
20
114.345256
11
121.724199
21
112.983532
0
LINE
8
Layer 1
10
121.724199
20
112.983532
11
121.928249
21
111.927759
0
LINE
8
Layer 1
10
121.928249
20
111.927759
11
122.652906
21
109.829882
0
LINE
8
Layer 1
10
122.652906
20
109.829882
11
123.747279
21
107.167411
0
LINE
8
Layer 1
10
123.747279
20
107.167411
11
124.587122
21
104.712232
0
LINE
8
Layer 1
10
124.587122
20
104.712232
11
125.124297
21
102.623202
0
LINE
8
Layer 1
10
125.124297
20
102.623202
11
125.310666
21
101.059178
0
LINE
8
Layer 1
10
125.310666
20
101.059178
11
125.079756
21
99.493163
0
LINE
8
Layer 1
10
125.079756
20
99.493163
11
124.459066
21
98.084837
0
LINE
8
Layer 1
10
124.459066
20
98.084837
11
123.537174
21
96.978593
0
LINE
8
Layer 1
10
123.537174
20
96.978593
11
122.402659
21
96.318824
0
LINE
8
Layer 1
10
122.402659
20
96.318824
11
122.043014
21
96.127250
0
LINE
8
Layer 1
10
122.043014
20
96.127250
11
122.347465
21
95.819191
0
LINE
8
Layer 1
10
122.347465
20
95.819191
11
122.645531
21
95.433692
0
LINE
8
Layer 1
10
122.645531
20
95.433692
11
122.554216
21
94.942837
0
LINE
8
Layer 1
10
122.554216
20
94.942837
11
122.042177
21
94.287064
0
LINE
8
Layer 1
10
122.042177
20
94.287064
11
121.078075
21
93.406812
0
LINE
8
Layer 1
10
121.078075
20
93.406812
11
119.927353
21
92.240657
0
LINE
8
Layer 1
10
119.927353
20
92.240657
11
119.708213
21
91.715506
0
LINE
8
Layer 1
10
119.708213
20
91.715506
11
119.615986
21
91.050807
0
LINE
8
Layer 1
10
119.615986
20
91.050807
11
119.431054
21
90.078316
0
LINE
8
Layer 1
10
119.431054
20
90.078316
11
119.240993
21
89.865507
0
LINE
8
Layer 1
10
119.240993
20
89.865507
11
118.953303
21
89.772154
0
LINE
8
Layer 1
10
118.953303
20
89.772154
11
118.177191
21
89.889745
0
LINE
8
Layer 1
10
118.177191
20
89.889745
11
118.177191
21
89.889745
0
LINE
8
Layer 1
10
114.167138
20
91.915719
11
113.258294
21
93.051948
0
LINE
8
Layer 1
10
113.258294
20
93.051948
11
112.262138
21
93.923234
0
LINE
8
Layer 1
10
112.262138
20
93.923234
11
111.465805
21
94.595699
0
LINE
8
Layer 1
10
111.465805
20
94.595699
11
111.203805
21
95.247466
0
LINE
8
Layer 1
10
111.203805
20
95.247466
11
111.287091
21
95.786605
0
LINE
8
Layer 1
10
111.287091
20
95.786605
11
111.547406
21
96.054470
0
LINE
8
Layer 1
10
111.547406
20
96.054470
11
112.000437
21
96.057005
0
LINE
8
Layer 1
10
112.000437
20
96.057005
11
112.661869
21
95.800158
0
LINE
8
Layer 1
10
112.661869
20
95.800158
11
113.513733
21
95.487847
0
LINE
8
Layer 1
10
113.513733
20
95.487847
11
114.317052
21
95.357947
0
LINE
8
Layer 1
10
114.317052
20
95.357947
11
114.911721
21
95.276734
0
LINE
8
Layer 1
10
114.911721
20
95.276734
11
115.331885
21
95.000269
0
LINE
8
Layer 1
10
115.331885
20
95.000269
11
115.621363
21
94.479309
0
LINE
8
Layer 1
10
115.621363
20
94.479309
11
115.823977
21
93.664614
0
LINE
8
Layer 1
10
115.823977
20
93.664614
11
116.246260
21
90.885166
0
LINE
8
Layer 1
10
116.246260
20
90.885166
11
116.096477
21
90.590419
0
LINE
8
Layer 1
10
116.096477
20
90.590419
11
115.685965
21
90.575494
0
LINE
8
Layer 1
10
115.685965
20
90.575494
11
114.973692
21
90.891842
0
LINE
8
Layer 1
10
114.973692
20
90.891842
11
114.167138
21
91.915719
0
LINE
8
Layer 1
10
114.167138
20
91.915719
11
114.167138
21
91.915719
0
LINE
8
Layer 1
10
143.659360
20
108.632696
11
141.683805
21
109.208037
0
LINE
8
Layer 1
10
141.683805
20
109.208037
11
138.749218
21
110.119836
0
LINE
8
Layer 1
10
138.749218
20
110.119836
11
138.232925
21
110.471995
0
LINE
8
Layer 1
10
138.232925
20
110.471995
11
138.060647
21
110.889579
0
LINE
8
Layer 1
10
138.060647
20
110.889579
11
138.038421
21
111.241706
0
LINE
8
Layer 1
10
138.038421
20
111.241706
11
138.185903
21
111.407842
0
LINE
8
Layer 1
10
138.185903
20
111.407842
11
139.450019
21
111.326958
0
LINE
8
Layer 1
10
139.450019
20
111.326958
11
141.431845
21
110.863973
0
LINE
8
Layer 1
10
141.431845
20
110.863973
11
142.070022
21
110.688151
0
LINE
8
Layer 1
10
142.070022
20
110.688151
11
143.057895
21
110.606273
0
LINE
8
Layer 1
10
143.057895
20
110.606273
11
145.593409
21
110.684146
0
LINE
8
Layer 1
10
145.593409
20
110.684146
11
148.059750
21
111.017192
0
LINE
8
Layer 1
10
148.059750
20
111.017192
11
148.961157
21
111.254281
0
LINE
8
Layer 1
10
148.961157
20
111.254281
11
149.478280
21
111.525013
0
LINE
8
Layer 1
10
149.478280
20
111.525013
11
150.167662
21
111.726836
0
LINE
8
Layer 1
10
150.167662
20
111.726836
11
150.804616
21
111.975125
0
LINE
8
Layer 1
10
150.804616
20
111.975125
11
151.542944
21
112.571120
0
LINE
8
Layer 1
10
151.542944
20
112.571120
11
152.153778
21
113.291511
0
LINE
8
Layer 1
10
152.153778
20
113.291511
11
152.408249
21
113.912991
0
LINE
8
Layer 1
10
152.408249
20
113.912991
11
152.545020
21
114.393271
0
LINE
8
Layer 1
10
152.545020
20
114.393271
11
152.886536
21
114.875338
0
LINE
8
Layer 1
10
152.886536
20
114.875338
11
153.329603
21
115.246915
0
LINE
8
Layer 1
10
153.329603
20
115.246915
11
153.771027
21
115.395725
0
LINE
8
Layer 1
10
153.771027
20
115.395725
11
154.013882
21
115.034817
0
LINE
8
Layer 1
10
154.013882
20
115.034817
11
154.101583
21
114.035414
0
LINE
8
Layer 1
10
154.101583
20
114.035414
11
153.852303
21
112.697477
0
LINE
8
Layer 1
10
153.852303
20
112.697477
11
153.100105
21
111.467929
0
LINE
8
Layer 1
10
153.100105
20
111.467929
11
151.838451
21
110.339116
0
LINE
8
Layer 1
10
151.838451
20
110.339116
11
150.060804
21
109.303380
0
LINE
8
Layer 1
10
150.060804
20
109.303380
11
148.103612
21
108.520942
0
LINE
8
Layer 1
10
148.103612
20
108.520942
11
146.223268
21
108.370192
0
LINE
8
Layer 1
10
146.223268
20
108.370192
11
143.659360
21
108.632696
0
LINE
8
Layer 1
10
143.659360
20
108.632696
11
143.659360
21
108.632696
0
LINE
8
Layer 1
10
89.049360
20
109.186836
11
87.564618
21
109.449221
0
LINE
8
Layer 1
10
87.564618
20
109.449221
11
86.438481
21
109.650532
0
LINE
8
Layer 1
10
86.438481
20
109.650532
11
85.226533
21
110.164907
0
LINE
8
Layer 1
10
85.226533
20
110.164907
11
84.054069
21
110.925357
0
LINE
8
Layer 1
10
84.054069
20
110.925357
11
83.046384
21
111.864894
0
LINE
8
Layer 1
10
83.046384
20
111.864894
11
82.228723
21
113.082254
0
LINE
8
Layer 1
10
82.228723
20
113.082254
11
81.561163
21
114.546905
0
LINE
8
Layer 1
10
81.561163
20
114.546905
11
81.192623
21
115.859646
0
LINE
8
Layer 1
10
81.192623
20
115.859646
11
81.167024
21
116.334300
0
LINE
8
Layer 1
10
81.167024
20
116.334300
11
81.272024
21
116.621278
0
LINE
8
Layer 1
10
81.272024
20
116.621278
11
81.640998
21
116.783574
0
LINE
8
Layer 1
10
81.640998
20
116.783574
11
82.060515
21
116.643038
0
LINE
8
Layer 1
10
82.060515
20
116.643038
11
82.476256
21
116.235325
0
LINE
8
Layer 1
10
82.476256
20
116.235325
11
82.833901
21
115.596089
0
LINE
8
Layer 1
10
82.833901
20
115.596089
11
83.635001
21
114.368998
0
LINE
8
Layer 1
10
83.635001
20
114.368998
11
84.876664
21
113.108112
0
LINE
8
Layer 1
10
84.876664
20
113.108112
11
86.203672
21
112.123900
0
LINE
8
Layer 1
10
86.203672
20
112.123900
11
87.260808
21
111.726836
0
LINE
8
Layer 1
10
87.260808
20
111.726836
11
88.710217
21
111.152917
0
LINE
8
Layer 1
10
88.710217
20
111.152917
11
89.431994
21
110.862638
0
LINE
8
Layer 1
10
89.431994
20
110.862638
11
90.245970
21
110.693890
0
LINE
8
Layer 1
10
90.245970
20
110.693890
11
92.954819
21
110.620014
0
LINE
8
Layer 1
10
92.954819
20
110.620014
11
94.833561
21
110.591528
0
LINE
8
Layer 1
10
94.833561
20
110.591528
11
96.021275
21
110.444286
0
LINE
8
Layer 1
10
96.021275
20
110.444286
11
96.530313
21
110.175259
0
LINE
8
Layer 1
10
96.530313
20
110.175259
11
96.373027
21
109.781416
0
LINE
8
Layer 1
10
96.373027
20
109.781416
11
95.892365
21
109.527933
0
LINE
8
Layer 1
10
95.892365
20
109.527933
11
95.087626
21
109.309413
0
LINE
8
Layer 1
10
95.087626
20
109.309413
11
92.905615
21
109.009716
0
LINE
8
Layer 1
10
92.905615
20
109.009716
11
90.626393
21
108.947223
0
LINE
8
Layer 1
10
90.626393
20
108.947223
11
89.049360
21
109.186836
0
LINE
8
Layer 1
10
89.049360
20
109.186836
11
89.049360
21
109.186836
0
LINE
8
Layer 1
10
90.301214
20
112.686451
11
88.356412
21
113.441092
0
LINE
8
Layer 1
10
88.356412
20
113.441092
11
86.847631
21
114.474399
0
LINE
8
Layer 1
10
86.847631
20
114.474399
11
85.776450
21
115.784939
0
LINE
8
Layer 1
10
85.776450
20
115.784939
11
85.144443
21
117.371281
0
LINE
8
Layer 1
10
85.144443
20
117.371281
11
84.646759
21
120.809630
0
LINE
8
Layer 1
10
84.646759
20
120.809630
11
84.243463
21
125.696836
0
LINE
8
Layer 1
10
84.243463
20
125.696836
11
84.237326
21
128.066702
0
LINE
8
Layer 1
10
84.237326
20
128.066702
11
84.455346
21
128.792955
0
LINE
8
Layer 1
10
84.455346
20
128.792955
11
84.887178
21
129.618020
0
LINE
8
Layer 1
10
84.887178
20
129.618020
11
85.976842
21
130.946570
0
LINE
8
Layer 1
10
85.976842
20
130.946570
11
87.653354
21
132.352406
0
LINE
8
Layer 1
10
87.653354
20
132.352406
11
89.597469
21
133.601437
0
LINE
8
Layer 1
10
89.597469
20
133.601437
11
91.489939
21
134.459571
0
LINE
8
Layer 1
10
91.489939
20
134.459571
11
92.945074
21
134.793700
0
LINE
8
Layer 1
10
92.945074
20
134.793700
11
94.427760
21
134.582956
0
LINE
8
Layer 1
10
94.427760
20
134.582956
11
96.037914
21
134.372124
0
LINE
8
Layer 1
10
96.037914
20
134.372124
11
98.200101
21
134.430548
0
LINE
8
Layer 1
10
98.200101
20
134.430548
11
101.153184
21
134.777141
0
LINE
8
Layer 1
10
101.153184
20
134.777141
11
105.136027
21
135.430816
0
LINE
8
Layer 1
10
105.136027
20
135.430816
11
108.825942
21
135.936295
0
LINE
8
Layer 1
10
108.825942
20
135.936295
11
109.659996
21
135.835948
0
LINE
8
Layer 1
10
109.659996
20
135.835948
11
110.151220
21
135.505114
0
LINE
8
Layer 1
10
110.151220
20
135.505114
11
110.504156
21
134.912198
0
LINE
8
Layer 1
10
110.504156
20
134.912198
11
110.215976
21
134.135424
0
LINE
8
Layer 1
10
110.215976
20
134.135424
11
109.958507
21
133.342131
0
LINE
8
Layer 1
10
109.958507
20
133.342131
11
109.937066
21
132.352369
0
LINE
8
Layer 1
10
109.937066
20
132.352369
11
110.154659
21
131.132265
0
LINE
8
Layer 1
10
110.154659
20
131.132265
11
110.614293
21
129.647947
0
LINE
8
Layer 1
10
110.614293
20
129.647947
11
111.579559
21
126.666943
0
LINE
8
Layer 1
10
111.579559
20
126.666943
11
111.614373
21
125.961018
0
LINE
8
Layer 1
10
111.614373
20
125.961018
11
111.444255
21
125.286172
0
LINE
8
Layer 1
10
111.444255
20
125.286172
11
110.840731
21
123.536666
0
LINE
8
Layer 1
10
110.840731
20
123.536666
11
110.266492
21
122.258332
0
LINE
8
Layer 1
10
110.266492
20
122.258332
11
109.617277
21
121.256887
0
LINE
8
Layer 1
10
109.617277
20
121.256887
11
108.788821
21
120.338048
0
LINE
8
Layer 1
10
108.788821
20
120.338048
11
107.670680
21
119.424449
0
LINE
8
Layer 1
10
107.670680
20
119.424449
11
106.245079
21
118.545554
0
LINE
8
Layer 1
10
106.245079
20
118.545554
11
104.666241
21
117.785496
0
LINE
8
Layer 1
10
104.666241
20
117.785496
11
103.088392
21
117.228406
0
LINE
8
Layer 1
10
103.088392
20
117.228406
11
101.677281
21
116.412970
0
LINE
8
Layer 1
10
101.677281
20
116.412970
11
99.968157
21
115.165580
0
LINE
8
Layer 1
10
99.968157
20
115.165580
11
98.154065
21
114.145191
0
LINE
8
Layer 1
10
98.154065
20
114.145191
11
96.249878
21
113.359031
0
LINE
8
Layer 1
10
96.249878
20
113.359031
11
94.270472
21
112.814326
0
LINE
8
Layer 1
10
94.270472
20
112.814326
11
91.903599
21
112.429942
0
LINE
8
Layer 1
10
91.903599
20
112.429942
11
91.143087
21
112.482474
0
LINE
8
Layer 1
10
91.143087
20
112.482474
11
90.301214
21
112.686451
0
LINE
8
Layer 1
10
90.301214
20
112.686451
11
90.301214
21
112.686451
0
LINE
8
Layer 1
10
103.806760
20
122.098503
11
104.258120
21
123.223146
0
LINE
8
Layer 1
10
104.258120
20
123.223146
11
104.512150
21
125.093278
0
LINE
8
Layer 1
10
104.512150
20
125.093278
11
104.547992
21
127.093189
0
LINE
8
Layer 1
10
104.547992
20
127.093189
11
104.349915
21
127.560444
0
LINE
8
Layer 1
10
104.349915
20
127.560444
11
103.946542
21
127.986056
0
LINE
8
Layer 1
10
103.946542
20
127.986056
11
103.417437
21
128.379175
0
LINE
8
Layer 1
10
103.417437
20
128.379175
11
102.816136
21
128.621201
0
LINE
8
Layer 1
10
102.816136
20
128.621201
11
101.184916
21
128.707354
0
LINE
8
Layer 1
10
101.184916
20
128.707354
11
100.433940
21
128.295706
0
LINE
8
Layer 1
10
100.433940
20
128.295706
11
99.421027
21
127.365331
0
LINE
8
Layer 1
10
99.421027
20
127.365331
11
98.632764
21
126.346017
0
LINE
8
Layer 1
10
98.632764
20
126.346017
11
98.264940
21
125.410395
0
LINE
8
Layer 1
10
98.264940
20
125.410395
11
98.303927
21
124.481185
0
LINE
8
Layer 1
10
98.303927
20
124.481185
11
98.736099
21
123.481107
0
LINE
8
Layer 1
10
98.736099
20
123.481107
11
99.390965
21
122.721127
0
LINE
8
Layer 1
10
99.390965
20
122.721127
11
100.335904
21
122.039473
0
LINE
8
Layer 1
10
100.335904
20
122.039473
11
101.388201
21
121.543848
0
LINE
8
Layer 1
10
101.388201
20
121.543848
11
102.365144
21
121.341952
0
LINE
8
Layer 1
10
102.365144
20
121.341952
11
103.185469
21
121.496792
0
LINE
8
Layer 1
10
103.185469
20
121.496792
11
103.806760
21
122.098503
0
LINE
8
Layer 1
10
103.806760
20
122.098503
11
103.806760
21
122.098503
0
LINE
8
Layer 1
10
146.763805
20
112.578729
11
145.398931
21
112.759170
0
LINE
8
Layer 1
10
145.398931
20
112.759170
11
142.671583
21
112.797271
0
LINE
8
Layer 1
10
142.671583
20
112.797271
11
138.852999
21
112.925969
0
LINE
8
Layer 1
10
138.852999
20
112.925969
11
137.517874
21
113.210311
0
LINE
8
Layer 1
10
137.517874
20
113.210311
11
136.180472
21
113.694540
0
LINE
8
Layer 1
10
136.180472
20
113.694540
11
133.922694
21
114.575144
0
LINE
8
Layer 1
10
133.922694
20
114.575144
11
132.070695
21
115.402257
0
LINE
8
Layer 1
10
132.070695
20
115.402257
11
130.235440
21
116.422218
0
LINE
8
Layer 1
10
130.235440
20
116.422218
11
128.696886
21
117.463946
0
LINE
8
Layer 1
10
128.696886
20
117.463946
11
127.734994
21
118.356363
0
LINE
8
Layer 1
10
127.734994
20
118.356363
11
127.230935
21
119.246972
0
LINE
8
Layer 1
10
127.230935
20
119.246972
11
126.929904
21
120.194028
0
LINE
8
Layer 1
10
126.929904
20
120.194028
11
126.412169
21
123.793478
0
LINE
8
Layer 1
10
126.412169
20
123.793478
11
126.285679
21
126.116483
0
LINE
8
Layer 1
10
126.285679
20
126.116483
11
126.576237
21
127.791900
0
LINE
8
Layer 1
10
126.576237
20
127.791900
11
127.309649
21
129.448588
0
LINE
8
Layer 1
10
127.309649
20
129.448588
11
127.973465
21
130.880409
0
LINE
8
Layer 1
10
127.973465
20
130.880409
11
128.308253
21
131.988085
0
LINE
8
Layer 1
10
128.308253
20
131.988085
11
128.316193
21
132.783722
0
LINE
8
Layer 1
10
128.316193
20
132.783722
11
127.999465
21
133.279422
0
LINE
8
Layer 1
10
127.999465
20
133.279422
11
127.685707
21
133.691840
0
LINE
8
Layer 1
10
127.685707
20
133.691840
11
127.616836
21
134.182158
0
LINE
8
Layer 1
10
127.616836
20
134.182158
11
127.771652
21
134.481485
0
LINE
8
Layer 1
10
127.771652
20
134.481485
11
128.282018
21
134.644873
0
LINE
8
Layer 1
10
128.282018
20
134.644873
11
131.528081
21
134.724490
0
LINE
8
Layer 1
10
131.528081
20
134.724490
11
135.044901
21
134.614116
0
LINE
8
Layer 1
10
135.044901
20
134.614116
11
138.156027
21
134.353605
0
LINE
8
Layer 1
10
138.156027
20
134.353605
11
143.094916
21
133.843065
0
LINE
8
Layer 1
10
143.094916
20
133.843065
11
145.823905
21
133.409157
0
LINE
8
Layer 1
10
145.823905
20
133.409157
11
148.147946
21
132.502407
0
LINE
8
Layer 1
10
148.147946
20
132.502407
11
149.159540
21
131.870947
0
LINE
8
Layer 1
10
149.159540
20
131.870947
11
150.071610
21
131.120353
0
LINE
8
Layer 1
10
150.071610
20
131.120353
11
150.884729
21
130.250318
0
LINE
8
Layer 1
10
150.884729
20
130.250318
11
151.599468
21
129.260532
0
LINE
8
Layer 1
10
151.599468
20
129.260532
11
152.062166
21
128.456583
0
LINE
8
Layer 1
10
152.062166
20
128.456583
11
152.302815
21
127.601878
0
LINE
8
Layer 1
10
152.302815
20
127.601878
11
152.408249
21
123.769326
0
LINE
8
Layer 1
10
152.408249
20
123.769326
11
152.329538
21
120.492074
0
LINE
8
Layer 1
10
152.329538
20
120.492074
11
152.140296
21
118.532913
0
LINE
8
Layer 1
10
152.140296
20
118.532913
11
151.505296
21
116.132988
0
LINE
8
Layer 1
10
151.505296
20
116.132988
11
150.922951
21
114.721293
0
LINE
8
Layer 1
10
150.922951
20
114.721293
11
150.050745
21
113.490975
0
LINE
8
Layer 1
10
150.050745
20
113.490975
11
149.049584
21
112.622316
0
LINE
8
Layer 1
10
149.049584
20
112.622316
11
148.080374
21
112.295601
0
LINE
8
Layer 1
10
148.080374
20
112.295601
11
147.325173
21
112.380553
0
LINE
8
Layer 1
10
147.325173
20
112.380553
11
146.763805
21
112.578729
0
LINE
8
Layer 1
10
146.763805
20
112.578729
11
146.763805
21
112.578729
0
LINE
8
Layer 1
10
137.199497
20
120.780198
11
137.946372
21
121.460788
0
LINE
8
Layer 1
10
137.946372
20
121.460788
11
138.463583
21
122.288775
0
LINE
8
Layer 1
10
138.463583
20
122.288775
11
138.764273
21
123.293609
0
LINE
8
Layer 1
10
138.764273
20
123.293609
11
138.861583
21
124.504738
0
LINE
8
Layer 1
10
138.861583
20
124.504738
11
138.717932
21
125.714912
0
LINE
8
Layer 1
10
138.717932
20
125.714912
11
138.256274
21
126.591799
0
LINE
8
Layer 1
10
138.256274
20
126.591799
11
137.430553
21
127.188105
0
LINE
8
Layer 1
10
137.430553
20
127.188105
11
136.194710
21
127.556534
0
LINE
8
Layer 1
10
136.194710
20
127.556534
11
134.765492
21
127.624115
0
LINE
8
Layer 1
10
134.765492
20
127.624115
11
133.741431
21
127.293665
0
LINE
8
Layer 1
10
133.741431
20
127.293665
11
133.424473
21
127.006982
0
LINE
8
Layer 1
10
133.424473
20
127.006982
11
133.260571
21
126.654156
0
LINE
8
Layer 1
10
133.260571
20
126.654156
11
133.266981
21
126.246308
0
LINE
8
Layer 1
10
133.266981
20
126.246308
11
133.460958
21
125.794561
0
LINE
8
Layer 1
10
133.460958
20
125.794561
11
133.632187
21
125.049647
0
LINE
8
Layer 1
10
133.632187
20
125.049647
11
133.338691
21
123.695768
0
LINE
8
Layer 1
10
133.338691
20
123.695768
11
133.064424
21
122.401916
0
LINE
8
Layer 1
10
133.064424
20
122.401916
11
133.044195
21
121.489857
0
LINE
8
Layer 1
10
133.044195
20
121.489857
11
133.258564
21
121.045537
0
LINE
8
Layer 1
10
133.258564
20
121.045537
11
133.632998
21
120.690368
0
LINE
8
Layer 1
10
133.632998
20
120.690368
11
134.716244
21
120.272390
0
LINE
8
Layer 1
10
134.716244
20
120.272390
11
136.002291
21
120.285731
0
LINE
8
Layer 1
10
136.002291
20
120.285731
11
137.199497
21
120.780198
0
LINE
8
Layer 1
10
137.199497
20
120.780198
11
137.199497
21
120.780198
0
LINE
8
Layer 1
10
121.517969
20
118.852947
11
121.231462
21
121.904452
0
LINE
8
Layer 1
10
121.231462
20
121.904452
11
121.182547
21
123.755538
0
LINE
8
Layer 1
10
121.182547
20
123.755538
11
121.300955
21
125.101434
0
LINE
8
Layer 1
10
121.300955
20
125.101434
11
121.576166
21
125.885225
0
LINE
8
Layer 1
10
121.576166
20
125.885225
11
121.769286
21
126.048544
0
LINE
8
Layer 1
10
121.769286
20
126.048544
11
121.997662
21
126.049995
0
LINE
8
Layer 1
10
121.997662
20
126.049995
11
122.352213
21
124.985036
0
LINE
8
Layer 1
10
122.352213
20
124.985036
11
122.729721
21
122.715373
0
LINE
8
Layer 1
10
122.729721
20
122.715373
11
122.981996
21
120.335154
0
LINE
8
Layer 1
10
122.981996
20
120.335154
11
122.960844
21
118.938525
0
LINE
8
Layer 1
10
122.960844
20
118.938525
11
122.672770
21
118.633816
0
LINE
8
Layer 1
10
122.672770
20
118.633816
11
122.222996
21
118.511265
0
LINE
8
Layer 1
10
122.222996
20
118.511265
11
121.781427
21
118.580950
0
LINE
8
Layer 1
10
121.781427
20
118.580950
11
121.517969
21
118.852947
0
LINE
8
Layer 1
10
121.517969
20
118.852947
11
121.517969
21
118.852947
0
LINE
8
Layer 1
10
114.124085
20
120.122947
11
114.607560
21
122.451281
0
LINE
8
Layer 1
10
114.607560
20
122.451281
11
115.065398
21
124.768805
0
LINE
8
Layer 1
10
115.065398
20
124.768805
11
115.255043
21
125.535015
0
LINE
8
Layer 1
10
115.255043
20
125.535015
11
115.561651
21
126.065580
0
LINE
8
Layer 1
10
115.561651
20
126.065580
11
115.959114
21
126.330984
0
LINE
8
Layer 1
10
115.959114
20
126.330984
11
116.421323
21
126.301712
0
LINE
8
Layer 1
10
116.421323
20
126.301712
11
116.626055
21
126.108633
0
LINE
8
Layer 1
10
116.626055
20
126.108633
11
116.763788
21
125.734047
0
LINE
8
Layer 1
10
116.763788
20
125.734047
11
116.842895
21
124.569453
0
LINE
8
Layer 1
10
116.842895
20
124.569453
11
116.667922
21
123.066134
0
LINE
8
Layer 1
10
116.667922
20
123.066134
11
116.248149
21
121.482293
0
LINE
8
Layer 1
10
116.248149
20
121.482293
11
115.394437
21
119.505877
0
LINE
8
Layer 1
10
115.394437
20
119.505877
11
115.003108
21
119.154535
0
LINE
8
Layer 1
10
115.003108
20
119.154535
11
114.518756
21
119.064614
0
LINE
8
Layer 1
10
114.518756
20
119.064614
11
114.225821
21
119.099338
0
LINE
8
Layer 1
10
114.225821
20
119.099338
11
114.078021
21
119.245406
0
LINE
8
Layer 1
10
114.078021
20
119.245406
11
114.124085
21
120.122947
0
LINE
8
Layer 1
10
114.124085
20
120.122947
11
114.124085
21
120.122947
0
LINE
8
Layer 1
10
156.857054
20
126.755169
11
154.558870
21
130.897356
0
LINE
8
Layer 1
10
154.558870
20
130.897356
11
152.729703
21
134.425134
0
LINE
8
Layer 1
10
152.729703
20
134.425134
11
151.854862
21
136.356412
0
LINE
8
Layer 1
10
151.854862
20
136.356412
11
151.369543
21
137.937279
0
LINE
8
Layer 1
10
151.369543
20
137.937279
11
151.552667
21
139.319745
0
LINE
8
Layer 1
10
151.552667
20
139.319745
11
152.143762
21
141.219058
0
LINE
8
Layer 1
10
152.143762
20
141.219058
11
154.100479
21
145.796589
0
LINE
8
Layer 1
10
154.100479
20
145.796589
11
154.666027
21
147.491125
0
LINE
8
Layer 1
10
154.666027
20
147.491125
11
154.931020
21
148.819021
0
LINE
8
Layer 1
10
154.931020
20
148.819021
11
155.489605
21
152.205758
0
LINE
8
Layer 1
10
155.489605
20
152.205758
11
155.738396
21
153.888638
0
LINE
8
Layer 1
10
155.738396
20
153.888638
11
156.020608
21
154.854209
0
LINE
8
Layer 1
10
156.020608
20
154.854209
11
156.358909
21
155.148495
0
LINE
8
Layer 1
10
156.358909
20
155.148495
11
156.775968
21
154.817521
0
LINE
8
Layer 1
10
156.775968
20
154.817521
11
157.050008
21
153.729480
0
LINE
8
Layer 1
10
157.050008
20
153.729480
11
157.074579
21
151.268729
0
LINE
8
Layer 1
10
157.074579
20
151.268729
11
156.947338
21
149.165492
0
LINE
8
Layer 1
10
156.947338
20
149.165492
11
156.625417
21
147.210101
0
LINE
8
Layer 1
10
156.625417
20
147.210101
11
156.015382
21
144.983274
0
LINE
8
Layer 1
10
156.015382
20
144.983274
11
155.023803
21
142.065725
0
LINE
8
Layer 1
10
155.023803
20
142.065725
11
154.034956
21
138.765009
0
LINE
8
Layer 1
10
154.034956
20
138.765009
11
153.899550
21
137.564225
0
LINE
8
Layer 1
10
153.899550
20
137.564225
11
153.938409
21
136.302956
0
LINE
8
Layer 1
10
153.938409
20
136.302956
11
154.124717
21
135.256053
0
LINE
8
Layer 1
10
154.124717
20
135.256053
11
154.431664
21
134.698367
0
LINE
8
Layer 1
10
154.431664
20
134.698367
11
154.716287
21
134.675506
0
LINE
8
Layer 1
10
154.716287
20
134.675506
11
154.970174
21
134.919246
0
LINE
8
Layer 1
10
154.970174
20
134.919246
11
155.226151
21
135.954256
0
LINE
8
Layer 1
10
155.226151
20
135.954256
11
155.463756
21
136.816124
0
LINE
8
Layer 1
10
155.463756
20
136.816124
11
156.044143
21
138.085590
0
LINE
8
Layer 1
10
156.044143
20
138.085590
11
156.779157
21
139.393924
0
LINE
8
Layer 1
10
156.779157
20
139.393924
11
157.480641
21
140.372392
0
LINE
8
Layer 1
10
157.480641
20
140.372392
11
158.574433
21
142.117581
0
LINE
8
Layer 1
10
158.574433
20
142.117581
11
159.181583
21
143.747815
0
LINE
8
Layer 1
10
159.181583
20
143.747815
11
159.354307
21
144.238659
0
LINE
8
Layer 1
10
159.354307
20
144.238659
11
159.760631
21
144.749696
0
LINE
8
Layer 1
10
159.760631
20
144.749696
11
160.232782
21
145.113790
0
LINE
8
Layer 1
10
160.232782
20
145.113790
11
160.602986
21
145.163808
0
LINE
8
Layer 1
10
160.602986
20
145.163808
11
160.795037
21
144.723793
0
LINE
8
Layer 1
10
160.795037
20
144.723793
11
160.874916
21
143.901885
0
LINE
8
Layer 1
10
160.874916
20
143.901885
11
161.123667
21
142.153759
0
LINE
8
Layer 1
10
161.123667
20
142.153759
11
161.205437
21
141.251243
0
LINE
8
Layer 1
10
161.205437
20
141.251243
11
161.022897
21
139.879565
0
LINE
8
Layer 1
10
161.022897
20
139.879565
11
160.616881
21
138.247142
0
LINE
8
Layer 1
10
160.616881
20
138.247142
11
160.028221
21
136.562392
0
LINE
8
Layer 1
10
160.028221
20
136.562392
11
159.237544
21
134.350868
0
LINE
8
Layer 1
10
159.237544
20
134.350868
11
158.730824
21
132.285086
0
LINE
8
Layer 1
10
158.730824
20
132.285086
11
158.495095
21
130.294206
0
LINE
8
Layer 1
10
158.495095
20
130.294206
11
158.517392
21
128.307392
0
LINE
8
Layer 1
10
158.517392
20
128.307392
11
158.590560
21
126.191089
0
LINE
8
Layer 1
10
158.590560
20
126.191089
11
158.441429
21
125.893205
0
LINE
8
Layer 1
10
158.441429
20
125.893205
11
158.126684
21
125.837947
0
LINE
8
Layer 1
10
158.126684
20
125.837947
11
157.518011
21
126.107381
0
LINE
8
Layer 1
10
157.518011
20
126.107381
11
156.857054
21
126.755169
0
LINE
8
Layer 1
10
156.857054
20
126.755169
11
156.857054
21
126.755169
0
LINE
8
Layer 1
10
113.398204
20
126.559843
11
113.298134
21
126.942459
0
LINE
8
Layer 1
10
113.298134
20
126.942459
11
113.531565
21
127.513069
0
LINE
8
Layer 1
10
113.531565
20
127.513069
11
114.900645
21
129.055035
0
LINE
8
Layer 1
10
114.900645
20
129.055035
11
115.737473
21
129.701947
0
LINE
8
Layer 1
10
115.737473
20
129.701947
11
116.597942
21
130.172121
0
LINE
8
Layer 1
10
116.597942
20
130.172121
11
117.459690
21
130.464867
0
LINE
8
Layer 1
10
117.459690
20
130.464867
11
118.300354
21
130.579497
0
LINE
8
Layer 1
10
118.300354
20
130.579497
11
119.097572
21
130.515322
0
LINE
8
Layer 1
10
119.097572
20
130.515322
11
119.828983
21
130.271653
0
LINE
8
Layer 1
10
119.828983
20
130.271653
11
120.472224
21
129.847801
0
LINE
8
Layer 1
10
120.472224
20
129.847801
11
121.004934
21
129.243077
0
LINE
8
Layer 1
10
121.004934
20
129.243077
11
121.720081
21
128.450423
0
LINE
8
Layer 1
10
121.720081
20
128.450423
11
122.556326
21
127.851363
0
LINE
8
Layer 1
10
122.556326
20
127.851363
11
123.293867
21
127.356393
0
LINE
8
Layer 1
10
123.293867
20
127.356393
11
123.586860
21
126.888150
0
LINE
8
Layer 1
10
123.586860
20
126.888150
11
123.420902
21
126.539271
0
LINE
8
Layer 1
10
123.420902
20
126.539271
11
122.781593
21
126.402392
0
LINE
8
Layer 1
10
122.781593
20
126.402392
11
121.976185
21
126.502842
0
LINE
8
Layer 1
10
121.976185
20
126.502842
11
121.178947
21
126.797378
0
LINE
8
Layer 1
10
121.178947
20
126.797378
11
120.410592
21
127.275772
0
LINE
8
Layer 1
10
120.410592
20
127.275772
11
119.691833
21
127.927800
0
LINE
8
Layer 1
10
119.691833
20
127.927800
11
118.939258
21
128.498914
0
LINE
8
Layer 1
10
118.939258
20
128.498914
11
118.109588
21
128.628352
0
LINE
8
Layer 1
10
118.109588
20
128.628352
11
117.132271
21
128.308688
0
LINE
8
Layer 1
10
117.132271
20
128.308688
11
115.936753
21
127.532494
0
LINE
8
Layer 1
10
115.936753
20
127.532494
11
114.287993
21
126.510283
0
LINE
8
Layer 1
10
114.287993
20
126.510283
11
113.758414
21
126.404995
0
LINE
8
Layer 1
10
113.758414
20
126.404995
11
113.398204
21
126.559843
0
LINE
8
Layer 1
10
113.398204
20
126.559843
11
113.398204
21
126.559843
0
LINE
8
Layer 1
10
83.169732
20
136.750541
11
82.981583
21
138.561586
0
LINE
8
Layer 1
10
82.981583
20
138.561586
11
82.867835
21
139.871796
0
LINE
8
Layer 1
10
82.867835
20
139.871796
11
82.519137
21
141.191148
0
LINE
8
Layer 1
10
82.519137
20
141.191148
11
81.924304
21
142.551406
0
LINE
8
Layer 1
10
81.924304
20
142.551406
11
81.072152
21
143.984331
0
LINE
8
Layer 1
10
81.072152
20
143.984331
11
80.261095
21
145.292083
0
LINE
8
Layer 1
10
80.261095
20
145.292083
11
79.724242
21
146.552146
0
LINE
8
Layer 1
10
79.724242
20
146.552146
11
79.284984
21
148.310676
0
LINE
8
Layer 1
10
79.284984
20
148.310676
11
78.766715
21
151.113826
0
LINE
8
Layer 1
10
78.766715
20
151.113826
11
78.487086
21
153.737915
0
LINE
8
Layer 1
10
78.487086
20
153.737915
11
78.606270
21
154.474094
0
LINE
8
Layer 1
10
78.606270
20
154.474094
11
78.901321
21
154.916762
0
LINE
8
Layer 1
10
78.901321
20
154.916762
11
79.356723
21
155.118287
0
LINE
8
Layer 1
10
79.356723
20
155.118287
11
79.703005
21
154.830678
0
LINE
8
Layer 1
10
79.703005
20
154.830678
11
79.966006
21
154.006800
0
LINE
8
Layer 1
10
79.966006
20
154.006800
11
80.171564
21
152.599517
0
LINE
8
Layer 1
10
80.171564
20
152.599517
11
80.680295
21
149.685725
0
LINE
8
Layer 1
10
80.680295
20
149.685725
11
81.898945
21
146.683993
0
LINE
8
Layer 1
10
81.898945
20
146.683993
11
82.587418
21
145.513523
0
LINE
8
Layer 1
10
82.587418
20
145.513523
11
83.417156
21
144.392142
0
LINE
8
Layer 1
10
83.417156
20
144.392142
11
84.776937
21
142.712296
0
LINE
8
Layer 1
10
84.776937
20
142.712296
11
84.744190
21
140.321239
0
LINE
8
Layer 1
10
84.744190
20
140.321239
11
84.597531
21
138.481098
0
LINE
8
Layer 1
10
84.597531
20
138.481098
11
84.250301
21
137.191109
0
LINE
8
Layer 1
10
84.250301
20
137.191109
11
83.756402
21
136.573511
0
LINE
8
Layer 1
10
83.756402
20
136.573511
11
83.471294
21
136.555057
0
LINE
8
Layer 1
10
83.471294
20
136.555057
11
83.169732
21
136.750541
0
LINE
8
Layer 1
10
83.169732
20
136.750541
11
83.169732
21
136.750541
0
LINE
8
Layer 1
10
97.657138
20
86.169068
11
97.740041
21
86.906160
0
LINE
8
Layer 1
10
97.740041
20
86.906160
11
97.939360
21
87.314614
0
LINE
8
Layer 1
10
97.939360
20
87.314614
11
98.199365
21
87.648795
0
LINE
8
Layer 1
10
98.199365
20
87.648795
11
98.219549
21
88.070274
0
LINE
8
Layer 1
10
98.219549
20
88.070274
11
98.031566
21
88.431424
0
LINE
8
Layer 1
10
98.031566
20
88.431424
11
97.667067
21
88.584614
0
LINE
8
Layer 1
10
97.667067
20
88.584614
11
97.189621
21
88.744970
0
LINE
8
Layer 1
10
97.189621
20
88.744970
11
96.820400
21
89.130505
0
LINE
8
Layer 1
10
96.820400
20
89.130505
11
96.609552
21
89.814187
0
LINE
8
Layer 1
10
96.609552
20
89.814187
11
96.537012
21
90.656006
0
LINE
8
Layer 1
10
96.537012
20
90.656006
11
96.603683
21
91.409990
0
LINE
8
Layer 1
10
96.603683
20
91.409990
11
96.810472
21
91.830169
0
LINE
8
Layer 1
10
96.810472
20
91.830169
11
97.009791
21
92.161220
0
LINE
8
Layer 1
10
97.009791
20
92.161220
11
97.092694
21
92.712218
0
LINE
8
Layer 1
10
97.092694
20
92.712218
11
97.059012
21
93.085796
0
LINE
8
Layer 1
10
97.059012
20
93.085796
11
96.861764
21
93.141912
0
LINE
8
Layer 1
10
96.861764
20
93.141912
11
95.399360
21
92.089484
0
LINE
8
Layer 1
10
95.399360
20
92.089484
11
94.203444
21
91.032007
0
LINE
8
Layer 1
10
94.203444
20
91.032007
11
93.706027
21
90.357720
0
LINE
8
Layer 1
10
93.706027
20
90.357720
11
93.954735
21
89.712741
0
LINE
8
Layer 1
10
93.954735
20
89.712741
11
94.552694
21
88.725725
0
LINE
8
Layer 1
10
94.552694
20
88.725725
11
95.399360
21
87.214919
0
LINE
8
Layer 1
10
95.399360
20
87.214919
11
95.662224
21
86.750684
0
LINE
8
Layer 1
10
95.662224
20
86.750684
11
96.266770
21
86.073915
0
LINE
8
Layer 1
10
96.266770
20
86.073915
11
96.936926
21
85.463405
0
LINE
8
Layer 1
10
96.936926
20
85.463405
11
97.396625
21
85.197947
0
LINE
8
Layer 1
10
97.396625
20
85.197947
11
97.580613
21
85.483214
0
LINE
8
Layer 1
10
97.580613
20
85.483214
11
97.657138
21
86.169068
0
LINE
8
Layer 1
10
97.657138
20
86.169068
11
97.657138
21
86.169068
0
LINE
8
Layer 1
10
137.590857
20
86.612363
11
137.352819
21
87.304346
0
LINE
8
Layer 1
10
137.352819
20
87.304346
11
136.945714
21
87.071920
0
LINE
8
Layer 1
10
136.945714
20
87.071920
11
136.645500
21
86.577706
0
LINE
8
Layer 1
10
136.645500
20
86.577706
11
136.884622
21
85.906130
0
LINE
8
Layer 1
10
136.884622
20
85.906130
11
137.244771
21
85.451217
0
LINE
8
Layer 1
10
137.244771
20
85.451217
11
137.525019
21
85.459777
0
LINE
8
Layer 1
10
137.525019
20
85.459777
11
137.661627
21
85.868072
0
LINE
8
Layer 1
10
137.661627
20
85.868072
11
137.590857
21
86.612363
0
LINE
8
Layer 1
10
137.590857
20
86.612363
11
137.590857
21
86.612363
0
LINE
8
Layer 1
10
140.735950
20
89.360725
11
142.793158
21
92.384809
0
LINE
8
Layer 1
10
142.793158
20
92.384809
11
143.429790
21
93.503894
0
LINE
8
Layer 1
10
143.429790
20
93.503894
11
142.768464
21
94.036185
0
LINE
8
Layer 1
10
142.768464
20
94.036185
11
140.724306
21
95.739323
0
LINE
8
Layer 1
10
140.724306
20
95.739323
11
139.202656
21
96.831982
0
LINE
8
Layer 1
10
139.202656
20
96.831982
11
138.830825
21
96.820110
0
LINE
8
Layer 1
10
138.830825
20
96.820110
11
138.572271
21
96.486836
0
LINE
8
Layer 1
10
138.572271
20
96.486836
11
137.848809
21
94.816202
0
LINE
8
Layer 1
10
137.848809
20
94.816202
11
137.834374
21
94.381884
0
LINE
8
Layer 1
10
137.834374
20
94.381884
11
137.997486
21
93.979402
0
LINE
8
Layer 1
10
137.997486
20
93.979402
11
138.243183
21
92.939259
0
LINE
8
Layer 1
10
138.243183
20
92.939259
11
138.381147
21
91.284459
0
LINE
8
Layer 1
10
138.381147
20
91.284459
11
138.485972
21
89.745056
0
LINE
8
Layer 1
10
138.485972
20
89.745056
11
138.651990
21
88.982355
0
LINE
8
Layer 1
10
138.651990
20
88.982355
11
138.861583
21
88.114243
0
LINE
8
Layer 1
10
138.861583
20
88.114243
11
138.928233
21
87.649165
0
LINE
8
Layer 1
10
138.928233
20
87.649165
11
139.088478
21
87.455725
0
LINE
8
Layer 1
10
139.088478
20
87.455725
11
140.735950
21
89.360725
0
LINE
8
Layer 1
10
140.735950
20
89.360725
11
140.735950
21
89.360725
0
LINE
8
Layer 1
10
92.954579
20
95.507872
11
94.319798
21
96.764275
0
LINE
8
Layer 1
10
94.319798
20
96.764275
11
93.571207
21
97.048890
0
LINE
8
Layer 1
10
93.571207
20
97.048890
11
92.515384
21
97.284564
0
LINE
8
Layer 1
10
92.515384
20
97.284564
11
91.458420
21
97.272195
0
LINE
8
Layer 1
10
91.458420
20
97.272195
11
90.644887
21
97.043325
0
LINE
8
Layer 1
10
90.644887
20
97.043325
11
90.405837
21
96.857559
0
LINE
8
Layer 1
10
90.405837
20
96.857559
11
90.319360
21
96.629497
0
LINE
8
Layer 1
10
90.319360
20
96.629497
11
90.762036
21
95.226531
0
LINE
8
Layer 1
10
90.762036
20
95.226531
11
91.116092
21
94.531878
0
LINE
8
Layer 1
10
91.116092
20
94.531878
11
91.381481
21
94.240265
0
LINE
8
Layer 1
10
91.381481
20
94.240265
11
92.954579
21
95.507872
0
LINE
8
Layer 1
10
92.954579
20
95.507872
11
92.954579
21
95.507872
0
LINE
8
Layer 1
10
147.328249
20
97.225702
11
147.245347
21
97.473445
0
LINE
8
Layer 1
10
147.245347
20
97.473445
11
147.046027
21
97.474614
0
LINE
8
Layer 1
10
147.046027
20
97.474614
11
146.763805
21
96.876859
0
LINE
8
Layer 1
10
146.763805
20
96.876859
11
146.846708
21
96.629116
0
LINE
8
Layer 1
10
146.846708
20
96.629116
11
147.046027
21
96.627947
0
LINE
8
Layer 1
10
147.046027
20
96.627947
11
147.328249
21
97.225702
0
LINE
8
Layer 1
10
147.328249
20
97.225702
11
147.328249
21
97.225702
0
LINE
8
Layer 1
10
143.525838
20
98.171785
11
143.082942
21
98.514238
0
LINE
8
Layer 1
10
143.082942
20
98.514238
11
142.729162
21
98.551879
0
LINE
8
Layer 1
10
142.729162
20
98.551879
11
142.701275
21
98.275604
0
LINE
8
Layer 1
10
142.701275
20
98.275604
11
143.089082
21
97.845920
0
LINE
8
Layer 1
10
143.089082
20
97.845920
11
143.595487
21
97.513724
0
LINE
8
Layer 1
10
143.595487
20
97.513724
11
143.867414
21
97.479934
0
LINE
8
Layer 1
10
143.867414
20
97.479934
11
143.859364
21
97.710603
0
LINE
8
Layer 1
10
143.859364
20
97.710603
11
143.525838
21
98.171785
0
LINE
8
Layer 1
10
143.525838
20
98.171785
11
143.525838
21
98.171785
0
LINE
8
Layer 1
10
145.634916
20
98.462392
11
145.505669
21
98.661711
0
LINE
8
Layer 1
10
145.505669
20
98.661711
11
145.194926
21
98.744614
0
LINE
8
Layer 1
10
145.194926
20
98.744614
11
144.935420
21
98.661711
0
LINE
8
Layer 1
10
144.935420
20
98.661711
11
144.929360
21
98.462392
0
LINE
8
Layer 1
10
144.929360
20
98.462392
11
145.369351
21
98.180169
0
LINE
8
Layer 1
10
145.369351
20
98.180169
11
145.556906
21
98.263072
0
LINE
8
Layer 1
10
145.556906
20
98.263072
11
145.634916
21
98.462392
0
LINE
8
Layer 1
10
145.634916
20
98.462392
11
145.634916
21
98.462392
0
LINE
8
Layer 1
10
163.021778
20
116.124363
11
162.812039
21
118.170475
0
LINE
8
Layer 1
10
162.812039
20
118.170475
11
162.748509
21
119.093002
0
LINE
8
Layer 1
10
162.748509
20
119.093002
11
162.700866
21
119.212342
0
LINE
8
Layer 1
10
162.700866
20
119.212342
11
162.649738
21
119.064614
0
LINE
8
Layer 1
10
162.649738
20
119.064614
11
162.123727
21
117.149750
0
LINE
8
Layer 1
10
162.123727
20
117.149750
11
161.774840
21
115.835556
0
LINE
8
Layer 1
10
161.774840
20
115.835556
11
161.969285
21
115.691057
0
LINE
8
Layer 1
10
161.969285
20
115.691057
11
162.457333
21
115.677947
0
LINE
8
Layer 1
10
162.457333
20
115.677947
11
162.996120
21
115.774885
0
LINE
8
Layer 1
10
162.996120
20
115.774885
11
163.021778
21
116.124363
0
LINE
8
Layer 1
10
163.021778
20
116.124363
11
163.021778
21
116.124363
0
LINE
8
Layer 1
10
167.413065
20
154.836281
11
168.741055
21
156.041879
0
LINE
8
Layer 1
10
168.741055
20
156.041879
11
171.060302
21
157.870169
0
LINE
8
Layer 1
10
171.060302
20
157.870169
11
177.668228
21
162.995283
0
LINE
8
Layer 1
10
177.668228
20
162.995283
11
179.784894
21
164.695770
0
LINE
8
Layer 1
10
179.784894
20
164.695770
11
181.900472
21
166.393803
0
LINE
8
Layer 1
10
181.900472
20
166.393803
11
185.299072
21
169.179673
0
LINE
8
Layer 1
10
185.299072
20
169.179673
11
189.238249
21
172.043361
0
LINE
8
Layer 1
10
189.238249
20
172.043361
11
192.248080
21
173.887352
0
LINE
8
Layer 1
10
192.248080
20
173.887352
11
195.396117
21
175.545448
0
LINE
8
Layer 1
10
195.396117
20
175.545448
11
198.116299
21
176.742259
0
LINE
8
Layer 1
10
198.116299
20
176.742259
11
199.842563
21
177.202394
0
LINE
8
Layer 1
10
199.842563
20
177.202394
11
200.254094
21
177.285297
0
LINE
8
Layer 1
10
200.254094
20
177.285297
11
200.527138
21
177.484617
0
LINE
8
Layer 1
10
200.527138
20
177.484617
11
200.940332
21
177.683936
0
LINE
8
Layer 1
10
200.940332
20
177.683936
11
201.688821
21
177.766839
0
LINE
8
Layer 1
10
201.688821
20
177.766839
11
203.967749
21
178.092086
0
LINE
8
Layer 1
10
203.967749
20
178.092086
11
204.992621
21
178.260246
0
LINE
8
Layer 1
10
204.992621
20
178.260246
11
206.041828
21
178.125600
0
LINE
8
Layer 1
10
206.041828
20
178.125600
11
207.486898
21
177.588019
0
LINE
8
Layer 1
10
207.486898
20
177.588019
11
209.699360
21
176.547374
0
LINE
8
Layer 1
10
209.699360
20
176.547374
11
211.092399
21
175.896982
0
LINE
8
Layer 1
10
211.092399
20
175.896982
11
212.119858
21
175.547566
0
LINE
8
Layer 1
10
212.119858
20
175.547566
11
213.173950
21
175.406755
0
LINE
8
Layer 1
10
213.173950
20
175.406755
11
214.646888
21
175.382180
0
LINE
8
Layer 1
10
214.646888
20
175.382180
11
216.157456
21
175.411727
0
LINE
8
Layer 1
10
216.157456
20
175.411727
11
217.267526
21
175.584351
0
LINE
8
Layer 1
10
217.267526
20
175.584351
11
218.478389
21
176.034580
0
LINE
8
Layer 1
10
218.478389
20
176.034580
11
220.291333
21
176.896943
0
LINE
8
Layer 1
10
220.291333
20
176.896943
11
223.212084
21
178.525241
0
LINE
8
Layer 1
10
223.212084
20
178.525241
11
224.317301
21
179.400030
0
LINE
8
Layer 1
10
224.317301
20
179.400030
11
225.531581
21
180.556781
0
LINE
8
Layer 1
10
225.531581
20
180.556781
11
227.189981
21
182.406086
0
LINE
8
Layer 1
10
227.189981
20
182.406086
11
228.165860
21
183.834617
0
LINE
8
Layer 1
10
228.165860
20
183.834617
11
228.914198
21
185.453565
0
LINE
8
Layer 1
10
228.914198
20
185.453565
11
229.172694
21
186.636352
0
LINE
8
Layer 1
10
229.172694
20
186.636352
11
229.255597
21
187.176830
0
LINE
8
Layer 1
10
229.255597
20
187.176830
11
229.454916
21
187.503506
0
LINE
8
Layer 1
10
229.454916
20
187.503506
11
229.656983
21
188.581611
0
LINE
8
Layer 1
10
229.656983
20
188.581611
11
229.737138
21
191.034170
0
LINE
8
Layer 1
10
229.737138
20
191.034170
11
229.656660
21
193.518247
0
LINE
8
Layer 1
10
229.656660
20
193.518247
11
229.388535
21
195.574064
0
LINE
8
Layer 1
10
229.388535
20
195.574064
11
228.892728
21
197.405324
0
LINE
8
Layer 1
10
228.892728
20
197.405324
11
228.129205
21
199.215731
0
LINE
8
Layer 1
10
228.129205
20
199.215731
11
227.230711
21
200.676779
0
LINE
8
Layer 1
10
227.230711
20
200.676779
11
226.050239
21
202.145058
0
LINE
8
Layer 1
10
226.050239
20
202.145058
11
224.895737
21
203.277562
0
LINE
8
Layer 1
10
224.895737
20
203.277562
11
224.075154
21
203.731286
0
LINE
8
Layer 1
10
224.075154
20
203.731286
11
222.258249
21
204.295731
0
LINE
8
Layer 1
10
222.258249
20
204.295731
11
220.957956
21
204.694369
0
LINE
8
Layer 1
10
220.957956
20
204.694369
11
219.680835
21
204.860175
0
LINE
8
Layer 1
10
219.680835
20
204.860175
11
218.557007
21
204.980933
0
LINE
8
Layer 1
10
218.557007
20
204.980933
11
217.625261
21
205.271263
0
LINE
8
Layer 1
10
217.625261
20
205.271263
11
216.853793
21
205.519246
0
LINE
8
Layer 1
10
216.853793
20
205.519246
11
216.192354
21
205.003290
0
LINE
8
Layer 1
10
216.192354
20
205.003290
11
215.354656
21
204.325439
0
LINE
8
Layer 1
10
215.354656
20
204.325439
11
214.271321
21
203.737594
0
LINE
8
Layer 1
10
214.271321
20
203.737594
11
213.128393
21
203.323485
0
LINE
8
Layer 1
10
213.128393
20
203.323485
11
212.111912
21
203.166842
0
LINE
8
Layer 1
10
212.111912
20
203.166842
11
210.877623
21
202.986727
0
LINE
8
Layer 1
10
210.877623
20
202.986727
11
209.366543
21
202.490855
0
LINE
8
Layer 1
10
209.366543
20
202.490855
11
207.746985
21
201.745933
0
LINE
8
Layer 1
10
207.746985
20
201.745933
11
206.187260
21
200.818671
0
LINE
8
Layer 1
10
206.187260
20
200.818671
11
203.372683
21
198.517714
0
LINE
8
Layer 1
10
203.372683
20
198.517714
11
200.071991
21
195.292749
0
LINE
8
Layer 1
10
200.071991
20
195.292749
11
197.113775
21
192.005854
0
LINE
8
Layer 1
10
197.113775
20
192.005854
11
195.326624
21
189.519106
0
LINE
8
Layer 1
10
195.326624
20
189.519106
11
194.210536
21
187.845019
0
LINE
8
Layer 1
10
194.210536
20
187.845019
11
193.730979
21
187.486472
0
LINE
8
Layer 1
10
193.730979
20
187.486472
11
193.348254
21
187.492516
0
LINE
8
Layer 1
10
193.348254
20
187.492516
11
193.131631
21
188.056467
0
LINE
8
Layer 1
10
193.131631
20
188.056467
11
193.054500
21
189.067867
0
LINE
8
Layer 1
10
193.054500
20
189.067867
11
193.119800
21
190.035172
0
LINE
8
Layer 1
10
193.119800
20
190.035172
11
193.330472
21
190.466839
0
LINE
8
Layer 1
10
193.330472
20
190.466839
11
193.529791
21
190.592318
0
LINE
8
Layer 1
10
193.529791
20
190.592318
11
193.612694
21
190.894002
0
LINE
8
Layer 1
10
193.612694
20
190.894002
11
193.725545
21
191.434187
0
LINE
8
Layer 1
10
193.725545
20
191.434187
11
194.062739
21
192.142047
0
LINE
8
Layer 1
10
194.062739
20
192.142047
11
195.402005
21
194.050559
0
LINE
8
Layer 1
10
195.402005
20
194.050559
11
197.614187
21
196.599078
0
LINE
8
Layer 1
10
197.614187
20
196.599078
11
200.682981
21
199.767142
0
LINE
8
Layer 1
10
200.682981
20
199.767142
11
203.906171
21
202.783905
0
LINE
8
Layer 1
10
203.906171
20
202.783905
11
206.919710
21
205.257036
0
LINE
8
Layer 1
10
206.919710
20
205.257036
11
209.473865
21
206.997537
0
LINE
8
Layer 1
10
209.473865
20
206.997537
11
210.500631
21
207.533988
0
LINE
8
Layer 1
10
210.500631
20
207.533988
11
211.318901
21
207.816408
0
LINE
8
Layer 1
10
211.318901
20
207.816408
11
212.371256
21
208.197254
0
LINE
8
Layer 1
10
212.371256
20
208.197254
11
212.423558
21
208.387037
0
LINE
8
Layer 1
10
212.423558
20
208.387037
11
212.188879
21
208.563411
0
LINE
8
Layer 1
10
212.188879
20
208.563411
11
210.945377
21
208.836990
0
LINE
8
Layer 1
10
210.945377
20
208.836990
11
208.814360
21
208.940098
0
LINE
8
Layer 1
10
208.814360
20
208.940098
11
206.817955
21
208.795495
0
LINE
8
Layer 1
10
206.817955
20
208.795495
11
205.286582
21
208.247197
0
LINE
8
Layer 1
10
205.286582
20
208.247197
11
203.488129
21
207.252085
0
LINE
8
Layer 1
10
203.488129
20
207.252085
11
201.881098
21
206.154153
0
LINE
8
Layer 1
10
201.881098
20
206.154153
11
200.433176
21
204.928829
0
LINE
8
Layer 1
10
200.433176
20
204.928829
11
199.112048
21
203.551539
0
LINE
8
Layer 1
10
199.112048
20
203.551539
11
197.272289
21
201.473508
0
LINE
8
Layer 1
10
197.272289
20
201.473508
11
194.728203
21
198.415131
0
LINE
8
Layer 1
10
194.728203
20
198.415131
11
190.300131
21
192.710366
0
LINE
8
Layer 1
10
190.300131
20
192.710366
11
187.276607
21
188.181590
0
LINE
8
Layer 1
10
187.276607
20
188.181590
11
186.225088
21
186.494380
0
LINE
8
Layer 1
10
186.225088
20
186.494380
11
185.063361
21
184.911228
0
LINE
8
Layer 1
10
185.063361
20
184.911228
11
183.681211
21
183.330678
0
LINE
8
Layer 1
10
183.681211
20
183.330678
11
181.968420
21
181.651274
0
LINE
8
Layer 1
10
181.968420
20
181.651274
11
177.110051
21
177.590080
0
LINE
8
Layer 1
10
177.110051
20
177.590080
11
169.606522
21
171.915997
0
LINE
8
Layer 1
10
169.606522
20
171.915997
11
165.161522
21
168.769911
0
LINE
8
Layer 1
10
165.161522
20
168.769911
11
164.127301
21
168.010705
0
LINE
8
Layer 1
10
164.127301
20
168.010705
11
163.697138
21
167.504948
0
LINE
8
Layer 1
10
163.697138
20
167.504948
11
164.637966
21
165.242943
0
LINE
8
Layer 1
10
164.637966
20
165.242943
11
165.578793
21
163.306207
0
LINE
8
Layer 1
10
165.578793
20
163.306207
11
166.119632
21
164.035136
0
LINE
8
Layer 1
10
166.119632
20
164.035136
11
167.135209
21
165.437038
0
LINE
8
Layer 1
10
167.135209
20
165.437038
11
168.429352
21
166.632529
0
LINE
8
Layer 1
10
168.429352
20
166.632529
11
170.874154
21
168.561772
0
LINE
8
Layer 1
10
170.874154
20
168.561772
11
177.878305
21
174.192328
0
LINE
8
Layer 1
10
177.878305
20
174.192328
11
184.348203
21
179.590424
0
LINE
8
Layer 1
10
184.348203
20
179.590424
11
186.866979
21
181.435728
0
LINE
8
Layer 1
10
186.866979
20
181.435728
11
187.106553
21
181.312598
0
LINE
8
Layer 1
10
187.106553
20
181.312598
11
187.300148
21
181.016563
0
LINE
8
Layer 1
10
187.300148
20
181.016563
11
187.297149
21
180.681599
0
LINE
8
Layer 1
10
187.297149
20
180.681599
11
187.064803
21
180.211468
0
LINE
8
Layer 1
10
187.064803
20
180.211468
11
185.833446
21
178.786856
0
LINE
8
Layer 1
10
185.833446
20
178.786856
11
183.448841
21
176.585036
0
LINE
8
Layer 1
10
183.448841
20
176.585036
11
179.753751
21
173.448314
0
LINE
8
Layer 1
10
179.753751
20
173.448314
11
176.283626
21
170.301668
0
LINE
8
Layer 1
10
176.283626
20
170.301668
11
171.663320
21
165.828311
0
LINE
8
Layer 1
10
171.663320
20
165.828311
11
166.223944
21
160.410169
0
LINE
8
Layer 1
10
166.223944
20
160.410169
11
166.383978
21
158.857947
0
LINE
8
Layer 1
10
166.383978
20
158.857947
11
166.788365
21
155.422547
0
LINE
8
Layer 1
10
166.788365
20
155.422547
11
166.934603
21
154.791547
0
LINE
8
Layer 1
10
166.934603
20
154.791547
11
167.086768
21
154.624614
0
LINE
8
Layer 1
10
167.086768
20
154.624614
11
167.413065
21
154.836281
0
LINE
8
Layer 1
10
167.413065
20
154.836281
11
167.413065
21
154.836281
0
LINE
8
Layer 1
10
196.717138
20
178.878797
11
197.338712
21
180.037302
0
LINE
8
Layer 1
10
197.338712
20
180.037302
11
198.833130
21
182.053797
0
LINE
8
Layer 1
10
198.833130
20
182.053797
11
200.562109
21
184.394193
0
LINE
8
Layer 1
10
200.562109
20
184.394193
11
200.870401
21
185.098613
0
LINE
8
Layer 1
10
200.870401
20
185.098613
11
200.949797
21
185.739617
0
LINE
8
Layer 1
10
200.949797
20
185.739617
11
201.033177
21
186.487065
0
LINE
8
Layer 1
10
201.033177
20
186.487065
11
201.232694
21
186.797950
0
LINE
8
Layer 1
10
201.232694
20
186.797950
11
201.432013
21
187.134784
0
LINE
8
Layer 1
10
201.432013
20
187.134784
11
201.514916
21
187.944622
0
LINE
8
Layer 1
10
201.514916
20
187.944622
11
201.731257
21
189.166898
0
LINE
8
Layer 1
10
201.731257
20
189.166898
11
202.300609
21
190.692271
0
LINE
8
Layer 1
10
202.300609
20
190.692271
11
203.103467
21
192.252056
0
LINE
8
Layer 1
10
203.103467
20
192.252056
11
204.020327
21
193.577566
0
LINE
8
Layer 1
10
204.020327
20
193.577566
11
204.769486
21
194.313019
0
LINE
8
Layer 1
10
204.769486
20
194.313019
11
205.022095
21
194.331946
0
LINE
8
Layer 1
10
205.022095
20
194.331946
11
205.291416
21
194.163529
0
LINE
8
Layer 1
10
205.291416
20
194.163529
11
205.670439
21
193.562506
0
LINE
8
Layer 1
10
205.670439
20
193.562506
11
205.933102
21
192.655785
0
LINE
8
Layer 1
10
205.933102
20
192.655785
11
206.236173
21
191.656954
0
LINE
8
Layer 1
10
206.236173
20
191.656954
11
206.712346
21
190.834476
0
LINE
8
Layer 1
10
206.712346
20
190.834476
11
207.339491
21
190.307324
0
LINE
8
Layer 1
10
207.339491
20
190.307324
11
208.082241
21
190.488621
0
LINE
8
Layer 1
10
208.082241
20
190.488621
11
208.626373
21
190.849644
0
LINE
8
Layer 1
10
208.626373
20
190.849644
11
208.852694
21
191.224682
0
LINE
8
Layer 1
10
208.852694
20
191.224682
11
209.048645
21
191.571100
0
LINE
8
Layer 1
10
209.048645
20
191.571100
11
209.519760
21
191.863317
0
LINE
8
Layer 1
10
209.519760
20
191.863317
11
210.041029
21
192.173138
0
LINE
8
Layer 1
10
210.041029
20
192.173138
11
210.357568
21
192.561887
0
LINE
8
Layer 1
10
210.357568
20
192.561887
11
210.646563
21
192.876134
0
LINE
8
Layer 1
10
210.646563
20
192.876134
11
211.101615
21
193.006839
0
LINE
8
Layer 1
10
211.101615
20
193.006839
11
211.412213
21
192.949682
0
LINE
8
Layer 1
10
211.412213
20
192.949682
11
211.584727
21
192.682735
0
LINE
8
Layer 1
10
211.584727
20
192.682735
11
211.674916
21
190.946617
0
LINE
8
Layer 1
10
211.674916
20
190.946617
11
211.581486
21
189.369334
0
LINE
8
Layer 1
10
211.581486
20
189.369334
11
211.340954
21
188.552432
0
LINE
8
Layer 1
10
211.340954
20
188.552432
11
211.092018
21
188.166568
0
LINE
8
Layer 1
10
211.092018
20
188.166568
11
211.314426
21
188.029283
0
LINE
8
Layer 1
10
211.314426
20
188.029283
11
211.933655
21
188.142692
0
LINE
8
Layer 1
10
211.933655
20
188.142692
11
212.875182
21
188.508908
0
LINE
8
Layer 1
10
212.875182
20
188.508908
11
214.170439
21
189.174615
0
LINE
8
Layer 1
10
214.170439
20
189.174615
11
215.259283
21
189.911843
0
LINE
8
Layer 1
10
215.259283
20
189.911843
11
216.234797
21
190.793593
0
LINE
8
Layer 1
10
216.234797
20
190.793593
11
217.190066
21
191.892868
0
LINE
8
Layer 1
10
217.190066
20
191.892868
11
218.110046
21
192.869413
0
LINE
8
Layer 1
10
218.110046
20
192.869413
11
218.457421
21
193.066931
0
LINE
8
Layer 1
10
218.457421
20
193.066931
11
218.747450
21
193.084173
0
LINE
8
Layer 1
10
218.747450
20
193.084173
11
219.198970
21
192.864824
0
LINE
8
Layer 1
10
219.198970
20
192.864824
11
219.437346
21
192.515275
0
LINE
8
Layer 1
10
219.437346
20
192.515275
11
219.481685
21
192.055443
0
LINE
8
Layer 1
10
219.481685
20
192.055443
11
219.351091
21
191.505246
0
LINE
8
Layer 1
10
219.351091
20
191.505246
11
218.641526
21
190.213432
0
LINE
8
Layer 1
10
218.641526
20
190.213432
11
217.461493
21
188.799176
0
LINE
8
Layer 1
10
217.461493
20
188.799176
11
215.963833
21
187.421823
0
LINE
8
Layer 1
10
215.963833
20
187.421823
11
214.301390
21
186.240715
0
LINE
8
Layer 1
10
214.301390
20
186.240715
11
212.627003
21
185.415199
0
LINE
8
Layer 1
10
212.627003
20
185.415199
11
211.093516
21
185.104617
0
LINE
8
Layer 1
10
211.093516
20
185.104617
11
209.401025
21
184.764111
0
LINE
8
Layer 1
10
209.401025
20
184.764111
11
207.081156
21
183.898624
0
LINE
8
Layer 1
10
207.081156
20
183.898624
11
204.680352
21
182.742204
0
LINE
8
Layer 1
10
204.680352
20
182.742204
11
202.745055
21
181.528895
0
LINE
8
Layer 1
10
202.745055
20
181.528895
11
199.962694
21
179.406513
0
LINE
8
Layer 1
10
199.962694
20
179.406513
11
198.771272
21
178.667488
0
LINE
8
Layer 1
10
198.771272
20
178.667488
11
197.731646
21
178.316680
0
LINE
8
Layer 1
10
197.731646
20
178.316680
11
196.996155
21
178.378860
0
LINE
8
Layer 1
10
196.996155
20
178.378860
11
196.790066
21
178.572561
0
LINE
8
Layer 1
10
196.790066
20
178.572561
11
196.717138
21
178.878797
0
LINE
8
Layer 1
10
196.717138
20
178.878797
11
196.717138
21
178.878797
0
LINE
8
Layer 1
10
70.980399
20
158.784273
11
71.391055
21
160.127947
0
LINE
8
Layer 1
10
71.391055
20
160.127947
11
72.087672
21
161.656110
0
LINE
8
Layer 1
10
72.087672
20
161.656110
11
72.571999
21
162.902051
0
LINE
8
Layer 1
10
72.571999
20
162.902051
11
70.799943
21
164.689999
0
LINE
8
Layer 1
10
70.799943
20
164.689999
11
69.462871
21
165.952738
0
LINE
8
Layer 1
10
69.462871
20
165.952738
11
68.736622
21
166.477947
0
LINE
8
Layer 1
10
68.736622
20
166.477947
11
67.024134
21
167.818503
0
LINE
8
Layer 1
10
67.024134
20
167.818503
11
63.356137
21
171.107055
0
LINE
8
Layer 1
10
63.356137
20
171.107055
11
58.048941
21
176.007447
0
LINE
8
Layer 1
10
58.048941
20
176.007447
11
55.909512
21
178.132198
0
LINE
8
Layer 1
10
55.909512
20
178.132198
11
55.041583
21
179.142449
0
LINE
8
Layer 1
10
55.041583
20
179.142449
11
55.463076
21
179.740868
0
LINE
8
Layer 1
10
55.463076
20
179.740868
11
55.821541
21
179.904640
0
LINE
8
Layer 1
10
55.821541
20
179.904640
11
56.326850
21
179.833515
0
LINE
8
Layer 1
10
56.326850
20
179.833515
11
58.116193
21
178.731356
0
LINE
8
Layer 1
10
58.116193
20
178.731356
11
61.507494
21
175.923957
0
LINE
8
Layer 1
10
61.507494
20
175.923957
11
67.177138
21
170.900886
0
LINE
8
Layer 1
10
67.177138
20
170.900886
11
69.799494
21
168.743887
0
LINE
8
Layer 1
10
69.799494
20
168.743887
11
70.628820
21
168.171281
0
LINE
8
Layer 1
10
70.628820
20
168.171281
11
71.329994
21
167.764595
0
LINE
8
Layer 1
10
71.329994
20
167.764595
11
72.181562
21
167.606836
0
LINE
8
Layer 1
10
72.181562
20
167.606836
11
73.078243
21
167.428438
0
LINE
8
Layer 1
10
73.078243
20
167.428438
11
73.879391
21
166.910515
0
LINE
8
Layer 1
10
73.879391
20
166.910515
11
74.630339
21
166.214196
0
LINE
8
Layer 1
10
74.630339
20
166.214196
11
75.411971
21
167.122181
0
LINE
8
Layer 1
10
75.411971
20
167.122181
11
75.944862
21
167.884829
0
LINE
8
Layer 1
10
75.944862
20
167.884829
11
76.128454
21
168.443379
0
LINE
8
Layer 1
10
76.128454
20
168.443379
11
74.839465
21
169.676532
0
LINE
8
Layer 1
10
74.839465
20
169.676532
11
71.831889
21
172.061093
0
LINE
8
Layer 1
10
71.831889
20
172.061093
11
63.790472
21
178.461416
0
LINE
8
Layer 1
10
63.790472
20
178.461416
11
59.104787
21
182.509583
0
LINE
8
Layer 1
10
59.104787
20
182.509583
11
55.666550
21
185.815420
0
LINE
8
Layer 1
10
55.666550
20
185.815420
11
52.972799
21
188.903363
0
LINE
8
Layer 1
10
52.972799
20
188.903363
11
50.520569
21
192.297849
0
LINE
8
Layer 1
10
50.520569
20
192.297849
11
47.728850
21
196.243036
0
LINE
8
Layer 1
10
47.728850
20
196.243036
11
44.695138
21
200.208481
0
LINE
8
Layer 1
10
44.695138
20
200.208481
11
41.983475
21
203.483376
0
LINE
8
Layer 1
10
41.983475
20
203.483376
11
40.157905
21
205.356912
0
LINE
8
Layer 1
10
40.157905
20
205.356912
11
38.011846
21
206.808569
0
LINE
8
Layer 1
10
38.011846
20
206.808569
11
35.778658
21
207.894687
0
LINE
8
Layer 1
10
35.778658
20
207.894687
11
33.558536
21
208.575511
0
LINE
8
Layer 1
10
33.558536
20
208.575511
11
31.451674
21
208.811286
0
LINE
8
Layer 1
10
31.451674
20
208.811286
11
29.073282
21
208.625618
0
LINE
8
Layer 1
10
29.073282
20
208.625618
11
28.385424
21
208.410277
0
LINE
8
Layer 1
10
28.385424
20
208.410277
11
28.040009
21
208.128148
0
LINE
8
Layer 1
10
28.040009
20
208.128148
11
28.043199
21
207.790394
0
LINE
8
Layer 1
10
28.043199
20
207.790394
11
28.401158
21
207.408179
0
LINE
8
Layer 1
10
28.401158
20
207.408179
11
30.206030
21
206.555013
0
LINE
8
Layer 1
10
30.206030
20
206.555013
11
33.045451
21
205.409797
0
LINE
8
Layer 1
10
33.045451
20
205.409797
11
35.584438
21
204.049515
0
LINE
8
Layer 1
10
35.584438
20
204.049515
11
37.920049
21
202.414528
0
LINE
8
Layer 1
10
37.920049
20
202.414528
11
40.149343
21
200.445198
0
LINE
8
Layer 1
10
40.149343
20
200.445198
11
42.368412
21
198.149347
0
LINE
8
Layer 1
10
42.368412
20
198.149347
11
43.667197
21
196.479942
0
LINE
8
Layer 1
10
43.667197
20
196.479942
11
43.981618
21
195.863768
0
LINE
8
Layer 1
10
43.981618
20
195.863768
11
44.078129
21
195.384538
0
LINE
8
Layer 1
10
44.078129
20
195.384538
11
43.960785
21
195.035699
0
LINE
8
Layer 1
10
43.960785
20
195.035699
11
43.633638
21
194.810693
0
LINE
8
Layer 1
10
43.633638
20
194.810693
11
43.163136
21
194.789804
0
LINE
8
Layer 1
10
43.163136
20
194.789804
11
42.412974
21
195.127724
0
LINE
8
Layer 1
10
42.412974
20
195.127724
11
39.160871
21
197.410578
0
LINE
8
Layer 1
10
39.160871
20
197.410578
11
35.753216
21
199.673282
0
LINE
8
Layer 1
10
35.753216
20
199.673282
11
32.604919
21
201.183102
0
LINE
8
Layer 1
10
32.604919
20
201.183102
11
31.193808
21
201.755731
0
LINE
8
Layer 1
10
31.193808
20
201.755731
11
29.782697
21
202.320175
0
LINE
8
Layer 1
10
29.782697
20
202.320175
11
28.006455
21
203.152419
0
LINE
8
Layer 1
10
28.006455
20
203.152419
11
26.386429
21
204.363142
0
LINE
8
Layer 1
10
26.386429
20
204.363142
11
25.543844
21
205.014215
0
LINE
8
Layer 1
10
25.543844
20
205.014215
11
24.795191
21
205.342491
0
LINE
8
Layer 1
10
24.795191
20
205.342491
11
24.002899
21
205.380687
0
LINE
8
Layer 1
10
24.002899
20
205.380687
11
23.029399
21
205.161521
0
LINE
8
Layer 1
10
23.029399
20
205.161521
11
20.892695
21
204.564909
0
LINE
8
Layer 1
10
20.892695
20
204.564909
11
17.977047
21
203.543985
0
LINE
8
Layer 1
10
17.977047
20
203.543985
11
15.484391
21
202.122743
0
LINE
8
Layer 1
10
15.484391
20
202.122743
11
13.411675
21
200.299012
0
LINE
8
Layer 1
10
13.411675
20
200.299012
11
11.755847
21
198.070622
0
LINE
8
Layer 1
10
11.755847
20
198.070622
11
11.114905
21
196.929944
0
LINE
8
Layer 1
10
11.114905
20
196.929944
11
10.807871
21
196.148323
0
LINE
8
Layer 1
10
10.807871
20
196.148323
11
10.793501
21
195.548492
0
LINE
8
Layer 1
10
10.793501
20
195.548492
11
11.030552
21
194.953182
0
LINE
8
Layer 1
10
11.030552
20
194.953182
11
11.187897
21
194.393078
0
LINE
8
Layer 1
10
11.187897
20
194.393078
11
11.147929
21
193.827987
0
LINE
8
Layer 1
10
11.147929
20
193.827987
11
10.920119
21
193.432026
0
LINE
8
Layer 1
10
10.920119
20
193.432026
11
10.532080
21
193.620667
0
LINE
8
Layer 1
10
10.532080
20
193.620667
11
10.307351
21
193.774905
0
LINE
8
Layer 1
10
10.307351
20
193.774905
11
10.196842
21
193.729948
0
LINE
8
Layer 1
10
10.196842
20
193.729948
11
10.250863
21
192.859414
0
LINE
8
Layer 1
10
10.250863
20
192.859414
11
10.648958
21
190.785135
0
LINE
8
Layer 1
10
10.648958
20
190.785135
11
11.297095
21
188.830942
0
LINE
8
Layer 1
10
11.297095
20
188.830942
11
12.285736
21
186.775216
0
LINE
8
Layer 1
10
12.285736
20
186.775216
11
13.705342
21
184.396335
0
LINE
8
Layer 1
10
13.705342
20
184.396335
11
15.059200
21
182.668936
0
LINE
8
Layer 1
10
15.059200
20
182.668936
11
17.058378
21
180.466885
0
LINE
8
Layer 1
10
17.058378
20
180.466885
11
18.958553
21
178.572184
0
LINE
8
Layer 1
10
18.958553
20
178.572184
11
20.015401
21
177.766839
0
LINE
8
Layer 1
10
20.015401
20
177.766839
11
23.031027
21
176.450574
0
LINE
8
Layer 1
10
23.031027
20
176.450574
11
25.208014
21
175.538028
0
LINE
8
Layer 1
10
25.208014
20
175.538028
11
26.997964
21
175.016022
0
LINE
8
Layer 1
10
26.997964
20
175.016022
11
28.151263
21
174.935646
0
LINE
8
Layer 1
10
28.151263
20
174.935646
11
28.411165
21
175.077033
0
LINE
8
Layer 1
10
28.411165
20
175.077033
11
28.418299
21
175.347986
0
LINE
8
Layer 1
10
28.418299
20
175.347986
11
28.364589
21
176.121539
0
LINE
8
Layer 1
10
28.364589
20
176.121539
11
28.579657
21
177.146033
0
LINE
8
Layer 1
10
28.579657
20
177.146033
11
28.983165
21
178.157100
0
LINE
8
Layer 1
10
28.983165
20
178.157100
11
29.494776
21
178.890374
0
LINE
8
Layer 1
10
29.494776
20
178.890374
11
30.262356
21
179.349788
0
LINE
8
Layer 1
10
30.262356
20
179.349788
11
31.368261
21
179.407473
0
LINE
8
Layer 1
10
31.368261
20
179.407473
11
32.472394
21
179.169150
0
LINE
8
Layer 1
10
32.472394
20
179.169150
11
33.165505
21
178.437151
0
LINE
8
Layer 1
10
33.165505
20
178.437151
11
33.522659
21
177.961374
0
LINE
8
Layer 1
10
33.522659
20
177.961374
11
33.931994
21
177.670300
0
LINE
8
Layer 1
10
33.931994
20
177.670300
11
35.502819
21
177.370432
0
LINE
8
Layer 1
10
35.502819
20
177.370432
11
37.901708
21
176.941178
0
LINE
8
Layer 1
10
37.901708
20
176.941178
11
39.801586
21
176.331784
0
LINE
8
Layer 1
10
39.801586
20
176.331784
11
43.312574
21
174.968787
0
LINE
8
Layer 1
10
43.312574
20
174.968787
11
48.046783
21
172.696335
0
LINE
8
Layer 1
10
48.046783
20
172.696335
11
52.992927
21
170.030335
0
LINE
8
Layer 1
10
52.992927
20
170.030335
11
57.139724
21
167.486697
0
LINE
8
Layer 1
10
57.139724
20
167.486697
11
61.794045
21
164.181678
0
LINE
8
Layer 1
10
61.794045
20
164.181678
11
68.534528
21
158.945493
0
LINE
8
Layer 1
10
68.534528
20
158.945493
11
69.902793
21
157.946607
0
LINE
8
Layer 1
10
69.902793
20
157.946607
11
70.586250
21
157.601818
0
LINE
8
Layer 1
10
70.586250
20
157.601818
11
70.980399
21
158.784273
0
LINE
8
Layer 1
10
70.980399
20
158.784273
11
70.980399
21
158.784273
0
LINE
8
Layer 1
10
25.613925
20
178.134106
11
22.309709
21
181.857777
0
LINE
8
Layer 1
10
22.309709
20
181.857777
11
21.286502
21
183.141105
0
LINE
8
Layer 1
10
21.286502
20
183.141105
11
20.718222
21
184.031184
0
LINE
8
Layer 1
10
20.718222
20
184.031184
11
20.444659
21
184.853993
0
LINE
8
Layer 1
10
20.444659
20
184.853993
11
20.305602
21
185.935510
0
LINE
8
Layer 1
10
20.305602
20
185.935510
11
19.973941
21
187.699565
0
LINE
8
Layer 1
10
19.973941
20
187.699565
11
19.382478
21
189.320212
0
LINE
8
Layer 1
10
19.382478
20
189.320212
11
18.846403
21
190.696957
0
LINE
8
Layer 1
10
18.846403
20
190.696957
11
18.630565
21
191.875267
0
LINE
8
Layer 1
10
18.630565
20
191.875267
11
18.743092
21
192.697707
0
LINE
8
Layer 1
10
18.743092
20
192.697707
11
18.925033
21
192.926276
0
LINE
8
Layer 1
10
18.925033
20
192.926276
11
19.192114
21
193.006839
0
LINE
8
Layer 1
10
19.192114
20
193.006839
11
19.800330
21
192.673913
0
LINE
8
Layer 1
10
19.800330
20
192.673913
11
20.409072
21
191.730980
0
LINE
8
Layer 1
10
20.409072
20
191.730980
11
20.977462
21
190.261810
0
LINE
8
Layer 1
10
20.977462
20
190.261810
11
21.464617
21
188.350172
0
LINE
8
Layer 1
10
21.464617
20
188.350172
11
21.877993
21
186.558373
0
LINE
8
Layer 1
10
21.877993
20
186.558373
11
22.369405
21
185.312141
0
LINE
8
Layer 1
10
22.369405
20
185.312141
11
23.181014
21
184.167060
0
LINE
8
Layer 1
10
23.181014
20
184.167060
11
24.554982
21
182.678711
0
LINE
8
Layer 1
10
24.554982
20
182.678711
11
26.034289
21
181.021293
0
LINE
8
Layer 1
10
26.034289
20
181.021293
11
27.089931
21
179.571010
0
LINE
8
Layer 1
10
27.089931
20
179.571010
11
27.724866
21
178.323137
0
LINE
8
Layer 1
10
27.724866
20
178.323137
11
27.942055
21
177.272950
0
LINE
8
Layer 1
10
27.942055
20
177.272950
11
27.806187
21
176.747044
0
LINE
8
Layer 1
10
27.806187
20
176.747044
11
27.378204
21
176.713297
0
LINE
8
Layer 1
10
27.378204
20
176.713297
11
26.650114
21
177.174666
0
LINE
8
Layer 1
10
26.650114
20
177.174666
11
25.613925
21
178.134106
0
LINE
8
Layer 1
10
25.613925
20
178.134106
11
25.613925
21
178.134106
0
LINE
8
Layer 1
10
30.488252
20
185.137874
11
29.334669
21
185.245647
0
LINE
8
Layer 1
10
29.334669
20
185.245647
11
27.948253
21
185.201173
0
LINE
8
Layer 1
10
27.948253
20
185.201173
11
26.519610
21
185.194368
0
LINE
8
Layer 1
10
26.519610
20
185.194368
11
26.100041
21
185.416553
0
LINE
8
Layer 1
10
26.100041
20
185.416553
11
25.653521
21
185.852559
0
LINE
8
Layer 1
10
25.653521
20
185.852559
11
24.854678
21
186.938725
0
LINE
8
Layer 1
10
24.854678
20
186.938725
11
23.976728
21
188.420728
0
LINE
8
Layer 1
10
23.976728
20
188.420728
11
23.249857
21
189.666474
0
LINE
8
Layer 1
10
23.249857
20
189.666474
11
22.814238
21
190.184617
0
LINE
8
Layer 1
10
22.814238
20
190.184617
11
22.653064
21
190.308971
0
LINE
8
Layer 1
10
22.653064
20
190.308971
11
22.586027
21
190.607950
0
LINE
8
Layer 1
10
22.586027
20
190.607950
11
22.516432
21
190.906929
0
LINE
8
Layer 1
10
22.516432
20
190.906929
11
22.349107
21
191.031283
0
LINE
8
Layer 1
10
22.349107
20
191.031283
11
22.077767
21
191.243953
0
LINE
8
Layer 1
10
22.077767
20
191.243953
11
21.785816
21
191.764139
0
LINE
8
Layer 1
10
21.785816
20
191.764139
11
21.457138
21
193.020117
0
LINE
8
Layer 1
10
21.457138
20
193.020117
11
21.620520
21
193.483004
0
LINE
8
Layer 1
10
21.620520
20
193.483004
11
22.009713
21
193.571650
0
LINE
8
Layer 1
10
22.009713
20
193.571650
11
22.473283
21
193.315755
0
LINE
8
Layer 1
10
22.473283
20
193.315755
11
22.859800
21
192.745019
0
LINE
8
Layer 1
10
22.859800
20
192.745019
11
23.769600
21
191.405129
0
LINE
8
Layer 1
10
23.769600
20
191.405129
11
24.732119
21
190.127718
0
LINE
8
Layer 1
10
24.732119
20
190.127718
11
25.441951
21
189.339215
0
LINE
8
Layer 1
10
25.441951
20
189.339215
11
26.540605
21
188.708568
0
LINE
8
Layer 1
10
26.540605
20
188.708568
11
27.770727
21
188.345582
0
LINE
8
Layer 1
10
27.770727
20
188.345582
11
28.874963
21
188.360064
0
LINE
8
Layer 1
10
28.874963
20
188.360064
11
29.247491
21
188.488897
0
LINE
8
Layer 1
10
29.247491
20
188.488897
11
29.437390
21
188.703907
0
LINE
8
Layer 1
10
29.437390
20
188.703907
11
29.424794
21
189.799533
0
LINE
8
Layer 1
10
29.424794
20
189.799533
11
29.423230
21
190.825289
0
LINE
8
Layer 1
10
29.423230
20
190.825289
11
29.628884
21
191.675717
0
LINE
8
Layer 1
10
29.628884
20
191.675717
11
29.994037
21
192.233126
0
LINE
8
Layer 1
10
29.994037
20
192.233126
11
30.470972
21
192.379823
0
LINE
8
Layer 1
10
30.470972
20
192.379823
11
30.839106
21
191.982615
0
LINE
8
Layer 1
10
30.839106
20
191.982615
11
31.052697
21
190.916374
0
LINE
8
Layer 1
10
31.052697
20
190.916374
11
31.271412
21
189.795822
0
LINE
8
Layer 1
10
31.271412
20
189.795822
11
31.691285
21
189.225556
0
LINE
8
Layer 1
10
31.691285
20
189.225556
11
32.390591
21
189.161188
0
LINE
8
Layer 1
10
32.390591
20
189.161188
11
33.447606
21
189.558335
0
LINE
8
Layer 1
10
33.447606
20
189.558335
11
34.446364
21
189.999818
0
LINE
8
Layer 1
10
34.446364
20
189.999818
11
35.084950
21
190.148076
0
LINE
8
Layer 1
10
35.084950
20
190.148076
11
35.458992
21
190.003450
0
LINE
8
Layer 1
10
35.458992
20
190.003450
11
35.664117
21
189.566285
0
LINE
8
Layer 1
10
35.664117
20
189.566285
11
35.685593
21
189.023693
0
LINE
8
Layer 1
10
35.685593
20
189.023693
11
35.517320
21
188.394746
0
LINE
8
Layer 1
10
35.517320
20
188.394746
11
34.738771
21
187.045069
0
LINE
8
Layer 1
10
34.738771
20
187.045069
11
33.582965
21
185.851814
0
LINE
8
Layer 1
10
33.582965
20
185.851814
11
32.943121
21
185.418396
0
LINE
8
Layer 1
10
32.943121
20
185.418396
11
32.304397
21
185.149544
0
LINE
8
Layer 1
10
32.304397
20
185.149544
11
31.429203
21
185.052121
0
LINE
8
Layer 1
10
31.429203
20
185.052121
11
30.488252
21
185.137874
0
LINE
8
Layer 1
10
30.488252
20
185.137874
11
30.488252
21
185.137874
0
LINE
8
Layer 1
10
166.519360
20
31.259264
11
166.249926
21
31.537081
0
LINE
8
Layer 1
10
166.249926
20
31.537081
11
165.602138
21
31.856796
0
LINE
8
Layer 1
10
165.602138
20
31.856796
11
163.310683
21
32.888167
0
LINE
8
Layer 1
10
163.310683
20
32.888167
11
162.643765
21
33.394395
0
LINE
8
Layer 1
10
162.643765
20
33.394395
11
162.090314
21
34.021113
0
LINE
8
Layer 1
10
162.090314
20
34.021113
11
161.670086
21
34.638522
0
LINE
8
Layer 1
10
161.670086
20
34.638522
11
161.440728
21
35.255471
0
LINE
8
Layer 1
10
161.440728
20
35.255471
11
161.341757
21
37.468265
0
LINE
8
Layer 1
10
161.341757
20
37.468265
11
161.517280
21
39.802201
0
LINE
8
Layer 1
10
161.517280
20
39.802201
11
162.301273
21
41.735725
0
LINE
8
Layer 1
10
162.301273
20
41.735725
11
163.385335
21
43.690671
0
LINE
8
Layer 1
10
163.385335
20
43.690671
11
164.446591
21
45.310103
0
LINE
8
Layer 1
10
164.446591
20
45.310103
11
165.342353
21
46.396719
0
LINE
8
Layer 1
10
165.342353
20
46.396719
11
165.929934
21
46.753221
0
LINE
8
Layer 1
10
165.929934
20
46.753221
11
166.335529
21
46.505215
0
LINE
8
Layer 1
10
166.335529
20
46.505215
11
166.433199
21
45.958149
0
LINE
8
Layer 1
10
166.433199
20
45.958149
11
166.220727
21
45.084598
0
LINE
8
Layer 1
10
166.220727
20
45.084598
11
165.695898
21
43.857136
0
LINE
8
Layer 1
10
165.695898
20
43.857136
11
165.194551
21
42.603368
0
LINE
8
Layer 1
10
165.194551
20
42.603368
11
164.888690
21
41.357045
0
LINE
8
Layer 1
10
164.888690
20
41.357045
11
164.773088
21
40.153269
0
LINE
8
Layer 1
10
164.773088
20
40.153269
11
164.842515
21
39.027141
0
LINE
8
Layer 1
10
164.842515
20
39.027141
11
165.091745
21
38.013764
0
LINE
8
Layer 1
10
165.091745
20
38.013764
11
165.515549
21
37.148238
0
LINE
8
Layer 1
10
165.515549
20
37.148238
11
166.108698
21
36.465666
0
LINE
8
Layer 1
10
166.108698
20
36.465666
11
166.865966
21
36.001150
0
LINE
8
Layer 1
10
166.865966
20
36.001150
11
167.478178
21
35.830918
0
LINE
8
Layer 1
10
167.478178
20
35.830918
11
168.058026
21
35.839207
0
LINE
8
Layer 1
10
168.058026
20
35.839207
11
168.609063
21
36.029254
0
LINE
8
Layer 1
10
168.609063
20
36.029254
11
169.134844
21
36.404297
0
LINE
8
Layer 1
10
169.134844
20
36.404297
11
170.124855
21
37.722329
0
LINE
8
Layer 1
10
170.124855
20
37.722329
11
171.056495
21
39.819207
0
LINE
8
Layer 1
10
171.056495
20
39.819207
11
171.450774
21
41.130192
0
LINE
8
Layer 1
10
171.450774
20
41.130192
11
171.568078
21
42.207287
0
LINE
8
Layer 1
10
171.568078
20
42.207287
11
171.406558
21
43.134401
0
LINE
8
Layer 1
10
171.406558
20
43.134401
11
170.964360
21
43.995442
0
LINE
8
Layer 1
10
170.964360
20
43.995442
11
170.387675
21
44.669231
0
LINE
8
Layer 1
10
170.387675
20
44.669231
11
169.416705
21
45.357987
0
LINE
8
Layer 1
10
169.416705
20
45.357987
11
164.788887
21
47.676260
0
LINE
8
Layer 1
10
164.788887
20
47.676260
11
162.586013
21
48.774408
0
LINE
8
Layer 1
10
162.586013
20
48.774408
11
161.396561
21
49.574058
0
LINE
8
Layer 1
10
161.396561
20
49.574058
11
161.113427
21
49.927145
0
LINE
8
Layer 1
10
161.113427
20
49.927145
11
161.001520
21
50.283846
0
LINE
8
Layer 1
10
161.001520
20
50.283846
11
161.181881
21
51.112412
0
LINE
8
Layer 1
10
161.181881
20
51.112412
11
162.153728
21
52.896463
0
LINE
8
Layer 1
10
162.153728
20
52.896463
11
163.628735
21
55.121283
0
LINE
8
Layer 1
10
163.628735
20
55.121283
11
165.064811
21
57.019163
0
LINE
8
Layer 1
10
165.064811
20
57.019163
11
165.919870
21
57.822392
0
LINE
8
Layer 1
10
165.919870
20
57.822392
11
166.657683
21
57.435996
0
LINE
8
Layer 1
10
166.657683
20
57.435996
11
166.931502
21
57.189733
0
LINE
8
Layer 1
10
166.931502
20
57.189733
11
166.969715
21
56.909311
0
LINE
8
Layer 1
10
166.969715
20
56.909311
11
166.185794
21
55.672107
0
LINE
8
Layer 1
10
166.185794
20
55.672107
11
165.229815
21
54.306157
0
LINE
8
Layer 1
10
165.229815
20
54.306157
11
164.761545
21
53.446594
0
LINE
8
Layer 1
10
164.761545
20
53.446594
11
164.706048
21
52.890934
0
LINE
8
Layer 1
10
164.706048
20
52.890934
11
164.988384
21
52.436691
0
LINE
8
Layer 1
10
164.988384
20
52.436691
11
165.445647
21
52.054634
0
LINE
8
Layer 1
10
165.445647
20
52.054634
11
165.857547
21
51.895725
0
LINE
8
Layer 1
10
165.857547
20
51.895725
11
166.125633
21
51.833060
0
LINE
8
Layer 1
10
166.125633
20
51.833060
11
166.237138
21
51.682396
0
LINE
8
Layer 1
10
166.237138
20
51.682396
11
167.154360
21
51.087647
0
LINE
8
Layer 1
10
167.154360
20
51.087647
11
171.163027
21
49.216469
0
LINE
8
Layer 1
10
171.163027
20
49.216469
11
173.645472
21
47.715768
0
LINE
8
Layer 1
10
173.645472
20
47.715768
11
174.065957
21
47.266873
0
LINE
8
Layer 1
10
174.065957
20
47.266873
11
174.299499
21
46.783157
0
LINE
8
Layer 1
10
174.299499
20
46.783157
11
174.421583
21
44.939066
0
LINE
8
Layer 1
10
174.421583
20
44.939066
11
174.141187
21
42.437989
0
LINE
8
Layer 1
10
174.141187
20
42.437989
11
173.241062
21
39.803582
0
LINE
8
Layer 1
10
173.241062
20
39.803582
11
171.632804
21
36.838498
0
LINE
8
Layer 1
10
171.632804
20
36.838498
11
169.228008
21
33.345391
0
LINE
8
Layer 1
10
169.228008
20
33.345391
11
167.853002
21
31.675891
0
LINE
8
Layer 1
10
167.853002
20
31.675891
11
167.013249
21
31.017058
0
LINE
8
Layer 1
10
167.013249
20
31.017058
11
166.664440
21
31.085823
0
LINE
8
Layer 1
10
166.664440
20
31.085823
11
166.519360
21
31.259264
0
LINE
8
Layer 1
10
166.519360
20
31.259264
11
166.519360
21
31.259264
0
LINE
8
Layer 1
10
65.671954
20
181.059432
11
65.526929
21
181.432325
0
LINE
8
Layer 1
10
65.526929
20
181.432325
11
65.492958
21
182.062167
0
LINE
8
Layer 1
10
65.492958
20
182.062167
11
65.743627
21
183.580837
0
LINE
8
Layer 1
10
65.743627
20
183.580837
11
66.141177
21
186.740552
0
LINE
8
Layer 1
10
66.141177
20
186.740552
11
66.184170
21
188.639069
0
LINE
8
Layer 1
10
66.184170
20
188.639069
11
66.069427
21
188.841275
0
LINE
8
Layer 1
10
66.069427
20
188.841275
11
65.837635
21
188.716107
0
LINE
8
Layer 1
10
65.837635
20
188.716107
11
65.012968
21
187.432950
0
LINE
8
Layer 1
10
65.012968
20
187.432950
11
64.588164
21
186.755707
0
LINE
8
Layer 1
10
64.588164
20
186.755707
11
64.087925
21
186.515728
0
LINE
8
Layer 1
10
64.087925
20
186.515728
11
63.678702
21
186.688833
0
LINE
8
Layer 1
10
63.678702
20
186.688833
11
63.375463
21
187.091990
0
LINE
8
Layer 1
10
63.375463
20
187.091990
11
63.262353
21
187.550964
0
LINE
8
Layer 1
10
63.262353
20
187.550964
11
63.423515
21
187.891519
0
LINE
8
Layer 1
10
63.423515
20
187.891519
11
64.063268
21
189.055728
0
LINE
8
Layer 1
10
64.063268
20
189.055728
11
65.119939
21
190.960728
0
LINE
8
Layer 1
10
65.119939
20
190.960728
11
65.794752
21
191.877950
0
LINE
8
Layer 1
10
65.794752
20
191.877950
11
64.533788
21
191.877950
0
LINE
8
Layer 1
10
64.533788
20
191.877950
11
63.238267
21
192.028646
0
LINE
8
Layer 1
10
63.238267
20
192.028646
11
62.017099
21
192.440508
0
LINE
8
Layer 1
10
62.017099
20
192.440508
11
61.001992
21
193.053192
0
LINE
8
Layer 1
10
61.001992
20
193.053192
11
60.324656
21
193.806358
0
LINE
8
Layer 1
10
60.324656
20
193.806358
11
59.934541
21
194.655735
0
LINE
8
Layer 1
10
59.934541
20
194.655735
11
59.677342
21
195.610900
0
LINE
8
Layer 1
10
59.677342
20
195.610900
11
59.557035
21
197.762881
0
LINE
8
Layer 1
10
59.557035
20
197.762881
11
59.954411
21
200.110884
0
LINE
8
Layer 1
10
59.954411
20
200.110884
11
60.860147
21
202.503490
0
LINE
8
Layer 1
10
60.860147
20
202.503490
11
61.727744
21
204.003542
0
LINE
8
Layer 1
10
61.727744
20
204.003542
11
62.689524
21
205.198067
0
LINE
8
Layer 1
10
62.689524
20
205.198067
11
63.702318
21
206.071534
0
LINE
8
Layer 1
10
63.702318
20
206.071534
11
64.722956
21
206.608413
0
LINE
8
Layer 1
10
64.722956
20
206.608413
11
65.708269
21
206.793174
0
LINE
8
Layer 1
10
65.708269
20
206.793174
11
66.615087
21
206.610286
0
LINE
8
Layer 1
10
66.615087
20
206.610286
11
67.400241
21
206.044220
0
LINE
8
Layer 1
10
67.400241
20
206.044220
11
68.020562
21
205.079445
0
LINE
8
Layer 1
10
68.020562
20
205.079445
11
68.489960
21
204.209155
0
LINE
8
Layer 1
10
68.489960
20
204.209155
11
68.623451
21
204.203200
0
LINE
8
Layer 1
10
68.623451
20
204.203200
11
68.735502
21
204.442348
0
LINE
8
Layer 1
10
68.735502
20
204.442348
11
70.166007
21
207.537609
0
LINE
8
Layer 1
10
70.166007
20
207.537609
11
71.758909
21
210.383586
0
LINE
8
Layer 1
10
71.758909
20
210.383586
11
72.489284
21
210.966349
0
LINE
8
Layer 1
10
72.489284
20
210.966349
11
73.355936
21
211.100992
0
LINE
8
Layer 1
10
73.355936
20
211.100992
11
74.281879
21
210.794879
0
LINE
8
Layer 1
10
74.281879
20
210.794879
11
75.190133
21
210.055373
0
LINE
8
Layer 1
10
75.190133
20
210.055373
11
76.136944
21
208.707363
0
LINE
8
Layer 1
10
76.136944
20
208.707363
11
76.807050
21
207.024414
0
LINE
8
Layer 1
10
76.807050
20
207.024414
11
77.205449
21
204.989136
0
LINE
8
Layer 1
10
77.205449
20
204.989136
11
77.337138
21
202.584140
0
LINE
8
Layer 1
10
77.337138
20
202.584140
11
77.204495
21
200.045411
0
LINE
8
Layer 1
10
77.204495
20
200.045411
11
76.704176
21
197.925399
0
LINE
8
Layer 1
10
76.704176
20
197.925399
11
75.682597
21
195.795192
0
LINE
8
Layer 1
10
75.682597
20
195.795192
11
73.986176
21
193.225874
0
LINE
8
Layer 1
10
73.986176
20
193.225874
11
72.090619
21
190.755314
0
LINE
8
Layer 1
10
72.090619
20
190.755314
11
71.545085
21
190.310169
0
LINE
8
Layer 1
10
71.545085
20
190.310169
11
71.076066
21
190.191985
0
LINE
8
Layer 1
10
71.076066
20
190.191985
11
69.594400
21
189.909379
0
LINE
8
Layer 1
10
69.594400
20
189.909379
11
69.181233
21
189.700651
0
LINE
8
Layer 1
10
69.181233
20
189.700651
11
68.965722
21
189.294746
0
LINE
8
Layer 1
10
68.965722
20
189.294746
11
68.870472
21
186.779391
0
LINE
8
Layer 1
10
68.870472
20
186.779391
11
68.870472
21
183.924640
0
LINE
8
Layer 1
10
68.870472
20
183.924640
11
67.566190
21
182.397962
0
LINE
8
Layer 1
10
67.566190
20
182.397962
11
66.263335
21
181.024095
0
LINE
8
Layer 1
10
66.263335
20
181.024095
11
65.934115
21
180.904763
0
LINE
8
Layer 1
10
65.934115
20
180.904763
11
65.671954
21
181.059432
0
LINE
8
Layer 1
10
65.671954
20
181.059432
11
65.671954
21
181.059432
0
LINE
8
Layer 1
10
71.219438
20
193.526579
11
72.119104
21
193.841910
0
LINE
8
Layer 1
10
72.119104
20
193.841910
11
72.819729
21
194.315178
0
LINE
8
Layer 1
10
72.819729
20
194.315178
11
73.411757
21
195.029478
0
LINE
8
Layer 1
10
73.411757
20
195.029478
11
73.985634
21
196.067900
0
LINE
8
Layer 1
10
73.985634
20
196.067900
11
74.499725
21
197.642276
0
LINE
8
Layer 1
10
74.499725
20
197.642276
11
74.618051
21
200.062397
0
LINE
8
Layer 1
10
74.618051
20
200.062397
11
74.495501
21
202.290847
0
LINE
8
Layer 1
10
74.495501
20
202.290847
11
74.131807
21
204.222790
0
LINE
8
Layer 1
10
74.131807
20
204.222790
11
73.522766
21
205.873704
0
LINE
8
Layer 1
10
73.522766
20
205.873704
11
72.664176
21
207.259064
0
LINE
8
Layer 1
10
72.664176
20
207.259064
11
72.222797
21
207.682397
0
LINE
8
Layer 1
10
72.222797
20
207.682397
11
71.784766
21
207.259064
0
LINE
8
Layer 1
10
71.784766
20
207.259064
11
70.944110
21
205.723842
0
LINE
8
Layer 1
10
70.944110
20
205.723842
11
70.247201
21
204.101113
0
LINE
8
Layer 1
10
70.247201
20
204.101113
11
69.706927
21
202.418071
0
LINE
8
Layer 1
10
69.706927
20
202.418071
11
69.336175
21
200.701907
0
LINE
8
Layer 1
10
69.336175
20
200.701907
11
68.981413
21
197.411518
0
LINE
8
Layer 1
10
68.981413
20
197.411518
11
68.906456
21
196.141027
0
LINE
8
Layer 1
10
68.906456
20
196.141027
11
68.984194
21
195.938823
0
LINE
8
Layer 1
10
68.984194
20
195.938823
11
69.145506
21
195.965730
0
LINE
8
Layer 1
10
69.145506
20
195.965730
11
69.363769
21
196.366480
0
LINE
8
Layer 1
10
69.363769
20
196.366480
11
69.350681
21
197.085466
0
LINE
8
Layer 1
10
69.350681
20
197.085466
11
69.320408
21
197.601518
0
LINE
8
Layer 1
10
69.320408
20
197.601518
11
69.454915
21
198.075876
0
LINE
8
Layer 1
10
69.454915
20
198.075876
11
70.447081
21
199.377924
0
LINE
8
Layer 1
10
70.447081
20
199.377924
11
71.689922
21
200.767953
0
LINE
8
Layer 1
10
71.689922
20
200.767953
11
72.263782
21
200.062397
0
LINE
8
Layer 1
10
72.263782
20
200.062397
11
72.932679
21
199.173999
0
LINE
8
Layer 1
10
72.932679
20
199.173999
11
73.125306
21
198.508927
0
LINE
8
Layer 1
10
73.125306
20
198.508927
11
72.815869
21
197.753498
0
LINE
8
Layer 1
10
72.815869
20
197.753498
11
71.978574
21
196.594033
0
LINE
8
Layer 1
10
71.978574
20
196.594033
11
70.743032
21
195.115334
0
LINE
8
Layer 1
10
70.743032
20
195.115334
11
69.728176
21
194.143588
0
LINE
8
Layer 1
10
69.728176
20
194.143588
11
69.122422
21
193.625330
0
LINE
8
Layer 1
10
69.122422
20
193.625330
11
68.870472
21
193.236943
0
LINE
8
Layer 1
10
68.870472
20
193.236943
11
68.930393
21
193.080670
0
LINE
8
Layer 1
10
68.930393
20
193.080670
11
69.226008
21
193.062567
0
LINE
8
Layer 1
10
69.226008
20
193.062567
11
71.219438
21
193.526579
0
LINE
8
Layer 1
10
71.219438
20
193.526579
11
71.219438
21
193.526579
0
LINE
8
Layer 1
10
65.881735
20
193.941144
11
66.149230
21
194.244356
0
LINE
8
Layer 1
10
66.149230
20
194.244356
11
66.275138
21
194.832860
0
LINE
8
Layer 1
10
66.275138
20
194.832860
11
66.185294
21
197.968046
0
LINE
8
Layer 1
10
66.185294
20
197.968046
11
65.972044
21
200.470643
0
LINE
8
Layer 1
10
65.972044
20
200.470643
11
65.640371
21
202.210211
0
LINE
8
Layer 1
10
65.640371
20
202.210211
11
65.169960
21
203.257332
0
LINE
8
Layer 1
10
65.169960
20
203.257332
11
64.540497
21
203.682583
0
LINE
8
Layer 1
10
64.540497
20
203.682583
11
63.988784
21
203.606945
0
LINE
8
Layer 1
10
63.988784
20
203.606945
11
63.398355
21
203.218533
0
LINE
8
Layer 1
10
63.398355
20
203.218533
11
62.239188
21
201.738134
0
LINE
8
Layer 1
10
62.239188
20
201.738134
11
61.338676
21
199.710871
0
LINE
8
Layer 1
10
61.338676
20
199.710871
11
61.071566
21
198.638879
0
LINE
8
Layer 1
10
61.071566
20
198.638879
11
60.972500
21
197.606229
0
LINE
8
Layer 1
10
60.972500
20
197.606229
11
61.232002
21
195.897200
0
LINE
8
Layer 1
10
61.232002
20
195.897200
11
61.899896
21
194.620955
0
LINE
8
Layer 1
10
61.899896
20
194.620955
11
63.029531
21
193.958042
0
LINE
8
Layer 1
10
63.029531
20
193.958042
11
64.300495
21
193.580012
0
LINE
8
Layer 1
10
64.300495
20
193.580012
11
65.179531
21
193.665127
0
LINE
8
Layer 1
10
65.179531
20
193.665127
11
65.881735
21
193.941144
0
LINE
8
Layer 1
10
65.881735
20
193.941144
11
65.881735
21
193.941144
0
LINE
8
Layer 1
10
175.068312
20
185.034061
11
174.724390
21
185.669061
0
LINE
8
Layer 1
10
174.724390
20
185.669061
11
173.318269
21
188.036062
0
LINE
8
Layer 1
10
173.318269
20
188.036062
11
172.190705
21
190.529357
0
LINE
8
Layer 1
10
172.190705
20
190.529357
11
171.601186
21
192.865728
0
LINE
8
Layer 1
10
171.601186
20
192.865728
11
171.412517
21
193.847098
0
LINE
8
Layer 1
10
171.412517
20
193.847098
11
171.316542
21
193.908946
0
LINE
8
Layer 1
10
171.316542
20
193.908946
11
171.206662
21
193.712394
0
LINE
8
Layer 1
10
171.206662
20
193.712394
11
170.883189
21
192.971522
0
LINE
8
Layer 1
10
170.883189
20
192.971522
11
170.477077
21
192.417015
0
LINE
8
Layer 1
10
170.477077
20
192.417015
11
168.793129
21
191.223928
0
LINE
8
Layer 1
10
168.793129
20
191.223928
11
167.605922
21
190.568694
0
LINE
8
Layer 1
10
167.605922
20
190.568694
11
166.819366
21
190.342925
0
LINE
8
Layer 1
10
166.819366
20
190.342925
11
166.310317
21
190.544302
0
LINE
8
Layer 1
10
166.310317
20
190.544302
11
165.955633
21
191.170509
0
LINE
8
Layer 1
10
165.955633
20
191.170509
11
165.416385
21
192.158122
0
LINE
8
Layer 1
10
165.416385
20
192.158122
11
164.539151
21
193.425780
0
LINE
8
Layer 1
10
164.539151
20
193.425780
11
163.618754
21
194.576805
0
LINE
8
Layer 1
10
163.618754
20
194.576805
11
162.950017
21
195.214517
0
LINE
8
Layer 1
10
162.950017
20
195.214517
11
162.715438
21
195.421218
0
LINE
8
Layer 1
10
162.715438
20
195.421218
11
162.600958
21
195.781762
0
LINE
8
Layer 1
10
162.600958
20
195.781762
11
162.675965
21
197.417154
0
LINE
8
Layer 1
10
162.675965
20
197.417154
11
163.035575
21
203.872397
0
LINE
8
Layer 1
10
163.035575
20
203.872397
11
163.268241
21
207.747007
0
LINE
8
Layer 1
10
163.268241
20
207.747007
11
163.465584
21
208.546147
0
LINE
8
Layer 1
10
163.465584
20
208.546147
11
163.780078
21
209.023382
0
LINE
8
Layer 1
10
163.780078
20
209.023382
11
164.433089
21
209.531543
0
LINE
8
Layer 1
10
164.433089
20
209.531543
11
165.326745
21
209.906955
0
LINE
8
Layer 1
10
165.326745
20
209.906955
11
166.429294
21
210.139940
0
LINE
8
Layer 1
10
166.429294
20
210.139940
11
167.708984
21
210.220822
0
LINE
8
Layer 1
10
167.708984
20
210.220822
11
168.975223
21
210.052516
0
LINE
8
Layer 1
10
168.975223
20
210.052516
11
170.037317
21
209.346495
0
LINE
8
Layer 1
10
170.037317
20
209.346495
11
170.719394
21
208.636500
0
LINE
8
Layer 1
10
170.719394
20
208.636500
11
170.983597
21
208.020090
0
LINE
8
Layer 1
10
170.983597
20
208.020090
11
170.838050
21
207.413534
0
LINE
8
Layer 1
10
170.838050
20
207.413534
11
170.290877
21
206.733103
0
LINE
8
Layer 1
10
170.290877
20
206.733103
11
169.341909
21
206.027241
0
LINE
8
Layer 1
10
169.341909
20
206.027241
11
169.072536
21
206.113641
0
LINE
8
Layer 1
10
169.072536
20
206.113641
11
168.883801
21
206.482953
0
LINE
8
Layer 1
10
168.883801
20
206.482953
11
168.510103
21
207.393126
0
LINE
8
Layer 1
10
168.510103
20
207.393126
11
168.078289
21
208.026816
0
LINE
8
Layer 1
10
168.078289
20
208.026816
11
167.616190
21
208.386798
0
LINE
8
Layer 1
10
167.616190
20
208.386798
11
167.151633
21
208.475844
0
LINE
8
Layer 1
10
167.151633
20
208.475844
11
166.712448
21
208.296729
0
LINE
8
Layer 1
10
166.712448
20
208.296729
11
166.326464
21
207.852224
0
LINE
8
Layer 1
10
166.326464
20
207.852224
11
166.021510
21
207.145105
0
LINE
8
Layer 1
10
166.021510
20
207.145105
11
165.825416
21
206.178144
0
LINE
8
Layer 1
10
165.825416
20
206.178144
11
165.487926
21
203.618806
0
LINE
8
Layer 1
10
165.487926
20
203.618806
11
165.326692
21
202.518546
0
LINE
8
Layer 1
10
165.326692
20
202.518546
11
166.151907
21
203.106153
0
LINE
8
Layer 1
10
166.151907
20
203.106153
11
167.704084
21
203.876213
0
LINE
8
Layer 1
10
167.704084
20
203.876213
11
168.371084
21
203.873543
0
LINE
8
Layer 1
10
168.371084
20
203.873543
11
168.840209
21
203.259978
0
LINE
8
Layer 1
10
168.840209
20
203.259978
11
170.731934
21
199.921286
0
LINE
8
Layer 1
10
170.731934
20
199.921286
11
171.275605
21
198.451168
0
LINE
8
Layer 1
10
171.275605
20
198.451168
11
171.683796
21
196.534617
0
LINE
8
Layer 1
10
171.683796
20
196.534617
11
171.800309
21
195.925558
0
LINE
8
Layer 1
10
171.800309
20
195.925558
11
172.019934
21
196.252394
0
LINE
8
Layer 1
10
172.019934
20
196.252394
11
172.601294
21
197.091741
0
LINE
8
Layer 1
10
172.601294
20
197.091741
11
173.507588
21
197.844469
0
LINE
8
Layer 1
10
173.507588
20
197.844469
11
174.593167
21
198.413900
0
LINE
8
Layer 1
10
174.593167
20
198.413900
11
175.712382
21
198.703356
0
LINE
8
Layer 1
10
175.712382
20
198.703356
11
176.199415
21
198.694661
0
LINE
8
Layer 1
10
176.199415
20
198.694661
11
176.599425
21
198.419822
0
LINE
8
Layer 1
10
176.599425
20
198.419822
11
177.782240
21
196.334987
0
LINE
8
Layer 1
10
177.782240
20
196.334987
11
178.572503
21
194.607709
0
LINE
8
Layer 1
10
178.572503
20
194.607709
11
178.745166
21
193.597798
0
LINE
8
Layer 1
10
178.745166
20
193.597798
11
178.588087
21
193.305352
0
LINE
8
Layer 1
10
178.588087
20
193.305352
11
178.262434
21
193.124444
0
LINE
8
Layer 1
10
178.262434
20
193.124444
11
177.086508
21
193.006839
0
LINE
8
Layer 1
10
177.086508
20
193.006839
11
176.014762
21
192.931682
0
LINE
8
Layer 1
10
176.014762
20
192.931682
11
175.171510
21
192.722100
0
LINE
8
Layer 1
10
175.171510
20
192.722100
11
174.619527
21
192.401926
0
LINE
8
Layer 1
10
174.619527
20
192.401926
11
174.421583
21
191.994996
0
LINE
8
Layer 1
10
174.421583
20
191.994996
11
175.225835
21
190.004917
0
LINE
8
Layer 1
10
175.225835
20
190.004917
11
176.462947
21
187.742661
0
LINE
8
Layer 1
10
176.462947
20
187.742661
11
176.844615
21
187.586985
0
LINE
8
Layer 1
10
176.844615
20
187.586985
11
177.580651
21
187.855279
0
LINE
8
Layer 1
10
177.580651
20
187.855279
11
178.358654
21
188.124261
0
LINE
8
Layer 1
10
178.358654
20
188.124261
11
178.909464
21
188.008697
0
LINE
8
Layer 1
10
178.909464
20
188.008697
11
179.321329
21
187.575898
0
LINE
8
Layer 1
10
179.321329
20
187.575898
11
179.276027
21
187.083068
0
LINE
8
Layer 1
10
179.276027
20
187.083068
11
178.772140
21
186.527501
0
LINE
8
Layer 1
10
178.772140
20
186.527501
11
177.808249
21
185.906489
0
LINE
8
Layer 1
10
177.808249
20
185.906489
11
175.987916
21
184.797940
0
LINE
8
Layer 1
10
175.987916
20
184.797940
11
175.451347
21
184.564253
0
LINE
8
Layer 1
10
175.451347
20
184.564253
11
175.068312
21
185.034061
0
LINE
8
Layer 1
10
175.068312
20
185.034061
11
175.068312
21
185.034061
0
LINE
8
Layer 1
10
169.002916
20
193.627728
11
169.321986
21
194.378147
0
LINE
8
Layer 1
10
169.321986
20
194.378147
11
169.328377
21
195.533422
0
LINE
8
Layer 1
10
169.328377
20
195.533422
11
169.043748
21
196.897461
0
LINE
8
Layer 1
10
169.043748
20
196.897461
11
168.489754
21
198.274170
0
LINE
8
Layer 1
10
168.489754
20
198.274170
11
167.100247
21
200.619577
0
LINE
8
Layer 1
10
167.100247
20
200.619577
11
166.556216
21
201.156618
0
LINE
8
Layer 1
10
166.556216
20
201.156618
11
165.976517
21
200.787502
0
LINE
8
Layer 1
10
165.976517
20
200.787502
11
165.504326
21
199.908819
0
LINE
8
Layer 1
10
165.504326
20
199.908819
11
165.356927
21
198.608284
0
LINE
8
Layer 1
10
165.356927
20
198.608284
11
165.531561
21
197.163805
0
LINE
8
Layer 1
10
165.531561
20
197.163805
11
166.025472
21
195.853284
0
LINE
8
Layer 1
10
166.025472
20
195.853284
11
166.928996
21
194.441425
0
LINE
8
Layer 1
10
166.928996
20
194.441425
11
167.716475
21
193.607307
0
LINE
8
Layer 1
10
167.716475
20
193.607307
11
168.402813
21
193.339789
0
LINE
8
Layer 1
10
168.402813
20
193.339789
11
169.002916
21
193.627728
0
LINE
8
Layer 1
10
169.002916
20
193.627728
11
169.002916
21
193.627728
0
LINE
8
Layer 1
10
175.550472
20
195.069564
11
175.127138
21
195.986787
0
LINE
8
Layer 1
10
175.127138
20
195.986787
11
174.703805
21
196.393506
0
LINE
8
Layer 1
10
174.703805
20
196.393506
11
174.280472
21
195.986787
0
LINE
8
Layer 1
10
174.280472
20
195.986787
11
173.934968
21
195.424658
0
LINE
8
Layer 1
10
173.934968
20
195.424658
11
173.890467
21
195.022506
0
LINE
8
Layer 1
10
173.890467
20
195.022506
11
174.146802
21
194.780841
0
LINE
8
Layer 1
10
174.146802
20
194.780841
11
174.703805
21
194.700172
0
LINE
8
Layer 1
10
174.703805
20
194.700172
11
175.318199
21
194.801511
0
LINE
8
Layer 1
10
175.318199
20
194.801511
11
175.550472
21
195.069564
0
LINE
8
Layer 1
10
175.550472
20
195.069564
11
175.550472
21
195.069564
0
LINE
8
Layer 1
10
94.953904
20
193.950505
11
95.101740
21
196.137728
0
LINE
8
Layer 1
10
95.101740
20
196.137728
11
95.397230
21
199.850731
0
LINE
8
Layer 1
10
95.397230
20
199.850731
11
95.307634
21
201.447316
0
LINE
8
Layer 1
10
95.307634
20
201.447316
11
95.137744
21
201.699607
0
LINE
8
Layer 1
10
95.137744
20
201.699607
11
94.834916
21
201.755731
0
LINE
8
Layer 1
10
94.834916
20
201.755731
11
94.426259
21
201.889704
0
LINE
8
Layer 1
10
94.426259
20
201.889704
11
94.290039
21
202.254105
0
LINE
8
Layer 1
10
94.290039
20
202.254105
11
94.426259
21
202.792652
0
LINE
8
Layer 1
10
94.426259
20
202.792652
11
94.834916
21
203.449064
0
LINE
8
Layer 1
10
94.834916
20
203.449064
11
95.120565
21
203.928075
0
LINE
8
Layer 1
10
95.120565
20
203.928075
11
95.289045
21
204.597093
0
LINE
8
Layer 1
10
95.289045
20
204.597093
11
95.393084
21
207.329619
0
LINE
8
Layer 1
10
95.393084
20
207.329619
11
95.318548
21
209.893401
0
LINE
8
Layer 1
10
95.318548
20
209.893401
11
95.193248
21
210.374631
0
LINE
8
Layer 1
10
95.193248
20
210.374631
11
94.985848
21
210.504619
0
LINE
8
Layer 1
10
94.985848
20
210.504619
11
94.476179
21
210.285479
0
LINE
8
Layer 1
10
94.476179
20
210.285479
11
93.677098
21
209.720526
0
LINE
8
Layer 1
10
93.677098
20
209.720526
11
91.920362
21
208.108000
0
LINE
8
Layer 1
10
91.920362
20
208.108000
11
90.015362
21
206.083332
0
LINE
8
Layer 1
10
90.015362
20
206.083332
11
89.034144
21
204.928367
0
LINE
8
Layer 1
10
89.034144
20
204.928367
11
88.626027
21
204.198878
0
LINE
8
Layer 1
10
88.626027
20
204.198878
11
88.925553
21
203.691843
0
LINE
8
Layer 1
10
88.925553
20
203.691843
11
89.616589
21
202.967846
0
LINE
8
Layer 1
10
89.616589
20
202.967846
11
90.387821
21
202.319134
0
LINE
8
Layer 1
10
90.387821
20
202.319134
11
90.927936
21
202.037953
0
LINE
8
Layer 1
10
90.927936
20
202.037953
11
92.029743
21
203.433152
0
LINE
8
Layer 1
10
92.029743
20
203.433152
11
93.175891
21
204.843518
0
LINE
8
Layer 1
10
93.175891
20
204.843518
11
93.624025
21
205.065782
0
LINE
8
Layer 1
10
93.624025
20
205.065782
11
94.013717
21
204.985547
0
LINE
8
Layer 1
10
94.013717
20
204.985547
11
94.260704
21
204.598789
0
LINE
8
Layer 1
10
94.260704
20
204.598789
11
94.152066
21
203.958900
0
LINE
8
Layer 1
10
94.152066
20
203.958900
11
93.685665
21
203.060159
0
LINE
8
Layer 1
10
93.685665
20
203.060159
11
92.859360
21
201.896842
0
LINE
8
Layer 1
10
92.859360
20
201.896842
11
91.441973
21
199.858822
0
LINE
8
Layer 1
10
91.441973
20
199.858822
11
90.892534
21
198.933506
0
LINE
8
Layer 1
10
90.892534
20
198.933506
11
90.349372
21
198.227950
0
LINE
8
Layer 1
10
90.349372
20
198.227950
11
89.276033
21
198.777075
0
LINE
8
Layer 1
10
89.276033
20
198.777075
11
88.278460
21
199.372438
0
LINE
8
Layer 1
10
88.278460
20
199.372438
11
87.401538
21
200.066252
0
LINE
8
Layer 1
10
87.401538
20
200.066252
11
86.682251
21
200.824864
0
LINE
8
Layer 1
10
86.682251
20
200.824864
11
86.157585
21
201.614619
0
LINE
8
Layer 1
10
86.157585
20
201.614619
11
85.853980
21
202.657653
0
LINE
8
Layer 1
10
85.853980
20
202.657653
11
85.739403
21
204.045596
0
LINE
8
Layer 1
10
85.739403
20
204.045596
11
85.818158
21
205.443751
0
LINE
8
Layer 1
10
85.818158
20
205.443751
11
86.094547
21
206.517423
0
LINE
8
Layer 1
10
86.094547
20
206.517423
11
86.699829
21
207.823508
0
LINE
8
Layer 1
10
86.699829
20
207.823508
11
87.487941
21
209.131304
0
LINE
8
Layer 1
10
87.487941
20
209.131304
11
88.717391
21
210.829379
0
LINE
8
Layer 1
10
88.717391
20
210.829379
11
89.926940
21
212.315556
0
LINE
8
Layer 1
10
89.926940
20
212.315556
11
90.655343
21
212.987657
0
LINE
8
Layer 1
10
90.655343
20
212.987657
11
91.327944
21
212.745039
0
LINE
8
Layer 1
10
91.327944
20
212.745039
11
92.282823
21
212.034189
0
LINE
8
Layer 1
10
92.282823
20
212.034189
11
93.511167
21
211.100041
0
LINE
8
Layer 1
10
93.511167
20
211.100041
11
93.970602
21
211.978566
0
LINE
8
Layer 1
10
93.970602
20
211.978566
11
95.120144
21
213.660376
0
LINE
8
Layer 1
10
95.120144
20
213.660376
11
95.877901
21
214.389808
0
LINE
8
Layer 1
10
95.877901
20
214.389808
11
96.181154
21
214.352220
0
LINE
8
Layer 1
10
96.181154
20
214.352220
11
96.609044
21
214.097869
0
LINE
8
Layer 1
10
96.609044
20
214.097869
11
97.264633
21
213.520337
0
LINE
8
Layer 1
10
97.264633
20
213.520337
11
97.820855
21
212.800124
0
LINE
8
Layer 1
10
97.820855
20
212.800124
11
98.306317
21
211.978304
0
LINE
8
Layer 1
10
98.306317
20
211.978304
11
99.432189
21
213.664308
0
LINE
8
Layer 1
10
99.432189
20
213.664308
11
100.330532
21
214.894647
0
LINE
8
Layer 1
10
100.330532
20
214.894647
11
100.909368
21
215.485121
0
LINE
8
Layer 1
10
100.909368
20
215.485121
11
101.554657
21
215.125210
0
LINE
8
Layer 1
10
101.554657
20
215.125210
11
102.671773
21
214.116691
0
LINE
8
Layer 1
10
102.671773
20
214.116691
11
103.838378
21
212.875594
0
LINE
8
Layer 1
10
103.838378
20
212.875594
11
104.632136
21
211.817948
0
LINE
8
Layer 1
10
104.632136
20
211.817948
11
104.882708
21
211.098549
0
LINE
8
Layer 1
10
104.882708
20
211.098549
11
105.003795
21
210.222397
0
LINE
8
Layer 1
10
105.003795
20
210.222397
11
105.032675
21
209.234619
0
LINE
8
Layer 1
10
105.032675
20
209.234619
11
105.409732
21
210.442119
0
LINE
8
Layer 1
10
105.409732
20
210.442119
11
106.389674
21
212.273249
0
LINE
8
Layer 1
10
106.389674
20
212.273249
11
108.019959
21
214.334458
0
LINE
8
Layer 1
10
108.019959
20
214.334458
11
109.753911
21
216.017345
0
LINE
8
Layer 1
10
109.753911
20
216.017345
11
110.488926
21
216.526792
0
LINE
8
Layer 1
10
110.488926
20
216.526792
11
111.044855
21
216.713507
0
LINE
8
Layer 1
10
111.044855
20
216.713507
11
111.632369
21
216.560576
0
LINE
8
Layer 1
10
111.632369
20
216.560576
11
112.151919
21
216.192889
0
LINE
8
Layer 1
10
112.151919
20
216.192889
11
112.815085
21
215.716156
0
LINE
8
Layer 1
10
112.815085
20
215.716156
11
113.747883
21
215.301050
0
LINE
8
Layer 1
10
113.747883
20
215.301050
11
114.472488
21
214.993245
0
LINE
8
Layer 1
10
114.472488
20
214.993245
11
114.801580
21
214.616772
0
LINE
8
Layer 1
10
114.801580
20
214.616772
11
114.768328
21
214.067877
0
LINE
8
Layer 1
10
114.768328
20
214.067877
11
114.405904
21
213.242806
0
LINE
8
Layer 1
10
114.405904
20
213.242806
11
114.086931
21
211.949730
0
LINE
8
Layer 1
10
114.086931
20
211.949730
11
113.912305
21
209.986452
0
LINE
8
Layer 1
10
113.912305
20
209.986452
11
113.911526
21
208.014766
0
LINE
8
Layer 1
10
113.911526
20
208.014766
11
114.114095
21
206.696462
0
LINE
8
Layer 1
10
114.114095
20
206.696462
11
114.380328
21
206.300298
0
LINE
8
Layer 1
10
114.380328
20
206.300298
11
114.846140
21
206.800529
0
LINE
8
Layer 1
10
114.846140
20
206.800529
11
115.368021
21
207.288623
0
LINE
8
Layer 1
10
115.368021
20
207.288623
11
115.957519
21
207.141535
0
LINE
8
Layer 1
10
115.957519
20
207.141535
11
116.566027
21
206.589895
0
LINE
8
Layer 1
10
116.566027
20
206.589895
11
115.607574
21
205.119451
0
LINE
8
Layer 1
10
115.607574
20
205.119451
11
113.946144
21
203.036452
0
LINE
8
Layer 1
10
113.946144
20
203.036452
11
113.484564
21
202.701931
0
LINE
8
Layer 1
10
113.484564
20
202.701931
11
113.021352
21
202.748310
0
LINE
8
Layer 1
10
113.021352
20
202.748310
11
112.534813
21
203.186661
0
LINE
8
Layer 1
10
112.534813
20
203.186661
11
112.003253
21
204.028057
0
LINE
8
Layer 1
10
112.003253
20
204.028057
11
111.573143
21
204.675899
0
LINE
8
Layer 1
10
111.573143
20
204.675899
11
111.271998
21
204.866813
0
LINE
8
Layer 1
10
111.271998
20
204.866813
11
109.997799
21
203.385146
0
LINE
8
Layer 1
10
109.997799
20
203.385146
11
109.140325
21
202.433692
0
LINE
8
Layer 1
10
109.140325
20
202.433692
11
108.574123
21
202.037953
0
LINE
8
Layer 1
10
108.574123
20
202.037953
11
108.180772
21
202.220499
0
LINE
8
Layer 1
10
108.180772
20
202.220499
11
107.674735
21
202.716743
0
LINE
8
Layer 1
10
107.674735
20
202.716743
11
106.514314
21
204.341948
0
LINE
8
Layer 1
10
106.514314
20
204.341948
11
105.472281
21
206.296822
0
LINE
8
Layer 1
10
105.472281
20
206.296822
11
104.928055
21
207.964619
0
LINE
8
Layer 1
10
104.928055
20
207.964619
11
104.862614
21
208.262657
0
LINE
8
Layer 1
10
104.862614
20
208.262657
11
104.760734
21
208.265091
0
LINE
8
Layer 1
10
104.760734
20
208.265091
11
104.345139
21
207.259064
0
LINE
8
Layer 1
10
104.345139
20
207.259064
11
103.465954
21
205.537827
0
LINE
8
Layer 1
10
103.465954
20
205.537827
11
102.042371
21
203.334106
0
LINE
8
Layer 1
10
102.042371
20
203.334106
11
100.620175
21
201.434809
0
LINE
8
Layer 1
10
100.620175
20
201.434809
11
99.745151
21
200.626842
0
LINE
8
Layer 1
10
99.745151
20
200.626842
11
99.391697
21
200.792647
0
LINE
8
Layer 1
10
99.391697
20
200.792647
11
99.068249
21
201.191286
0
LINE
8
Layer 1
10
99.068249
20
201.191286
11
98.676803
21
201.714359
0
LINE
8
Layer 1
10
98.676803
20
201.714359
11
98.530406
21
201.715536
0
LINE
8
Layer 1
10
98.530406
20
201.715536
11
98.414556
21
201.536901
0
LINE
8
Layer 1
10
98.414556
20
201.536901
11
98.267489
21
200.621479
0
LINE
8
Layer 1
10
98.267489
20
200.621479
11
98.221583
21
198.930658
0
LINE
8
Layer 1
10
98.221583
20
198.930658
11
98.221583
21
196.105588
0
LINE
8
Layer 1
10
98.221583
20
196.105588
11
97.029146
21
194.838436
0
LINE
8
Layer 1
10
97.029146
20
194.838436
11
96.224876
21
194.057577
0
LINE
8
Layer 1
10
96.224876
20
194.057577
11
95.628827
21
193.656967
0
LINE
8
Layer 1
10
95.628827
20
193.656967
11
95.214126
21
193.625109
0
LINE
8
Layer 1
10
95.214126
20
193.625109
11
94.953904
21
193.950505
0
LINE
8
Layer 1
10
94.953904
20
193.950505
11
94.953904
21
193.950505
0
LINE
8
Layer 1
10
101.332242
20
205.338762
11
102.026854
21
206.912243
0
LINE
8
Layer 1
10
102.026854
20
206.912243
11
102.160970
21
208.479934
0
LINE
8
Layer 1
10
102.160970
20
208.479934
11
101.744158
21
209.939370
0
LINE
8
Layer 1
10
101.744158
20
209.939370
11
100.785989
21
211.188088
0
LINE
8
Layer 1
10
100.785989
20
211.188088
11
100.214524
21
211.587991
0
LINE
8
Layer 1
10
100.214524
20
211.587991
11
99.792482
21
211.187990
0
LINE
8
Layer 1
10
99.792482
20
211.187990
11
99.324978
21
210.186093
0
LINE
8
Layer 1
10
99.324978
20
210.186093
11
98.809653
21
208.600261
0
LINE
8
Layer 1
10
98.809653
20
208.600261
11
98.393019
21
206.940691
0
LINE
8
Layer 1
10
98.393019
20
206.940691
11
98.221583
21
205.717577
0
LINE
8
Layer 1
10
98.221583
20
205.717577
11
98.397086
21
204.925917
0
LINE
8
Layer 1
10
98.397086
20
204.925917
11
99.138805
21
204.434265
0
LINE
8
Layer 1
10
99.138805
20
204.434265
11
99.891812
21
204.133130
0
LINE
8
Layer 1
10
99.891812
20
204.133130
11
100.366771
21
204.125104
0
LINE
8
Layer 1
10
100.366771
20
204.125104
11
100.776106
21
204.497782
0
LINE
8
Layer 1
10
100.776106
20
204.497782
11
101.332242
21
205.338762
0
LINE
8
Layer 1
10
101.332242
20
205.338762
11
101.332242
21
205.338762
0
LINE
8
Layer 1
10
110.293173
20
206.767052
11
110.618373
21
208.049721
0
LINE
8
Layer 1
10
110.618373
20
208.049721
11
110.927521
21
210.065047
0
LINE
8
Layer 1
10
110.927521
20
210.065047
11
111.116894
21
211.992647
0
LINE
8
Layer 1
10
111.116894
20
211.992647
11
111.082768
21
213.012137
0
LINE
8
Layer 1
10
111.082768
20
213.012137
11
110.806374
21
213.270664
0
LINE
8
Layer 1
10
110.806374
20
213.270664
11
110.425125
21
213.380451
0
LINE
8
Layer 1
10
110.425125
20
213.380451
11
109.522768
21
213.224967
0
LINE
8
Layer 1
10
109.522768
20
213.224967
11
108.725115
21
212.688010
0
LINE
8
Layer 1
10
108.725115
20
212.688010
11
108.474745
21
212.320955
0
LINE
8
Layer 1
10
108.474745
20
212.320955
11
108.381583
21
211.911903
0
LINE
8
Layer 1
10
108.381583
20
211.911903
11
108.298680
21
211.488258
0
LINE
8
Layer 1
10
108.298680
20
211.488258
11
108.099360
21
211.210175
0
LINE
8
Layer 1
10
108.099360
20
211.210175
11
107.849662
21
210.649039
0
LINE
8
Layer 1
10
107.849662
20
210.649039
11
107.838843
21
209.618268
0
LINE
8
Layer 1
10
107.838843
20
209.618268
11
108.042897
21
208.397560
0
LINE
8
Layer 1
10
108.042897
20
208.397560
11
108.437821
21
207.266613
0
LINE
8
Layer 1
10
108.437821
20
207.266613
11
108.952446
21
206.416870
0
LINE
8
Layer 1
10
108.952446
20
206.416870
11
109.434744
21
206.049950
0
LINE
8
Layer 1
10
109.434744
20
206.049950
11
109.882418
21
206.166471
0
LINE
8
Layer 1
10
109.882418
20
206.166471
11
110.293173
21
206.767052
0
LINE
8
Layer 1
10
110.293173
20
206.767052
11
110.293173
21
206.767052
0
LINE
8
Layer 1
10
89.703072
20
207.980605
11
90.048595
21
208.520893
0
LINE
8
Layer 1
10
90.048595
20
208.520893
11
90.174771
21
208.964656
0
LINE
8
Layer 1
10
90.174771
20
208.964656
11
90.079648
21
209.265175
0
LINE
8
Layer 1
10
90.079648
20
209.265175
11
89.761277
21
209.375731
0
LINE
8
Layer 1
10
89.761277
20
209.375731
11
89.418662
21
209.093159
0
LINE
8
Layer 1
10
89.418662
20
209.093159
11
88.944865
21
208.437899
0
LINE
8
Layer 1
10
88.944865
20
208.437899
11
88.343805
21
207.164054
0
LINE
8
Layer 1
10
88.343805
20
207.164054
11
88.454331
21
206.961616
0
LINE
8
Layer 1
10
88.454331
20
206.961616
11
88.751813
21
207.050712
0
LINE
8
Layer 1
10
88.751813
20
207.050712
11
89.703072
21
207.980605
0
LINE
8
Layer 1
10
89.703072
20
207.980605
11
89.703072
21
207.980605
0
LINE
8
Layer 1
10
81.186189
20
195.970172
11
80.866494
21
196.269151
0
LINE
8
Layer 1
10
80.866494
20
196.269151
11
80.325984
21
196.393506
0
LINE
8
Layer 1
10
80.325984
20
196.393506
11
79.783111
21
196.474542
0
LINE
8
Layer 1
10
79.783111
20
196.474542
11
79.457731
21
196.669375
0
LINE
8
Layer 1
10
79.457731
20
196.669375
11
79.465410
21
197.484353
0
LINE
8
Layer 1
10
79.465410
20
197.484353
11
79.723296
21
199.056371
0
LINE
8
Layer 1
10
79.723296
20
199.056371
11
80.010701
21
200.929761
0
LINE
8
Layer 1
10
80.010701
20
200.929761
11
80.144009
21
202.800591
0
LINE
8
Layer 1
10
80.144009
20
202.800591
11
80.111570
21
204.281739
0
LINE
8
Layer 1
10
80.111570
20
204.281739
11
79.901737
21
204.986083
0
LINE
8
Layer 1
10
79.901737
20
204.986083
11
79.559294
21
204.878208
0
LINE
8
Layer 1
10
79.559294
20
204.878208
11
79.097745
21
204.395265
0
LINE
8
Layer 1
10
79.097745
20
204.395265
11
78.614189
21
203.914885
0
LINE
8
Layer 1
10
78.614189
20
203.914885
11
78.226480
21
203.846021
0
LINE
8
Layer 1
10
78.226480
20
203.846021
11
77.968594
21
204.198914
0
LINE
8
Layer 1
10
77.968594
20
204.198914
11
77.929571
21
204.736472
0
LINE
8
Layer 1
10
77.929571
20
204.736472
11
78.098889
21
205.364565
0
LINE
8
Layer 1
10
78.098889
20
205.364565
11
78.466027
21
205.989064
0
LINE
8
Layer 1
10
78.466027
20
205.989064
11
79.024195
21
206.880960
0
LINE
8
Layer 1
10
79.024195
20
206.880960
11
79.278740
21
207.463570
0
LINE
8
Layer 1
10
79.278740
20
207.463570
11
79.848466
21
208.299725
0
LINE
8
Layer 1
10
79.848466
20
208.299725
11
80.477143
21
209.050190
0
LINE
8
Layer 1
10
80.477143
20
209.050190
11
80.908542
21
209.375731
0
LINE
8
Layer 1
10
80.908542
20
209.375731
11
81.306109
21
209.164216
0
LINE
8
Layer 1
10
81.306109
20
209.164216
11
81.747030
21
208.655683
0
LINE
8
Layer 1
10
81.747030
20
208.655683
11
82.091472
21
208.232520
0
LINE
8
Layer 1
10
82.091472
20
208.232520
11
82.397824
21
208.187342
0
LINE
8
Layer 1
10
82.397824
20
208.187342
11
82.751054
21
208.562681
0
LINE
8
Layer 1
10
82.751054
20
208.562681
11
83.236133
21
209.401071
0
LINE
8
Layer 1
10
83.236133
20
209.401071
11
83.781168
21
210.120054
0
LINE
8
Layer 1
10
83.781168
20
210.120054
11
84.374482
21
210.456405
0
LINE
8
Layer 1
10
84.374482
20
210.456405
11
85.072586
21
210.381503
0
LINE
8
Layer 1
10
85.072586
20
210.381503
11
85.935599
21
210.095156
0
LINE
8
Layer 1
10
85.935599
20
210.095156
11
86.639723
21
209.731636
0
LINE
8
Layer 1
10
86.639723
20
209.731636
11
86.861159
21
209.425218
0
LINE
8
Layer 1
10
86.861159
20
209.425218
11
85.951791
21
207.470731
0
LINE
8
Layer 1
10
85.951791
20
207.470731
11
85.215236
21
206.127117
0
LINE
8
Layer 1
10
85.215236
20
206.127117
11
84.909042
21
205.809323
0
LINE
8
Layer 1
10
84.909042
20
205.809323
11
84.628711
21
205.706842
0
LINE
8
Layer 1
10
84.628711
20
205.706842
11
84.245807
21
205.854244
0
LINE
8
Layer 1
10
84.245807
20
205.854244
11
84.110472
21
206.271286
0
LINE
8
Layer 1
10
84.110472
20
206.271286
11
84.038674
21
206.669936
0
LINE
8
Layer 1
10
84.038674
20
206.669936
11
83.859986
21
206.818235
0
LINE
8
Layer 1
10
83.859986
20
206.818235
11
83.629467
21
206.710699
0
LINE
8
Layer 1
10
83.629467
20
206.710699
11
83.402176
21
206.341842
0
LINE
8
Layer 1
10
83.402176
20
206.341842
11
82.764993
21
203.600418
0
LINE
8
Layer 1
10
82.764993
20
203.600418
11
82.417471
21
200.556286
0
LINE
8
Layer 1
10
82.417471
20
200.556286
11
82.482215
21
199.714651
0
LINE
8
Layer 1
10
82.482215
20
199.714651
11
82.649146
21
199.274145
0
LINE
8
Layer 1
10
82.649146
20
199.274145
11
82.876545
21
199.280683
0
LINE
8
Layer 1
10
82.876545
20
199.280683
11
83.122694
21
199.780175
0
LINE
8
Layer 1
10
83.122694
20
199.780175
11
83.433960
21
200.197645
0
LINE
8
Layer 1
10
83.433960
20
200.197645
11
83.988379
21
200.344619
0
LINE
8
Layer 1
10
83.988379
20
200.344619
11
84.478644
21
200.197727
0
LINE
8
Layer 1
10
84.478644
20
200.197727
11
84.675465
21
199.791906
0
LINE
8
Layer 1
10
84.675465
20
199.791906
11
84.573947
21
199.179444
0
LINE
8
Layer 1
10
84.573947
20
199.179444
11
84.169196
21
198.412628
0
LINE
8
Layer 1
10
84.169196
20
198.412628
11
83.117241
21
196.605172
0
LINE
8
Layer 1
10
83.117241
20
196.605172
11
82.616992
21
195.919673
0
LINE
8
Layer 1
10
82.616992
20
195.919673
11
82.054151
21
195.560924
0
LINE
8
Layer 1
10
82.054151
20
195.560924
11
81.540092
21
195.565549
0
LINE
8
Layer 1
10
81.540092
20
195.565549
11
81.186189
21
195.970172
0
LINE
8
Layer 1
10
81.186189
20
195.970172
11
81.186189
21
195.970172
0
LINE
8
Layer 1
10
148.406581
20
199.581076
11
146.007692
21
202.260290
0
LINE
8
Layer 1
10
146.007692
20
202.260290
11
145.493805
21
202.905961
0
LINE
8
Layer 1
10
145.493805
20
202.905961
11
144.370481
21
201.484179
0
LINE
8
Layer 1
10
144.370481
20
201.484179
11
143.506487
21
200.559480
0
LINE
8
Layer 1
10
143.506487
20
200.559480
11
142.764003
21
200.098215
0
LINE
8
Layer 1
10
142.764003
20
200.098215
11
142.188352
21
200.115645
0
LINE
8
Layer 1
10
142.188352
20
200.115645
11
141.824857
21
200.627031
0
LINE
8
Layer 1
10
141.824857
20
200.627031
11
141.434277
21
201.224412
0
LINE
8
Layer 1
10
141.434277
20
201.224412
11
140.738225
21
201.871363
0
LINE
8
Layer 1
10
140.738225
20
201.871363
11
139.961482
21
202.389990
0
LINE
8
Layer 1
10
139.961482
20
202.389990
11
139.328833
21
202.602397
0
LINE
8
Layer 1
10
139.328833
20
202.602397
11
139.013627
21
202.824260
0
LINE
8
Layer 1
10
139.013627
20
202.824260
11
138.858290
21
203.348078
0
LINE
8
Layer 1
10
138.858290
20
203.348078
11
138.886584
21
203.961194
0
LINE
8
Layer 1
10
138.886584
20
203.961194
11
139.122271
21
204.450953
0
LINE
8
Layer 1
10
139.122271
20
204.450953
11
139.333433
21
205.655978
0
LINE
8
Layer 1
10
139.333433
20
205.655978
11
139.475049
21
208.176670
0
LINE
8
Layer 1
10
139.475049
20
208.176670
11
139.473673
21
211.189761
0
LINE
8
Layer 1
10
139.473673
20
211.189761
11
139.295152
21
211.575488
0
LINE
8
Layer 1
10
139.295152
20
211.575488
11
138.932138
21
211.633892
0
LINE
8
Layer 1
10
138.932138
20
211.633892
11
138.450489
21
211.800151
0
LINE
8
Layer 1
10
138.450489
20
211.800151
11
138.300198
21
212.254339
0
LINE
8
Layer 1
10
138.300198
20
212.254339
11
138.479513
21
212.928399
0
LINE
8
Layer 1
10
138.479513
20
212.928399
11
138.986686
21
213.754272
0
LINE
8
Layer 1
10
138.986686
20
213.754272
11
139.451264
21
214.569767
0
LINE
8
Layer 1
10
139.451264
20
214.569767
11
139.526233
21
215.231914
0
LINE
8
Layer 1
10
139.526233
20
215.231914
11
139.599047
21
215.789799
0
LINE
8
Layer 1
10
139.599047
20
215.789799
11
140.227685
21
216.308482
0
LINE
8
Layer 1
10
140.227685
20
216.308482
11
140.868622
21
216.815122
0
LINE
8
Layer 1
10
140.868622
20
216.815122
11
141.213939
21
217.326923
0
LINE
8
Layer 1
10
141.213939
20
217.326923
11
141.485229
21
217.691164
0
LINE
8
Layer 1
10
141.485229
20
217.691164
11
141.938805
21
217.831867
0
LINE
8
Layer 1
10
141.938805
20
217.831867
11
142.405310
21
217.740036
0
LINE
8
Layer 1
10
142.405310
20
217.740036
11
142.715389
21
217.406676
0
LINE
8
Layer 1
10
142.715389
20
217.406676
11
142.746876
21
216.667348
0
LINE
8
Layer 1
10
142.746876
20
216.667348
11
142.587788
21
215.501676
0
LINE
8
Layer 1
10
142.587788
20
215.501676
11
142.443103
21
214.356399
0
LINE
8
Layer 1
10
142.443103
20
214.356399
11
142.554119
21
213.763004
0
LINE
8
Layer 1
10
142.554119
20
213.763004
11
143.125330
21
213.527527
0
LINE
8
Layer 1
10
143.125330
20
213.527527
11
144.131964
21
213.339670
0
LINE
8
Layer 1
10
144.131964
20
213.339670
11
145.092675
21
213.137758
0
LINE
8
Layer 1
10
145.092675
20
213.137758
11
145.553472
21
212.868481
0
LINE
8
Layer 1
10
145.553472
20
212.868481
11
145.407702
21
212.383229
0
LINE
8
Layer 1
10
145.407702
20
212.383229
11
144.910076
21
211.662058
0
LINE
8
Layer 1
10
144.910076
20
211.662058
11
144.125801
21
210.957710
0
LINE
8
Layer 1
10
144.125801
20
210.957710
11
143.205067
21
210.952382
0
LINE
8
Layer 1
10
143.205067
20
210.952382
11
142.248249
21
211.131881
0
LINE
8
Layer 1
10
142.248249
20
211.131881
11
142.248249
21
207.757547
0
LINE
8
Layer 1
10
142.248249
20
207.757547
11
142.341916
21
204.843168
0
LINE
8
Layer 1
10
142.341916
20
204.843168
11
142.516815
21
204.238987
0
LINE
8
Layer 1
10
142.516815
20
204.238987
11
142.828481
21
203.858111
0
LINE
8
Layer 1
10
142.828481
20
203.858111
11
143.400451
21
203.499433
0
LINE
8
Layer 1
10
143.400451
20
203.499433
11
143.946214
21
203.668681
0
LINE
8
Layer 1
10
143.946214
20
203.668681
11
144.432728
21
203.864602
0
LINE
8
Layer 1
10
144.432728
20
203.864602
11
144.847649
21
203.864272
0
LINE
8
Layer 1
10
144.847649
20
203.864272
11
145.016416
21
203.873671
0
LINE
8
Layer 1
10
145.016416
20
203.873671
11
145.112675
21
204.085950
0
LINE
8
Layer 1
10
145.112675
20
204.085950
11
145.115726
21
205.265836
0
LINE
8
Layer 1
10
145.115726
20
205.265836
11
145.188165
21
206.785006
0
LINE
8
Layer 1
10
145.188165
20
206.785006
11
145.795579
21
208.232719
0
LINE
8
Layer 1
10
145.795579
20
208.232719
11
146.740987
21
209.657953
0
LINE
8
Layer 1
10
146.740987
20
209.657953
11
147.613356
21
210.302266
0
LINE
8
Layer 1
10
147.613356
20
210.302266
11
148.948511
21
211.343513
0
LINE
8
Layer 1
10
148.948511
20
211.343513
11
150.123995
21
211.940899
0
LINE
8
Layer 1
10
150.123995
20
211.940899
11
150.960661
21
212.033035
0
LINE
8
Layer 1
10
150.960661
20
212.033035
11
151.195953
21
211.870450
0
LINE
8
Layer 1
10
151.195953
20
211.870450
11
151.279360
21
211.558530
0
LINE
8
Layer 1
10
151.279360
20
211.558530
11
151.621591
21
210.966037
0
LINE
8
Layer 1
10
151.621591
20
210.966037
11
152.444399
21
210.068008
0
LINE
8
Layer 1
10
152.444399
20
210.068008
11
153.588202
21
208.790564
0
LINE
8
Layer 1
10
153.588202
20
208.790564
11
154.702177
21
207.285864
0
LINE
8
Layer 1
10
154.702177
20
207.285864
11
155.595779
21
205.647116
0
LINE
8
Layer 1
10
155.595779
20
205.647116
11
155.794916
21
204.105256
0
LINE
8
Layer 1
10
155.794916
20
204.105256
11
155.661958
21
202.883685
0
LINE
8
Layer 1
10
155.661958
20
202.883685
11
155.248286
21
201.760802
0
LINE
8
Layer 1
10
155.248286
20
201.760802
11
154.531702
21
200.693599
0
LINE
8
Layer 1
10
154.531702
20
200.693599
11
153.490010
21
199.639064
0
LINE
8
Layer 1
10
153.490010
20
199.639064
11
151.634262
21
198.166012
0
LINE
8
Layer 1
10
151.634262
20
198.166012
11
150.514677
21
197.534962
0
LINE
8
Layer 1
10
150.514677
20
197.534962
11
148.406581
21
199.581076
0
LINE
8
Layer 1
10
148.406581
20
199.581076
11
148.406581
21
199.581076
0
LINE
8
Layer 1
10
152.688479
20
201.329996
11
152.962021
21
202.076592
0
LINE
8
Layer 1
10
152.962021
20
202.076592
11
153.021628
21
203.201329
0
LINE
8
Layer 1
10
153.021628
20
203.201329
11
152.877564
21
204.419454
0
LINE
8
Layer 1
10
152.877564
20
204.419454
11
152.540095
21
205.446218
0
LINE
8
Layer 1
10
152.540095
20
205.446218
11
151.291846
21
207.370106
0
LINE
8
Layer 1
10
151.291846
20
207.370106
11
150.616436
21
208.079578
0
LINE
8
Layer 1
10
150.616436
20
208.079578
11
149.933863
21
208.588153
0
LINE
8
Layer 1
10
149.933863
20
208.588153
11
149.148291
21
208.922789
0
LINE
8
Layer 1
10
149.148291
20
208.922789
11
148.503561
21
208.642704
0
LINE
8
Layer 1
10
148.503561
20
208.642704
11
148.197847
21
208.365156
0
LINE
8
Layer 1
10
148.197847
20
208.365156
11
148.011225
21
208.001440
0
LINE
8
Layer 1
10
148.011225
20
208.001440
11
147.892694
21
206.687200
0
LINE
8
Layer 1
10
147.892694
20
206.687200
11
148.014336
21
205.442255
0
LINE
8
Layer 1
10
148.014336
20
205.442255
11
148.400357
21
204.285909
0
LINE
8
Layer 1
10
148.400357
20
204.285909
11
149.082402
21
203.150259
0
LINE
8
Layer 1
10
149.082402
20
203.150259
11
150.092114
21
201.967397
0
LINE
8
Layer 1
10
150.092114
20
201.967397
11
150.867912
21
201.298749
0
LINE
8
Layer 1
10
150.867912
20
201.298749
11
151.572759
21
200.966314
0
LINE
8
Layer 1
10
151.572759
20
200.966314
11
152.186375
21
200.975070
0
LINE
8
Layer 1
10
152.186375
20
200.975070
11
152.688479
21
201.329996
0
LINE
8
Layer 1
10
152.688479
20
201.329996
11
152.688479
21
201.329996
0
LINE
8
Layer 1
10
126.823123
20
203.314839
11
125.684611
21
204.476773
0
LINE
8
Layer 1
10
125.684611
20
204.476773
11
124.594397
21
205.889115
0
LINE
8
Layer 1
10
124.594397
20
205.889115
11
123.709200
21
207.524019
0
LINE
8
Layer 1
10
123.709200
20
207.524019
11
123.570729
21
208.296111
0
LINE
8
Layer 1
10
123.570729
20
208.296111
11
123.541468
21
209.344974
0
LINE
8
Layer 1
10
123.541468
20
209.344974
11
123.642864
21
210.700392
0
LINE
8
Layer 1
10
123.642864
20
210.700392
11
123.974979
21
211.898139
0
LINE
8
Layer 1
10
123.974979
20
211.898139
11
124.586561
21
213.060111
0
LINE
8
Layer 1
10
124.586561
20
213.060111
11
125.526360
21
214.308206
0
LINE
8
Layer 1
10
125.526360
20
214.308206
11
127.280441
21
215.929513
0
LINE
8
Layer 1
10
127.280441
20
215.929513
11
128.140346
21
216.486819
0
LINE
8
Layer 1
10
128.140346
20
216.486819
11
128.760107
21
216.705656
0
LINE
8
Layer 1
10
128.760107
20
216.705656
11
129.331935
21
216.411222
0
LINE
8
Layer 1
10
129.331935
20
216.411222
11
130.030107
21
215.692306
0
LINE
8
Layer 1
10
130.030107
20
215.692306
11
131.447961
21
213.963466
0
LINE
8
Layer 1
10
131.447961
20
213.963466
11
131.846687
21
213.389255
0
LINE
8
Layer 1
10
131.846687
20
213.389255
11
131.921050
21
213.002406
0
LINE
8
Layer 1
10
131.921050
20
213.002406
11
129.174669
21
211.020762
0
LINE
8
Layer 1
10
129.174669
20
211.020762
11
126.466899
21
209.192599
0
LINE
8
Layer 1
10
126.466899
20
209.192599
11
126.490599
21
208.862117
0
LINE
8
Layer 1
10
126.490599
20
208.862117
11
126.825313
21
208.238685
0
LINE
8
Layer 1
10
126.825313
20
208.238685
11
128.068428
21
206.677353
0
LINE
8
Layer 1
10
128.068428
20
206.677353
11
129.019371
21
205.698197
0
LINE
8
Layer 1
10
129.019371
20
205.698197
11
130.258414
21
206.713497
0
LINE
8
Layer 1
10
130.258414
20
206.713497
11
131.345534
21
207.453489
0
LINE
8
Layer 1
10
131.345534
20
207.453489
11
132.075072
21
207.545469
0
LINE
8
Layer 1
10
132.075072
20
207.545469
11
132.483018
21
207.316004
0
LINE
8
Layer 1
10
132.483018
20
207.316004
11
132.652694
21
207.021757
0
LINE
8
Layer 1
10
132.652694
20
207.021757
11
131.987604
21
206.152094
0
LINE
8
Layer 1
10
131.987604
20
206.152094
11
130.502305
21
204.549907
0
LINE
8
Layer 1
10
130.502305
20
204.549907
11
128.961750
21
203.009631
0
LINE
8
Layer 1
10
128.961750
20
203.009631
11
128.130895
21
202.325698
0
LINE
8
Layer 1
10
128.130895
20
202.325698
11
126.823123
21
203.314839
0
LINE
8
Layer 1
10
126.823123
20
203.314839
11
126.823123
21
203.314839
0
LINE
8
Layer 1
10
127.668048
20
212.053397
11
127.998028
21
212.461339
0
LINE
8
Layer 1
10
127.998028
20
212.461339
11
128.074620
21
212.925030
0
LINE
8
Layer 1
10
128.074620
20
212.925030
11
127.909719
21
213.327759
0
LINE
8
Layer 1
10
127.909719
20
213.327759
11
127.515219
21
213.552816
0
LINE
8
Layer 1
10
127.515219
20
213.552816
11
127.118136
21
213.392756
0
LINE
8
Layer 1
10
127.118136
20
213.392756
11
126.673443
21
212.905881
0
LINE
8
Layer 1
10
126.673443
20
212.905881
11
126.311229
21
212.272756
0
LINE
8
Layer 1
10
126.311229
20
212.272756
11
126.161583
21
211.673944
0
LINE
8
Layer 1
10
126.161583
20
211.673944
11
126.300128
21
211.519520
0
LINE
8
Layer 1
10
126.300128
20
211.519520
11
126.656577
21
211.546196
0
LINE
8
Layer 1
10
126.656577
20
211.546196
11
127.668048
21
212.053397
0
LINE
8
Layer 1
10
127.668048
20
212.053397
11
127.668048
21
212.053397
0
LINE
8
Layer 1
10
118.818437
20
203.317983
11
118.335568
21
203.926517
0
LINE
8
Layer 1
10
118.335568
20
203.926517
11
117.712414
21
204.384721
0
LINE
8
Layer 1
10
117.712414
20
204.384721
11
117.153281
21
204.834193
0
LINE
8
Layer 1
10
117.153281
20
204.834193
11
117.078427
21
205.574135
0
LINE
8
Layer 1
10
117.078427
20
205.574135
11
117.313112
21
209.869619
0
LINE
8
Layer 1
10
117.313112
20
209.869619
11
117.356499
21
212.712521
0
LINE
8
Layer 1
10
117.356499
20
212.712521
11
117.246826
21
213.204509
0
LINE
8
Layer 1
10
117.246826
20
213.204509
11
117.029032
21
213.326841
0
LINE
8
Layer 1
10
117.029032
20
213.326841
11
116.674325
21
213.243938
0
LINE
8
Layer 1
10
116.674325
20
213.243938
11
116.424916
21
213.044618
0
LINE
8
Layer 1
10
116.424916
20
213.044618
11
116.140816
21
212.845299
0
LINE
8
Layer 1
10
116.140816
20
212.845299
11
115.702704
21
212.762396
0
LINE
8
Layer 1
10
115.702704
20
212.762396
11
115.286783
21
212.914292
0
LINE
8
Layer 1
10
115.286783
20
212.914292
11
115.158396
21
213.397396
0
LINE
8
Layer 1
10
115.158396
20
213.397396
11
115.585421
21
214.281091
0
LINE
8
Layer 1
10
115.585421
20
214.281091
11
116.573823
21
215.482301
0
LINE
8
Layer 1
10
116.573823
20
215.482301
11
117.693982
21
216.540642
0
LINE
8
Layer 1
10
117.693982
20
216.540642
11
118.516279
21
216.995729
0
LINE
8
Layer 1
10
118.516279
20
216.995729
11
118.974124
21
216.724844
0
LINE
8
Layer 1
10
118.974124
20
216.724844
11
119.388249
21
216.007952
0
LINE
8
Layer 1
10
119.388249
20
216.007952
11
119.934815
21
215.020163
0
LINE
8
Layer 1
10
119.934815
20
215.020163
11
120.990981
21
216.078496
0
LINE
8
Layer 1
10
120.990981
20
216.078496
11
121.822447
21
216.893501
0
LINE
8
Layer 1
10
121.822447
20
216.893501
11
122.102188
21
216.930763
0
LINE
8
Layer 1
10
122.102188
20
216.930763
11
122.402092
21
216.775977
0
LINE
8
Layer 1
10
122.402092
20
216.775977
11
123.690355
21
215.929310
0
LINE
8
Layer 1
10
123.690355
20
215.929310
11
124.226987
21
215.480726
0
LINE
8
Layer 1
10
124.226987
20
215.480726
11
124.426946
21
214.975082
0
LINE
8
Layer 1
10
124.426946
20
214.975082
11
124.294334
21
214.343104
0
LINE
8
Layer 1
10
124.294334
20
214.343104
11
123.833249
21
213.515515
0
LINE
8
Layer 1
10
123.833249
20
213.515515
11
122.916027
21
212.072772
0
LINE
8
Layer 1
10
122.916027
20
212.072772
11
122.555668
21
211.758727
0
LINE
8
Layer 1
10
122.555668
20
211.758727
11
122.144187
21
211.795521
0
LINE
8
Layer 1
10
122.144187
20
211.795521
11
121.787599
21
212.131679
0
LINE
8
Layer 1
10
121.787599
20
212.131679
11
121.591914
21
212.715725
0
LINE
8
Layer 1
10
121.591914
20
212.715725
11
121.448234
21
213.230996
0
LINE
8
Layer 1
10
121.448234
20
213.230996
11
121.213173
21
213.306656
0
LINE
8
Layer 1
10
121.213173
20
213.306656
11
120.923474
21
212.961570
0
LINE
8
Layer 1
10
120.923474
20
212.961570
11
120.615877
21
212.214603
0
LINE
8
Layer 1
10
120.615877
20
212.214603
11
120.352477
21
210.881420
0
LINE
8
Layer 1
10
120.352477
20
210.881420
11
120.175897
21
209.095743
0
LINE
8
Layer 1
10
120.175897
20
209.095743
11
120.125479
21
207.451938
0
LINE
8
Layer 1
10
120.125479
20
207.451938
11
120.240563
21
206.544373
0
LINE
8
Layer 1
10
120.240563
20
206.544373
11
120.521544
21
206.368361
0
LINE
8
Layer 1
10
120.521544
20
206.368361
11
121.006376
21
206.572036
0
LINE
8
Layer 1
10
121.006376
20
206.572036
11
121.514006
21
206.763500
0
LINE
8
Layer 1
10
121.514006
20
206.763500
11
121.994329
21
206.743473
0
LINE
8
Layer 1
10
121.994329
20
206.743473
11
122.352254
21
206.537582
0
LINE
8
Layer 1
10
122.352254
20
206.537582
11
122.492694
21
206.171456
0
LINE
8
Layer 1
10
122.492694
20
206.171456
11
122.093198
21
205.390680
0
LINE
8
Layer 1
10
122.093198
20
205.390680
11
121.181521
21
204.188606
0
LINE
8
Layer 1
10
121.181521
20
204.188606
11
120.187878
21
203.085693
0
LINE
8
Layer 1
10
120.187878
20
203.085693
11
119.542484
21
202.602397
0
LINE
8
Layer 1
10
119.542484
20
202.602397
11
119.189101
21
202.812600
0
LINE
8
Layer 1
10
119.189101
20
202.812600
11
118.818437
21
203.317983
0
LINE
8
Layer 1
10
118.818437
20
203.317983
11
118.818437
21
203.317983
 0 
ENDSEC
 0 
EOF
